  0
SECTION
  2
HEADER
  9
$ACADVER
  1
AC1009
  9
$INSBASE
 10
0.0
 20
0.0
 30
0.0
  9
$EXTMIN
 10
0.0
 20
-2.960436562073669
 30
0.0
  9
$EXTMAX
 10
235.51041900000001
 20
282.12140299999999
 30
0.0
  9
$LIMMIN
 10
0.0
 20
0.0
  9
$LIMMAX
 10
375.0
 20
270.0
  9
$ORTHOMODE
 70
     1
  9
$REGENMODE
 70
     1
  9
$FILLMODE
 70
     1
  9
$QTEXTMODE
 70
     0
  9
$MIRRTEXT
 70
     0
  9
$DRAGMODE
 70
     2
  9
$LTSCALE
 40
10.0
  9
$OSMODE
 70
    55
  9
$ATTMODE
 70
     1
  9
$TEXTSIZE
 40
0.2
  9
$TRACEWID
 40
0.05
  9
$TEXTSTYLE
  7
STANDARD
  9
$CLAYER
  8
0
  9
$CELTYPE
  6
BYLAYER
  9
$CECOLOR
 62
   256
  9
$DIMSCALE
 40
1.0
  9
$DIMASZ
 40
3.0
  9
$DIMEXO
 40
2.0
  9
$DIMDLI
 40
10.0
  9
$DIMRND
 40
0.0
  9
$DIMDLE
 40
0.0
  9
$DIMEXE
 40
2.0
  9
$DIMTP
 40
0.0
  9
$DIMTM
 40
0.0
  9
$DIMTXT
 40
3.2000000000000002
  9
$DIMCEN
 40
0.09
  9
$DIMTSZ
 40
0.0
  9
$DIMTOL
 70
     0
  9
$DIMLIM
 70
     0
  9
$DIMTIH
 70
     0
  9
$DIMTOH
 70
     0
  9
$DIMSE1
 70
     0
  9
$DIMSE2
 70
     0
  9
$DIMTAD
 70
     1
  9
$DIMZIN
 70
     0
  9
$DIMBLK
  1

  9
$DIMASO
 70
     0
  9
$DIMSHO
 70
     0
  9
$DIMPOST
  1

  9
$DIMAPOST
  1

  9
$DIMALT
 70
     0
  9
$DIMALTD
 70
     2
  9
$DIMALTF
 40
25.399999999999999
  9
$DIMLFAC
 40
1.0
  9
$DIMTOFL
 70
     1
  9
$DIMTVP
 40
1.6000000000000001
  9
$DIMTIX
 70
     0
  9
$DIMSOXD
 70
     0
  9
$DIMSAH
 70
     0
  9
$DIMBLK1
  1

  9
$DIMBLK2
  1

  9
$DIMSTYLE
  2
STANDARD
  9
$DIMCLRD
 70
     0
  9
$DIMCLRE
 70
     0
  9
$DIMCLRT
 70
     0
  9
$DIMTFAC
 40
1.0
  9
$DIMGAP
 40
0.09
  9
$LUNITS
 70
     2
  9
$LUPREC
 70
     4
  9
$SKETCHINC
 40
0.1
  9
$FILLETRAD
 40
0.0
  9
$AUNITS
 70
     0
  9
$AUPREC
 70
     0
  9
$MENU
  1
E:\r13\win\SUPPORT\ACAD
  9
$ELEVATION
 40
0.0
  9
$PELEVATION
 40
0.0
  9
$THICKNESS
 40
0.0
  9
$LIMCHECK
 70
     0
  9
$BLIPMODE
 70
     0
  9
$CHAMFERA
 40
0.0
  9
$CHAMFERB
 40
0.0
  9
$SKPOLY
 70
     0
  9
$TDCREATE
 40
2449840.617152778
  9
$TDUPDATE
 40
2456598.679243878
  9
$TDINDWG
 40
0.0080212384
  9
$TDUSRTIMER
 40
0.0080212384
  9
$USRTIMER
 70
     1
  9
$ANGBASE
 50
0.0
  9
$ANGDIR
 70
     0
  9
$PDMODE
 70
     0
  9
$PDSIZE
 40
0.0
  9
$PLINEWID
 40
0.0
  9
$COORDS
 70
     1
  9
$SPLFRAME
 70
     0
  9
$SPLINETYPE
 70
     6
  9
$SPLINESEGS
 70
     8
  9
$ATTDIA
 70
     0
  9
$ATTREQ
 70
     1
  9
$HANDLING
 70
     1
  9
$HANDSEED
  5
34E
  9
$SURFTAB1
 70
     6
  9
$SURFTAB2
 70
     6
  9
$SURFTYPE
 70
     6
  9
$SURFU
 70
     6
  9
$SURFV
 70
     6
  9
$UCSNAME
  2

  9
$UCSORG
 10
0.0
 20
0.0
 30
0.0
  9
$UCSXDIR
 10
1.0
 20
0.0
 30
0.0
  9
$UCSYDIR
 10
0.0
 20
1.0
 30
0.0
  9
$PUCSNAME
  2

  9
$PUCSORG
 10
0.0
 20
0.0
 30
0.0
  9
$PUCSXDIR
 10
1.0
 20
0.0
 30
0.0
  9
$PUCSYDIR
 10
0.0
 20
1.0
 30
0.0
  9
$USERI1
 70
     0
  9
$USERI2
 70
     1
  9
$USERI3
 70
     0
  9
$USERI4
 70
     0
  9
$USERI5
 70
     0
  9
$USERR1
 40
0.0
  9
$USERR2
 40
0.0
  9
$USERR3
 40
0.0
  9
$USERR4
 40
0.0
  9
$USERR5
 40
0.0
  9
$WORLDVIEW
 70
     1
  9
$SHADEDGE
 70
     3
  9
$SHADEDIF
 70
    70
  9
$TILEMODE
 70
     1
  9
$MAXACTVP
 70
    16
  9
$PLIMCHECK
 70
     0
  9
$PEXTMIN
 10
1.0000000000000000E+020
 20
1.0000000000000000E+020
 30
1.0000000000000000E+020
  9
$PEXTMAX
 10
-1.0000000000000000E+020
 20
-1.0000000000000000E+020
 30
-1.0000000000000000E+020
  9
$PLIMMIN
 10
0.0
 20
0.0
  9
$PLIMMAX
 10
12.0
 20
9.0
  9
$UNITMODE
 70
     0
  9
$VISRETAIN
 70
     0
  9
$PLINEGEN
 70
     0
  9
$PSLTSCALE
 70
     0
  0
ENDSEC
  0
SECTION
  2
TABLES
  0
TABLE
  2
VPORT
 70
     1
  0
VPORT
  2
*ACTIVE
 70
     0
 10
0.0
 20
0.0
 11
1.0
 21
1.0
 12
187.49427839065231
 22
182.82009628843511
 13
0.0
 23
0.0
 14
10.0
 24
10.0
 15
10.0
 25
10.0
 16
0.0
 26
0.0
 36
1.0
 17
0.0
 27
0.0
 37
0.0
 40
374.87519177753433
 41
1.7807262569832401
 42
50.0
 43
0.0
 44
0.0
 50
0.0
 51
0.0
 71
     0
 72
   100
 73
     1
 74
     0
 75
     0
 76
     0
 77
     0
 78
     0
  0
ENDTAB
  0
TABLE
  2
LTYPE
 70
     4
  0
LTYPE
  2
CONTINUOUS
 70
     0
  3
Solid Line
 72
    65
 73
     0
 40
0.0
  0
LTYPE
  2
CENTER
 70
     0
  3
____ _ ____ _ ____ _ ____ _ ____ _ ____ _ ____
 72
    65
 73
     4
 40
2.0
 49
1.25
 49
-0.25
 49
0.25
 49
-0.25
  0
LTYPE
  2
HIDDEN
 70
     0
  3
Hidden __ __ __ __ __ __ __ __ __ __ __ __ __ _
 72
    65
 73
     2
 40
0.375
 49
0.25
 49
-0.125
  0
LTYPE
  2
PHANTOM2
 70
     0
  3
___ _ _ ___ _ _ ___ _ _ ___ _ _
 72
    65
 73
     6
 40
1.25
 49
0.625
 49
-0.125
 49
0.125
 49
-0.125
 49
0.125
 49
-0.125
  0
ENDTAB
  0
TABLE
  2
LAYER
 70
     4
  0
LAYER
  2
0
 70
     0
 62
     7
  6
CONTINUOUS
  0
LAYER
  2
1
 70
     0
 62
     1
  6
CENTER
  0
LAYER
  2
3
 70
     0
 62
     3
  6
CONTINUOUS
  0
LAYER
  2
2
 70
     0
 62
     2
  6
HIDDEN
  0
ENDTAB
  0
TABLE
  2
STYLE
 70
     3
  0
STYLE
  2
STANDARD
 70
     0
 40
0.0
 41
1.0
 50
0.0
 71
     0
 42
0.2
  3
TXT
  4
BIGFONT
  0
STYLE
  2
COMPLEX
 70
     0
 40
3.5
 41
0.4
 50
0.0
 71
     0
 42
3.0
  3
COMPLEX
  4

  0
STYLE
  2
STANDARD1
 70
     0
 40
0.0
 41
1.0
 50
0.0
 71
     0
 42
3.0
  3
txt
  4

  0
ENDTAB
  0
TABLE
  2
VIEW
 70
     1
  0
VIEW
  2
ALL
 70
     0
 40
270.0
 10
220.99159700000001
 20
135.0
 41
0.0
 11
0.0
 21
0.0
 31
1.0
 12
0.0
 22
0.0
 32
0.0
 42
0.0
 43
0.0
 44
0.0
 50
0.0
 71
     0
  0
ENDTAB
  0
TABLE
  2
UCS
 70
     0
  0
ENDTAB
  0
TABLE
  2
APPID
 70
     3
  0
APPID
  2
ACAD
 70
     0
  0
APPID
  2
ACAD_MLEADERVER
 70
     0
  0
APPID
  2
ACAD_NAV_VCDISPLAY
 70
     0
  0
ENDTAB
  0
TABLE
  2
DIMSTYLE
 70
     1
  0
DIMSTYLE
  2
STANDARD
 70
     0
  3

  4

  5

  6

  7

 40
1.0
 41
0.18
 42
0.0625
 43
0.38
 44
0.18
 45
0.0
 46
0.0
 47
0.0
 48
0.0
140
0.18
141
0.09
142
0.0
143
25.399999999999999
144
1.0
145
0.0
146
1.0
147
0.09
 71
     0
 72
     0
 73
     1
 74
     1
 75
     0
 76
     0
 77
     0
 78
     0
170
     0
171
     2
172
     0
173
     0
174
     0
175
     0
176
     0
177
     0
178
     0
  0
ENDTAB
  0
ENDSEC
  0
SECTION
  2
BLOCKS
  0
BLOCK
  8
0
  2
$MODEL_SPACE
 70
     0
 10
0.0
 20
0.0
 30
0.0
  3
$MODEL_SPACE
  1

  0
ENDBLK
  5
E8
  8
0
  0
BLOCK
 67
     1
  8
0
  2
$PAPER_SPACE
 70
     0
 10
0.0
 20
0.0
 30
0.0
  3
$PAPER_SPACE
  1

  0
ENDBLK
  5
E6
 67
     1
  8
0
  0
ENDSEC
  0
SECTION
  2
ENTITIES
  0
CIRCLE
  5
37
  8
0
 10
129.01041900000001
 20
256.62140299999999
 30
0.0
 40
20.5
  0
LINE
  5
38
  8
1
 10
103.510419
 20
256.62140299999999
 30
0.0
 11
154.51041900000001
 21
256.62140299999999
 31
0.0
  0
LINE
  5
3A
  8
1
 10
129.01041900000001
 20
282.12140299999999
 30
0.0
 11
129.01041900000001
 21
231.12140299999999
 31
0.0
  0
CIRCLE
  5
3D
  8
0
 10
129.01041900000001
 20
256.62140299999999
 30
0.0
 40
18.5
  0
CIRCLE
  5
3E
  8
0
 10
129.01041900000001
 20
256.62140299999999
 30
0.0
 40
11.0
  0
CIRCLE
  5
3F
  8
0
 10
129.01041900000001
 20
256.62140299999999
 30
0.0
 40
7.5
  0
CIRCLE
  5
40
  8
0
 10
129.01041900000001
 20
265.62140299999999
 30
0.0
 40
0.75
  0
LINE
  5
41
  8
1
 10
125.760419
 20
265.62140299999999
 30
0.0
 11
132.26041900000001
 21
265.62140299999999
 31
0.0
  0
LINE
  5
42
  8
1
 10
125.760419
 20
247.62140299999999
 30
0.0
 11
132.26041900000001
 21
247.62140299999999
 31
0.0
  0
CIRCLE
  5
43
  8
0
 10
129.01041900000001
 20
247.62140299999999
 30
0.0
 40
0.75
  0
TEXT
  5
44
  8
0
 10
126.6770856666667
 20
255.12140299999999
 30
0.0
 40
3.5
  1
Kipp
 41
0.4
  7
COMPLEX
 72
     1
 11
129.01041900000001
 21
255.12140299999999
 31
0.0
  0
ARC
  5
45
  8
0
 10
134.20657199999999
 20
253.62140299999999
 30
0.0
 40
0.5
 50
270.0
 51
30.0
  0
ARC
  5
46
  8
0
 10
123.814267
 20
253.62140299999999
 30
0.0
 40
0.5
 50
150.0
 51
270.0
  0
ARC
  5
47
  8
0
 10
129.01041900000001
 20
262.62140299999999
 30
0.0
 40
0.5
 50
30.0
 51
150.0
  0
LINE
  5
48
  8
0
 10
134.63958400000001
 20
253.87140299999999
 30
0.0
 11
129.443432
 21
262.87140299999999
 31
0.0
  0
LINE
  5
49
  8
0
 10
123.814267
 20
253.12140299999999
 30
0.0
 11
134.20657199999999
 21
253.12140299999999
 31
0.0
  0
LINE
  5
4A
  8
0
 10
128.577406
 20
262.87140299999999
 30
0.0
 11
123.381254
 21
253.87140299999999
 31
0.0
  0
LINE
  5
52
  8
1
 10
103.510419
 20
187.62140299999999
 30
0.0
 11
154.51041900000001
 21
187.62140299999999
 31
0.0
  0
LINE
  5
53
  8
0
 10
110.510419
 20
196.12140299999999
 30
0.0
 11
108.510419
 21
194.12140299999999
 31
0.0
  0
LINE
  5
54
  8
0
 10
108.510419
 20
194.12140299999999
 30
0.0
 11
108.510419
 21
177.12140299999999
 31
0.0
  0
LINE
  5
55
  8
0
 10
108.510419
 20
177.12140299999999
 30
0.0
 11
109.510419
 21
176.12140299999999
 31
0.0
  0
LINE
  5
56
  8
0
 10
119.510419
 20
176.12140299999999
 30
0.0
 11
119.510419
 21
174.72140300000001
 31
0.0
  0
LINE
  5
57
  8
0
 10
119.510419
 20
174.72140300000001
 30
0.0
 11
120.11041899999999
 21
174.12140299999999
 31
0.0
  0
LINE
  5
58
  8
0
 10
138.51041900000001
 20
174.72140300000001
 30
0.0
 11
137.91041899999999
 21
174.12140299999999
 31
0.0
  0
LINE
  5
59
  8
0
 10
138.51041900000001
 20
176.12140299999999
 30
0.0
 11
138.51041900000001
 21
174.72140300000001
 31
0.0
  0
LINE
  5
5A
  8
0
 10
149.51041900000001
 20
177.12140299999999
 30
0.0
 11
148.51041900000001
 21
176.12140299999999
 31
0.0
  0
LINE
  5
5B
  8
0
 10
149.51041900000001
 20
194.12140299999999
 30
0.0
 11
149.51041900000001
 21
193.62140299999999
 31
0.0
  0
LINE
  5
5C
  8
0
 10
147.51041900000001
 20
196.12140299999999
 30
0.0
 11
149.51041900000001
 21
194.12140299999999
 31
0.0
  0
LINE
  5
5D
  8
0
 10
110.510419
 20
196.12140299999999
 30
0.0
 11
147.51041900000001
 21
196.12140299999999
 31
0.0
  0
LINE
  5
5E
  8
0
 10
149.51041900000001
 20
194.12140299999999
 30
0.0
 11
108.510419
 21
194.12140299999999
 31
0.0
  0
LINE
  5
5F
  8
0
 10
108.510419
 20
177.12140299999999
 30
0.0
 11
149.51041900000001
 21
177.12140299999999
 31
0.0
  0
LINE
  5
60
  8
0
 10
109.510419
 20
176.12140299999999
 30
0.0
 11
148.51041900000001
 21
176.12140299999999
 31
0.0
  0
LINE
  5
61
  8
0
 10
120.11041899999999
 20
174.12140299999999
 30
0.0
 11
137.91041899999999
 21
174.12140299999999
 31
0.0
  0
ARC
  5
62
  8
0
 10
169.11271499999989
 20
187.62140299999999
 30
0.0
 40
20.5
 50
162.98135300000001
 51
197.01864699999999
  0
LINE
  5
63
  8
0
 10
149.51041900000001
 20
181.62140299999999
 30
0.0
 11
149.51041900000001
 21
177.12140299999999
 31
0.0
  0
LINE
  5
64
  8
1
 10
129.01041900000001
 20
201.12140299999999
 30
0.0
 11
129.01041900000001
 21
119.1214029999999
 31
0.0
  0
LINE
  5
65
  8
0
 10
119.510419
 20
174.72140300000001
 30
0.0
 11
138.51041900000001
 21
174.72140300000001
 31
0.0
  0
LINE
  5
6A
  8
1
 10
129.01041900000001
 20
89.121402999999987
 30
0.0
 11
129.01041900000001
 21
38.121402999999987
 31
0.0
  0
LINE
  5
6C
  8
1
 10
103.510419
 20
63.621402999999987
 30
0.0
 11
154.51041900000001
 21
63.621402999999987
 31
0.0
  0
CIRCLE
  5
6D
  8
0
 10
129.01041900000001
 20
63.621402999999987
 30
0.0
 40
20.5
  0
CIRCLE
  5
6E
  8
0
 10
129.01041900000001
 20
63.621402999999987
 30
0.0
 40
19.5
  0
CIRCLE
  5
6F
  8
0
 10
129.01041900000001
 20
63.621402999999987
 30
0.0
 40
9.5
  0
CIRCLE
  5
70
  8
0
 10
129.01041900000001
 20
63.621402999999987
 30
0.0
 40
8.9000000000000004
  0
CIRCLE
  5
71
  8
3
 10
129.01041900000001
 20
63.621402999999987
 30
0.0
 40
6.0
  0
CIRCLE
  5
72
  8
0
 10
129.01041900000001
 20
63.621402999999987
 30
0.0
 40
5.052999999999999
  0
LINE
  5
74
  8
1
 10
210.01041900000001
 20
201.12140299999999
 30
0.0
 11
210.01041900000001
 21
119.1214029999999
 31
0.0
  0
LINE
  5
75
  8
0
 10
230.51041900000001
 20
194.12140299999999
 30
0.0
 11
230.51041900000001
 21
177.12140299999999
 31
0.0
  0
LINE
  5
79
  8
0
 10
230.51041900000001
 20
194.12140299999999
 30
0.0
 11
189.5104189999999
 21
194.12140299999999
 31
0.0
  0
LINE
  5
7B
  8
0
 10
228.51041900000001
 20
196.12140299999999
 30
0.0
 11
230.51041900000001
 21
194.12140299999999
 31
0.0
  0
LINE
  5
7C
  8
0
 10
230.51041900000001
 20
177.12140299999999
 30
0.0
 11
229.51041900000001
 21
176.12140299999999
 31
0.0
  0
LINE
  5
7D
  8
0
 10
219.51041900000001
 20
176.12140299999999
 30
0.0
 11
219.51041900000001
 21
174.72140300000001
 31
0.0
  0
LINE
  5
7E
  8
0
 10
219.51041900000001
 20
174.72140300000001
 30
0.0
 11
218.91041899999999
 21
174.12140299999999
 31
0.0
  0
LINE
  5
7F
  8
0
 10
200.51041900000001
 20
174.72140300000001
 30
0.0
 11
201.11041900000001
 21
174.12140299999999
 31
0.0
  0
LINE
  5
80
  8
0
 10
200.51041900000001
 20
176.12140299999999
 30
0.0
 11
200.51041900000001
 21
174.72140300000001
 31
0.0
  0
LINE
  5
81
  8
0
 10
189.5104189999999
 20
177.12140299999999
 30
0.0
 11
190.51041900000001
 21
176.12140299999999
 31
0.0
  0
LINE
  5
82
  8
0
 10
189.5104189999999
 20
194.12140299999999
 30
0.0
 11
189.5104189999999
 21
177.12140299999999
 31
0.0
  0
LINE
  5
83
  8
0
 10
191.51041900000001
 20
196.12140299999999
 30
0.0
 11
189.5104189999999
 21
194.12140299999999
 31
0.0
  0
LINE
  5
84
  8
1
 10
184.5104189999999
 20
187.62140299999999
 30
0.0
 11
235.51041900000001
 21
187.62140299999999
 31
0.0
  0
LINE
  5
86
  8
0
 10
191.51041900000001
 20
196.12140299999999
 30
0.0
 11
228.51041900000001
 21
196.12140299999999
 31
0.0
  0
LINE
  5
88
  8
0
 10
189.51041900000001
 20
177.12140299999999
 30
0.0
 11
230.51041900000001
 21
177.12140299999999
 31
0.0
  0
LINE
  5
89
  8
0
 10
190.51041900000001
 20
176.12140299999999
 30
0.0
 11
229.51041900000001
 21
176.12140299999999
 31
0.0
  0
LINE
  5
8A
  8
0
 10
200.51041900000001
 20
174.72140300000001
 30
0.0
 11
219.51041900000001
 21
174.72140300000001
 31
0.0
  0
LINE
  5
8B
  8
0
 10
201.11041900000001
 20
174.12140299999999
 30
0.0
 11
218.91041899999999
 21
174.12140299999999
 31
0.0
  0
LINE
  5
8C
  8
0
 10
68.510418999999999
 20
194.12140299999999
 30
0.0
 11
27.510418999999999
 21
194.12140299999999
 31
0.0
  0
LINE
  5
8E
  8
1
 10
22.510418999999999
 20
187.62140299999999
 30
0.0
 11
73.510418999999999
 21
187.62140299999999
 31
0.0
  0
LINE
  5
8F
  8
0
 10
29.510418999999999
 20
196.12140299999999
 30
0.0
 11
27.510418999999999
 21
194.12140299999999
 31
0.0
  0
LINE
  5
90
  8
0
 10
27.510418999999999
 20
194.12140299999999
 30
0.0
 11
27.510418999999999
 21
177.12140299999999
 31
0.0
  0
LINE
  5
91
  8
0
 10
27.510418999999999
 20
177.12140299999999
 30
0.0
 11
28.510418999999999
 21
176.12140299999999
 31
0.0
  0
LINE
  5
92
  8
0
 10
38.510418999999992
 20
176.12140299999999
 30
0.0
 11
38.510418999999992
 21
174.72140300000001
 31
0.0
  0
LINE
  5
93
  8
0
 10
38.510418999999992
 20
174.72140300000001
 30
0.0
 11
39.110418999999993
 21
174.12140299999999
 31
0.0
  0
LINE
  5
94
  8
0
 10
57.510418999999978
 20
174.72140300000001
 30
0.0
 11
56.91041899999999
 21
174.12140299999999
 31
0.0
  0
LINE
  5
95
  8
0
 10
57.510418999999978
 20
176.12140299999999
 30
0.0
 11
57.510418999999978
 21
174.72140300000001
 31
0.0
  0
LINE
  5
96
  8
0
 10
68.510418999999999
 20
177.12140299999999
 30
0.0
 11
67.510418999999985
 21
176.12140299999999
 31
0.0
  0
LINE
  5
97
  8
0
 10
66.510418999999985
 20
196.12140299999999
 30
0.0
 11
68.510418999999999
 21
194.12140299999999
 31
0.0
  0
LINE
  5
98
  8
0
 10
29.510418999999999
 20
196.12140299999999
 30
0.0
 11
66.510418999999985
 21
196.12140299999999
 31
0.0
  0
LINE
  5
99
  8
0
 10
27.510418999999999
 20
177.12140299999999
 30
0.0
 11
68.510418999999999
 21
177.12140299999999
 31
0.0
  0
LINE
  5
9A
  8
0
 10
28.510418999999999
 20
176.12140299999999
 30
0.0
 11
67.510418999999985
 21
176.12140299999999
 31
0.0
  0
LINE
  5
9B
  8
0
 10
39.110418999999993
 20
174.12140299999999
 30
0.0
 11
56.91041899999999
 21
174.12140299999999
 31
0.0
  0
LINE
  5
9C
  8
0
 10
68.510418999999999
 20
194.12140299999999
 30
0.0
 11
68.510418999999999
 21
177.12140299999999
 31
0.0
  0
LINE
  5
9D
  8
1
 10
48.010418999999978
 20
201.12140299999999
 30
0.0
 11
48.010418999999999
 21
119.1214029999999
 31
0.0
  0
LINE
  5
9E
  8
0
 10
38.510418999999992
 20
174.72140300000001
 30
0.0
 11
57.510418999999978
 21
174.72140300000001
 31
0.0
  0
LINE
  5
113
  8
2
 10
148.01041900000001
 20
193.62140299999999
 30
0.0
 11
149.51041900000001
 21
193.62140299999999
 31
0.0
  0
LINE
  5
114
  8
2
 10
148.01041900000001
 20
181.62140299999999
 30
0.0
 11
149.51041900000001
 21
181.62140299999999
 31
0.0
  0
LINE
  5
115
  8
2
 10
148.01041900000001
 20
193.62140299999999
 30
0.0
 11
148.0104189999999
 21
181.62140299999999
 31
0.0
  0
LINE
  5
123
  8
2
 10
148.01041900000001
 20
192.6214029999999
 30
0.0
 11
140.5104189999999
 21
192.62140299999999
 31
0.0
  0
LINE
  5
124
  8
2
 10
148.0104189999999
 20
191.80940300000009
 30
0.0
 11
140.51041900000001
 21
191.80940300000009
 31
0.0
  0
LINE
  5
125
  8
2
 10
148.0104189999999
 20
183.43340299999991
 30
0.0
 11
140.51041900000001
 21
183.43340299999991
 31
0.0
  0
LINE
  5
126
  8
2
 10
148.0104189999999
 20
182.6214029999999
 30
0.0
 11
140.5104189999999
 21
182.62140299999999
 31
0.0
  0
LINE
  5
127
  8
2
 10
140.51041900000001
 20
192.62140299999999
 30
0.0
 11
140.5104189999999
 21
182.62140299999999
 31
0.0
  0
CIRCLE
  5
12C
  8
0
 10
210.01041900000001
 20
187.62140299999999
 30
0.0
 40
4.1880000000001161
  0
CIRCLE
  5
12D
  8
0
 10
210.01041900000001
 20
187.62140299999999
 30
0.0
 40
6.0000000000000142
  0
CIRCLE
  5
12E
  8
3
 10
210.01041900000001
 20
187.62140299999999
 30
0.0
 40
5.0000000000000417
  0
LINE
  5
1CF
  8
0
 10
125.0104189999999
 20
124.1214029999999
 30
0.0
 11
133.0104189999999
 21
124.1214029999999
 31
0.0
  0
LINE
  5
1D0
  8
0
 10
123.0104189999999
 20
126.1214029999999
 30
0.0
 11
135.0104189999999
 21
126.1214029999999
 31
0.0
  0
LINE
  5
1D1
  8
0
 10
123.0104189999999
 20
171.8811509999999
 30
0.0
 11
135.0104189999999
 21
171.8811509999999
 31
0.0
  0
LINE
  5
1D2
  8
0
 10
125.0104189999999
 20
124.1214029999999
 30
0.0
 11
123.0104189999999
 21
126.1214029999999
 31
0.0
  0
LINE
  5
1D3
  8
0
 10
123.0104189999999
 20
126.1214029999999
 30
0.0
 11
123.0104189999999
 21
173.52140299999991
 31
0.0
  0
ARC
  5
1D4
  8
0
 10
122.410419
 20
173.52140299999991
 30
0.0
 40
0.6
 50
0.0
 51
90.0
  0
LINE
  5
1D5
  8
3
 10
123.0104189999999
 20
173.52140299999991
 30
0.0
 11
123.9574189999999
 21
171.8811509999999
 31
0.0
  0
LINE
  5
1D6
  8
3
 10
123.9574189999999
 20
171.8811509999999
 30
0.0
 11
123.9574189999999
 21
125.1744029999999
 31
0.0
  0
LINE
  5
1D7
  8
3
 10
134.0634189999999
 20
171.8811509999999
 30
0.0
 11
134.0634189999999
 21
125.1744029999999
 31
0.0
  0
LINE
  5
1D8
  8
3
 10
135.0104189999999
 20
173.52140299999991
 30
0.0
 11
134.0634189999999
 21
171.8811509999999
 31
0.0
  0
ARC
  5
1D9
  8
0
 10
135.61041899999989
 20
173.52140299999991
 30
0.0
 40
0.6
 50
90.0
 51
180.0
  0
LINE
  5
1DA
  8
0
 10
135.0104189999999
 20
126.1214029999999
 30
0.0
 11
135.0104189999999
 21
173.52140299999991
 31
0.0
  0
LINE
  5
1DB
  8
0
 10
133.0104189999999
 20
124.1214029999999
 30
0.0
 11
135.0104189999999
 21
126.1214029999999
 31
0.0
  0
LINE
  5
1DD
  8
0
 10
52.010418999999921
 20
124.1214029999999
 30
0.0
 11
54.010418999999921
 21
126.1214029999999
 31
0.0
  0
LINE
  5
1DE
  8
0
 10
54.010418999999921
 20
126.1214029999999
 30
0.0
 11
54.010418999999921
 21
173.52140299999991
 31
0.0
  0
ARC
  5
1DF
  8
0
 10
54.610418999999887
 20
173.52140299999991
 30
0.0
 40
0.6
 50
90.0
 51
180.0
  0
LINE
  5
1E0
  8
3
 10
54.010418999999921
 20
173.52140299999991
 30
0.0
 11
53.063418999999918
 21
171.8811509999999
 31
0.0
  0
LINE
  5
1E1
  8
3
 10
53.063418999999918
 20
171.8811509999999
 30
0.0
 11
53.063418999999918
 21
125.1744029999999
 31
0.0
  0
LINE
  5
1E2
  8
3
 10
42.957418999999931
 20
171.8811509999999
 30
0.0
 11
42.957418999999931
 21
125.1744029999999
 31
0.0
  0
LINE
  5
1E3
  8
3
 10
42.010418999999921
 20
173.52140299999991
 30
0.0
 11
42.957418999999931
 21
171.8811509999999
 31
0.0
  0
ARC
  5
1E4
  8
0
 10
41.410418999999962
 20
173.52140299999991
 30
0.0
 40
0.6
 50
0.0
 51
90.0
  0
LINE
  5
1E5
  8
0
 10
42.010418999999921
 20
126.1214029999999
 30
0.0
 11
42.010418999999921
 21
173.52140299999991
 31
0.0
  0
LINE
  5
1E6
  8
0
 10
44.010418999999921
 20
124.1214029999999
 30
0.0
 11
42.010418999999921
 21
126.1214029999999
 31
0.0
  0
LINE
  5
1E7
  8
0
 10
42.010418999999921
 20
171.8811509999999
 30
0.0
 11
54.010418999999921
 21
171.8811509999999
 31
0.0
  0
LINE
  5
1E8
  8
0
 10
42.010418999999921
 20
126.1214029999999
 30
0.0
 11
54.010418999999921
 21
126.1214029999999
 31
0.0
  0
LINE
  5
1E9
  8
0
 10
44.010418999999921
 20
124.1214029999999
 30
0.0
 11
52.010418999999921
 21
124.1214029999999
 31
0.0
  0
LINE
  5
1EA
  8
0
 10
57.510418999999963
 20
174.72140300000001
 30
0.0
 11
56.910418999999962
 21
174.12140299999999
 31
0.0
  0
LINE
  5
1EB
  8
0
 10
206.01041900000001
 20
124.1214029999999
 30
0.0
 11
214.01041900000001
 21
124.1214029999999
 31
0.0
  0
LINE
  5
1EC
  8
0
 10
204.01041900000001
 20
126.1214029999999
 30
0.0
 11
216.01041900000001
 21
126.1214029999999
 31
0.0
  0
LINE
  5
1ED
  8
0
 10
204.01041900000001
 20
171.8811509999999
 30
0.0
 11
216.01041900000001
 21
171.8811509999999
 31
0.0
  0
LINE
  5
1EE
  8
0
 10
206.01041900000001
 20
124.1214029999999
 30
0.0
 11
204.01041900000001
 21
126.1214029999999
 31
0.0
  0
LINE
  5
1EF
  8
0
 10
204.01041900000001
 20
126.1214029999999
 30
0.0
 11
204.01041900000001
 21
173.52140299999991
 31
0.0
  0
ARC
  5
1F0
  8
0
 10
203.41041899999999
 20
173.52140299999991
 30
0.0
 40
0.6
 50
0.0
 51
90.0
  0
LINE
  5
1F1
  8
3
 10
204.01041900000001
 20
173.52140299999991
 30
0.0
 11
204.9574189999999
 21
171.8811509999999
 31
0.0
  0
LINE
  5
1F2
  8
3
 10
204.9574189999999
 20
171.8811509999999
 30
0.0
 11
204.9574189999999
 21
125.1744029999999
 31
0.0
  0
LINE
  5
1F3
  8
3
 10
215.0634189999999
 20
171.8811509999999
 30
0.0
 11
215.0634189999999
 21
125.1744029999999
 31
0.0
  0
LINE
  5
1F4
  8
3
 10
216.01041900000001
 20
173.52140299999991
 30
0.0
 11
215.0634189999999
 21
171.8811509999999
 31
0.0
  0
ARC
  5
1F5
  8
0
 10
216.61041899999989
 20
173.52140299999991
 30
0.0
 40
0.6
 50
90.0
 51
180.0
  0
LINE
  5
1F6
  8
0
 10
216.01041900000001
 20
126.1214029999999
 30
0.0
 11
216.01041900000001
 21
173.52140299999991
 31
0.0
  0
LINE
  5
1F7
  8
0
 10
214.01041900000001
 20
124.1214029999999
 30
0.0
 11
216.01041900000001
 21
126.1214029999999
 31
0.0
  0
TEXT
  5
2BC
  8
0
 62
     3
 10
0.0
 20
0.0
 30
0.0
 40
10.0
  1
FTN12X50
  7
STANDARD1
  0
ENDSEC
  0
EOF
