  0
SECTION
  2
HEADER
  9
$ACADVER
  1
AC1009
  9
$INSBASE
 10
0.0
 20
0.0
 30
0.0
  9
$EXTMIN
 10
0.0
 20
-2.960436562073669
 30
0.0
  9
$EXTMAX
 10
208.34436903226489
 20
238.74750783052031
 30
0.0
  9
$LIMMIN
 10
0.0
 20
0.0
  9
$LIMMAX
 10
375.0
 20
270.0
  9
$ORTHOMODE
 70
     1
  9
$REGENMODE
 70
     1
  9
$FILLMODE
 70
     1
  9
$QTEXTMODE
 70
     0
  9
$MIRRTEXT
 70
     0
  9
$DRAGMODE
 70
     2
  9
$LTSCALE
 40
10.0
  9
$OSMODE
 70
    55
  9
$ATTMODE
 70
     1
  9
$TEXTSIZE
 40
0.2
  9
$TRACEWID
 40
0.05
  9
$TEXTSTYLE
  7
STANDARD
  9
$CLAYER
  8
0
  9
$CELTYPE
  6
BYLAYER
  9
$CECOLOR
 62
   256
  9
$DIMSCALE
 40
1.0
  9
$DIMASZ
 40
3.0
  9
$DIMEXO
 40
2.0
  9
$DIMDLI
 40
0.38
  9
$DIMRND
 40
0.0
  9
$DIMDLE
 40
0.0
  9
$DIMEXE
 40
2.0
  9
$DIMTP
 40
0.0
  9
$DIMTM
 40
0.0
  9
$DIMTXT
 40
3.2000000000000002
  9
$DIMCEN
 40
0.0
  9
$DIMTSZ
 40
0.0
  9
$DIMTOL
 70
     0
  9
$DIMLIM
 70
     0
  9
$DIMTIH
 70
     0
  9
$DIMTOH
 70
     0
  9
$DIMSE1
 70
     0
  9
$DIMSE2
 70
     0
  9
$DIMTAD
 70
     1
  9
$DIMZIN
 70
     0
  9
$DIMBLK
  1

  9
$DIMASO
 70
     0
  9
$DIMSHO
 70
     0
  9
$DIMPOST
  1

  9
$DIMAPOST
  1

  9
$DIMALT
 70
     0
  9
$DIMALTD
 70
     2
  9
$DIMALTF
 40
25.399999999999999
  9
$DIMLFAC
 40
1.0
  9
$DIMTOFL
 70
     0
  9
$DIMTVP
 40
1.6000000000000001
  9
$DIMTIX
 70
     1
  9
$DIMSOXD
 70
     0
  9
$DIMSAH
 70
     0
  9
$DIMBLK1
  1

  9
$DIMBLK2
  1

  9
$DIMSTYLE
  2
STANDARD
  9
$DIMCLRD
 70
     0
  9
$DIMCLRE
 70
     0
  9
$DIMCLRT
 70
     0
  9
$DIMTFAC
 40
1.0
  9
$DIMGAP
 40
0.09
  9
$LUNITS
 70
     2
  9
$LUPREC
 70
     4
  9
$SKETCHINC
 40
0.1
  9
$FILLETRAD
 40
0.0
  9
$AUNITS
 70
     0
  9
$AUPREC
 70
     4
  9
$MENU
  1
E:\r13\win\SUPPORT\ACAD
  9
$ELEVATION
 40
0.0
  9
$PELEVATION
 40
0.0
  9
$THICKNESS
 40
0.0
  9
$LIMCHECK
 70
     0
  9
$BLIPMODE
 70
     0
  9
$CHAMFERA
 40
0.0
  9
$CHAMFERB
 40
0.0
  9
$SKPOLY
 70
     0
  9
$TDCREATE
 40
2449840.617199074
  9
$TDUPDATE
 40
2456598.679298785
  9
$TDINDWG
 40
0.0338726736
  9
$TDUSRTIMER
 40
0.0338726736
  9
$USRTIMER
 70
     1
  9
$ANGBASE
 50
0.0
  9
$ANGDIR
 70
     0
  9
$PDMODE
 70
     0
  9
$PDSIZE
 40
0.0
  9
$PLINEWID
 40
0.0
  9
$COORDS
 70
     1
  9
$SPLFRAME
 70
     0
  9
$SPLINETYPE
 70
     6
  9
$SPLINESEGS
 70
     8
  9
$ATTDIA
 70
     0
  9
$ATTREQ
 70
     1
  9
$HANDLING
 70
     1
  9
$HANDSEED
  5
300
  9
$SURFTAB1
 70
     6
  9
$SURFTAB2
 70
     6
  9
$SURFTYPE
 70
     6
  9
$SURFU
 70
     6
  9
$SURFV
 70
     6
  9
$UCSNAME
  2

  9
$UCSORG
 10
0.0
 20
0.0
 30
0.0
  9
$UCSXDIR
 10
1.0
 20
0.0
 30
0.0
  9
$UCSYDIR
 10
0.0
 20
1.0
 30
0.0
  9
$PUCSNAME
  2

  9
$PUCSORG
 10
0.0
 20
0.0
 30
0.0
  9
$PUCSXDIR
 10
1.0
 20
0.0
 30
0.0
  9
$PUCSYDIR
 10
0.0
 20
1.0
 30
0.0
  9
$USERI1
 70
     0
  9
$USERI2
 70
     1
  9
$USERI3
 70
     0
  9
$USERI4
 70
     0
  9
$USERI5
 70
     0
  9
$USERR1
 40
0.0
  9
$USERR2
 40
0.0
  9
$USERR3
 40
0.0
  9
$USERR4
 40
0.0
  9
$USERR5
 40
0.0
  9
$WORLDVIEW
 70
     1
  9
$SHADEDGE
 70
     3
  9
$SHADEDIF
 70
    70
  9
$TILEMODE
 70
     1
  9
$MAXACTVP
 70
    16
  9
$PLIMCHECK
 70
     0
  9
$PEXTMIN
 10
1.0000000000000000E+020
 20
1.0000000000000000E+020
 30
1.0000000000000000E+020
  9
$PEXTMAX
 10
-1.0000000000000000E+020
 20
-1.0000000000000000E+020
 30
-1.0000000000000000E+020
  9
$PLIMMIN
 10
0.0
 20
0.0
  9
$PLIMMAX
 10
12.0
 20
9.0
  9
$UNITMODE
 70
     0
  9
$VISRETAIN
 70
     0
  9
$PLINEGEN
 70
     0
  9
$PSLTSCALE
 70
     0
  0
ENDSEC
  0
SECTION
  2
TABLES
  0
TABLE
  2
VPORT
 70
     1
  0
VPORT
  2
*ACTIVE
 70
     0
 10
0.0
 20
0.0
 11
1.0
 21
1.0
 12
187.49427839065231
 22
174.91677254346851
 13
0.0
 23
0.0
 14
10.0
 24
10.0
 15
10.0
 25
10.0
 16
0.0
 26
0.0
 36
1.0
 17
0.0
 27
0.0
 37
0.0
 40
358.92027899574339
 41
1.7807262569832401
 42
50.0
 43
0.0
 44
0.0
 50
0.0
 51
0.0
 71
     0
 72
   100
 73
     1
 74
     0
 75
     0
 76
     0
 77
     0
 78
     0
  0
ENDTAB
  0
TABLE
  2
LTYPE
 70
     4
  0
LTYPE
  2
CONTINUOUS
 70
     0
  3
Solid Line
 72
    65
 73
     0
 40
0.0
  0
LTYPE
  2
CENTER
 70
     0
  3
____ _ ____ _ ____ _ ____ _ ____ _ ____ _ ____
 72
    65
 73
     4
 40
2.0
 49
1.25
 49
-0.25
 49
0.25
 49
-0.25
  0
LTYPE
  2
HIDDEN
 70
     0
  3
Hidden __ __ __ __ __ __ __ __ __ __ __ __ __ _
 72
    65
 73
     2
 40
0.375
 49
0.25
 49
-0.125
  0
LTYPE
  2
PHANTOM2
 70
     0
  3
___ _ _ ___ _ _ ___ _ _ ___ _ _
 72
    65
 73
     6
 40
1.25
 49
0.625
 49
-0.125
 49
0.125
 49
-0.125
 49
0.125
 49
-0.125
  0
ENDTAB
  0
TABLE
  2
LAYER
 70
     4
  0
LAYER
  2
0
 70
     0
 62
     7
  6
CONTINUOUS
  0
LAYER
  2
1
 70
     0
 62
     1
  6
CENTER
  0
LAYER
  2
3
 70
     0
 62
     3
  6
CONTINUOUS
  0
LAYER
  2
2
 70
     0
 62
     2
  6
HIDDEN
  0
ENDTAB
  0
TABLE
  2
STYLE
 70
     3
  0
STYLE
  2
STANDARD
 70
     0
 40
0.0
 41
1.0
 50
0.0
 71
     0
 42
0.2
  3
TXT
  4
BIGFONT
  0
STYLE
  2
COMPLEX
 70
     0
 40
3.5
 41
0.4
 50
0.0
 71
     0
 42
3.0
  3
COMPLEX
  4

  0
STYLE
  2
STANDARD1
 70
     0
 40
0.0
 41
1.0
 50
0.0
 71
     0
 42
3.0
  3
txt
  4

  0
ENDTAB
  0
TABLE
  2
VIEW
 70
     1
  0
VIEW
  2
ALL
 70
     0
 40
270.0
 10
220.99159700000001
 20
135.0
 41
0.0
 11
0.0
 21
0.0
 31
1.0
 12
0.0
 22
0.0
 32
0.0
 42
0.0
 43
0.0
 44
0.0
 50
0.0
 71
     0
  0
ENDTAB
  0
TABLE
  2
UCS
 70
     0
  0
ENDTAB
  0
TABLE
  2
APPID
 70
     3
  0
APPID
  2
ACAD
 70
     0
  0
APPID
  2
ACAD_MLEADERVER
 70
     0
  0
APPID
  2
ACAD_NAV_VCDISPLAY
 70
     0
  0
ENDTAB
  0
TABLE
  2
DIMSTYLE
 70
     1
  0
DIMSTYLE
  2
STANDARD
 70
     0
  3

  4

  5

  6

  7

 40
1.0
 41
0.18
 42
0.0625
 43
0.38
 44
0.18
 45
0.0
 46
0.0
 47
0.0
 48
0.0
140
0.18
141
0.09
142
0.0
143
25.399999999999999
144
1.0
145
0.0
146
1.0
147
0.09
 71
     0
 72
     0
 73
     1
 74
     1
 75
     0
 76
     0
 77
     0
 78
     0
170
     0
171
     2
172
     0
173
     0
174
     0
175
     0
176
     0
177
     0
178
     0
  0
ENDTAB
  0
ENDSEC
  0
SECTION
  2
BLOCKS
  0
BLOCK
  8
0
  2
$MODEL_SPACE
 70
     0
 10
0.0
 20
0.0
 30
0.0
  3
$MODEL_SPACE
  1

  0
ENDBLK
  5
100
  8
0
  0
BLOCK
 67
     1
  8
0
  2
$PAPER_SPACE
 70
     0
 10
0.0
 20
0.0
 30
0.0
  3
$PAPER_SPACE
  1

  0
ENDBLK
  5
FE
 67
     1
  8
0
  0
ENDSEC
  0
SECTION
  2
ENTITIES
  0
CIRCLE
  5
127
  8
0
 10
114.6201840322649
 20
217.24750783052019
 30
0.0
 40
16.5
  0
CIRCLE
  5
128
  8
0
 10
114.6201840322649
 20
217.24750783052019
 30
0.0
 40
15.0
  0
LINE
  5
129
  8
1
 10
93.120184032264874
 20
153.74750783052019
 30
0.0
 11
135.34436903226489
 21
153.74750783052019
 31
0.0
  0
LINE
  5
12A
  8
1
 10
93.120184032264874
 20
217.24750783052019
 30
0.0
 11
136.12018403226489
 21
217.24750783052019
 31
0.0
  0
LINE
  5
12B
  8
1
 10
114.6201840322649
 20
238.74750783052031
 30
0.0
 11
114.6201840322649
 21
195.74750783052019
 31
0.0
  0
LINE
  5
12C
  8
0
 10
99.620184032264888
 20
160.74750783052019
 30
0.0
 11
98.120184032264874
 21
159.24750783052019
 31
0.0
  0
LINE
  5
12D
  8
0
 10
98.120184032264874
 20
159.24750783052019
 30
0.0
 11
98.120184032264874
 21
144.74750783052019
 31
0.0
  0
LINE
  5
12E
  8
0
 10
98.120184032264874
 20
144.74750783052019
 30
0.0
 11
99.120184032264902
 21
143.74750783052019
 31
0.0
  0
LINE
  5
12F
  8
0
 10
107.8701840322649
 20
143.74750783052019
 30
0.0
 11
107.8701840322649
 21
142.24750783052019
 31
0.0
  0
LINE
  5
130
  8
0
 10
107.8701840322649
 20
142.24750783052019
 30
0.0
 11
108.3701840322649
 21
141.74750783052019
 31
0.0
  0
LINE
  5
131
  8
0
 10
121.3701840322649
 20
142.24750783052019
 30
0.0
 11
120.8701840322649
 21
141.74750783052019
 31
0.0
  0
LINE
  5
132
  8
0
 10
121.3701840322649
 20
143.74750783052019
 30
0.0
 11
121.3701840322649
 21
142.24750783052019
 31
0.0
  0
LINE
  5
133
  8
0
 10
131.12018403226489
 20
144.74750783052019
 30
0.0
 11
130.12018403226489
 21
143.74750783052019
 31
0.0
  0
LINE
  5
134
  8
0
 10
131.12018403226489
 20
159.24750783052019
 30
0.0
 11
131.12018403226489
 21
158.74750783052019
 31
0.0
  0
LINE
  5
135
  8
0
 10
129.62018403226489
 20
160.74750783052019
 30
0.0
 11
131.12018403226489
 21
159.24750783052019
 31
0.0
  0
LINE
  5
136
  8
0
 10
99.620184032264888
 20
160.74750783052019
 30
0.0
 11
129.62018403226489
 21
160.74750783052019
 31
0.0
  0
LINE
  5
137
  8
0
 10
99.120184032264902
 20
143.74750783052019
 30
0.0
 11
130.12018403226489
 21
143.74750783052019
 31
0.0
  0
LINE
  5
138
  8
0
 10
108.3701840322649
 20
141.74750783052019
 30
0.0
 11
120.8701840322649
 21
141.74750783052019
 31
0.0
  0
LINE
  5
139
  8
0
 10
98.120184032264874
 20
159.24750783052019
 30
0.0
 11
131.12018403226489
 21
159.24750783052019
 31
0.0
  0
LINE
  5
13A
  8
0
 10
98.120184032264874
 20
144.74750783052019
 30
0.0
 11
131.12018403226489
 21
144.74750783052019
 31
0.0
  0
ARC
  5
13B
  8
0
 10
146.84436903226489
 20
153.74750783052019
 30
0.0
 40
16.5
 50
162.36029900000031
 51
197.6397009999996
  0
LINE
  5
13C
  8
0
 10
131.12018403226489
 20
148.74750783052019
 30
0.0
 11
131.12018403226489
 21
144.74750783052019
 31
0.0
  0
LINE
  5
13D
  8
1
 10
114.6201840322649
 20
165.74750783052019
 30
0.0
 11
114.6201840322649
 21
106.74750783052021
 31
0.0
  0
CIRCLE
  5
13E
  8
0
 10
114.6201840322649
 20
217.24750783052019
 30
0.0
 40
7.5
  0
CIRCLE
  5
13F
  8
0
 10
114.6201840322649
 20
217.24750783052019
 30
0.0
 40
5.0
  0
LINE
  5
140
  8
1
 10
111.3701840322649
 20
223.24750783052019
 30
0.0
 11
117.8701840322649
 21
223.24750783052019
 31
0.0
  0
LINE
  5
141
  8
1
 10
111.3701840322649
 20
211.24750783052019
 30
0.0
 11
117.8701840322649
 21
211.24750783052019
 31
0.0
  0
CIRCLE
  5
142
  8
0
 10
114.6201840322649
 20
223.24750783052019
 30
0.0
 40
0.75
  0
CIRCLE
  5
143
  8
0
 10
114.6201840322649
 20
211.24750783052019
 30
0.0
 40
0.75
  0
TEXT
  5
144
  8
0
 10
113.2868506989315
 20
216.74750783052019
 30
0.0
 40
2.0
  1
Kipp
 41
0.4
  7
COMPLEX
 72
     1
 11
114.6201840322649
 21
216.74750783052019
 31
0.0
  0
ARC
  5
145
  8
0
 10
117.6512720322649
 20
215.49750783052019
 30
0.0
 40
0.5
 50
270.0
 51
30.000000000000551
  0
ARC
  5
146
  8
0
 10
111.58909503226489
 20
215.49750783052019
 30
0.0
 40
0.5
 50
149.9999999999994
 51
270.0
  0
ARC
  5
147
  8
0
 10
114.6201840322649
 20
220.74750783052019
 30
0.0
 40
0.5
 50
30.000000000000551
 51
149.9999999999994
  0
LINE
  5
148
  8
0
 10
118.0842850322649
 20
215.74750783052019
 30
0.0
 11
115.05319603226491
 21
220.99750783052019
 31
0.0
  0
LINE
  5
149
  8
0
 10
111.58909503226489
 20
214.99750783052019
 30
0.0
 11
117.6512720322649
 21
214.99750783052019
 31
0.0
  0
LINE
  5
14A
  8
0
 10
114.1871710322649
 20
220.99750783052019
 30
0.0
 11
111.15608203226491
 21
215.74750783052019
 31
0.0
  0
LINE
  5
14B
  8
0
 10
107.8701840322649
 20
142.24750783052019
 30
0.0
 11
121.3701840322649
 21
142.24750783052019
 31
0.0
  0
LINE
  5
14C
  8
1
 10
114.6201840322649
 20
76.747507830520249
 30
0.0
 11
114.6201840322649
 21
33.747507830520249
 31
0.0
  0
LINE
  5
14D
  8
1
 10
93.120184032264874
 20
55.247507830520249
 30
0.0
 11
136.12018403226489
 21
55.247507830520249
 31
0.0
  0
CIRCLE
  5
14E
  8
0
 10
114.6201840322649
 20
55.247507830520249
 30
0.0
 40
16.5
  0
CIRCLE
  5
14F
  8
0
 10
114.6201840322649
 20
55.247507830520249
 30
0.0
 40
15.5
  0
CIRCLE
  5
150
  8
0
 10
114.6201840322649
 20
55.247507830520249
 30
0.0
 40
6.75
  0
CIRCLE
  5
151
  8
0
 10
114.6201840322649
 20
55.247507830520249
 30
0.0
 40
6.25
  0
CIRCLE
  5
152
  8
0
 10
114.6201840322649
 20
55.247507830520249
 30
0.0
 40
4.0
  0
CIRCLE
  5
153
  8
3
 10
114.6201840322649
 20
55.247507830520249
 30
0.0
 40
3.3235000000000001
  0
LINE
  5
154
  8
1
 10
186.84436903226489
 20
165.74750783052019
 30
0.0
 11
186.84436903226489
 21
106.74750783052021
 31
0.0
  0
LINE
  5
155
  8
0
 10
203.34436903226489
 20
159.24750783052019
 30
0.0
 11
203.34436903226489
 21
144.74750783052019
 31
0.0
  0
LINE
  5
156
  8
0
 10
201.84436903226489
 20
160.74750783052019
 30
0.0
 11
203.34436903226489
 21
159.24750783052019
 31
0.0
  0
LINE
  5
157
  8
0
 10
203.34436903226489
 20
144.74750783052019
 30
0.0
 11
202.34436903226489
 21
143.74750783052019
 31
0.0
  0
LINE
  5
158
  8
0
 10
193.59436903226489
 20
143.74750783052019
 30
0.0
 11
193.59436903226489
 21
142.24750783052019
 31
0.0
  0
LINE
  5
159
  8
0
 10
193.59436903226489
 20
142.24750783052019
 30
0.0
 11
193.09436903226489
 21
141.74750783052019
 31
0.0
  0
LINE
  5
15A
  8
0
 10
180.09436903226489
 20
142.24750783052019
 30
0.0
 11
180.59436903226489
 21
141.74750783052019
 31
0.0
  0
LINE
  5
15B
  8
0
 10
180.09436903226489
 20
143.74750783052019
 30
0.0
 11
180.09436903226489
 21
142.24750783052019
 31
0.0
  0
LINE
  5
15C
  8
0
 10
170.34436903226489
 20
144.74750783052019
 30
0.0
 11
171.34436903226489
 21
143.74750783052019
 31
0.0
  0
LINE
  5
15D
  8
0
 10
170.34436903226489
 20
159.24750783052019
 30
0.0
 11
170.34436903226489
 21
144.74750783052019
 31
0.0
  0
LINE
  5
15E
  8
0
 10
171.84436903226489
 20
160.74750783052019
 30
0.0
 11
170.34436903226489
 21
159.24750783052019
 31
0.0
  0
LINE
  5
15F
  8
1
 10
165.34436903226489
 20
153.74750783052019
 30
0.0
 11
208.34436903226489
 21
153.74750783052019
 31
0.0
  0
LINE
  5
160
  8
0
 10
171.84436903226489
 20
160.74750783052019
 30
0.0
 11
201.84436903226489
 21
160.74750783052019
 31
0.0
  0
LINE
  5
161
  8
0
 10
170.34436903226489
 20
159.24750783052019
 30
0.0
 11
203.34436903226489
 21
159.24750783052019
 31
0.0
  0
LINE
  5
162
  8
0
 10
170.34436903226489
 20
144.74750783052019
 30
0.0
 11
203.34436903226489
 21
144.74750783052019
 31
0.0
  0
LINE
  5
163
  8
0
 10
171.34436903226489
 20
143.74750783052019
 30
0.0
 11
202.34436903226489
 21
143.74750783052019
 31
0.0
  0
LINE
  5
164
  8
0
 10
180.09436903226489
 20
142.24750783052019
 30
0.0
 11
193.59436903226489
 21
142.24750783052019
 31
0.0
  0
LINE
  5
165
  8
0
 10
180.59436903226489
 20
141.74750783052019
 30
0.0
 11
193.09436903226489
 21
141.74750783052019
 31
0.0
  0
LINE
  5
166
  8
1
 10
20.120184032264952
 20
153.74750783052019
 30
0.0
 11
63.120184032264937
 21
153.74750783052019
 31
0.0
  0
LINE
  5
167
  8
0
 10
26.620184032264952
 20
160.74750783052019
 30
0.0
 11
25.120184032264952
 21
159.24750783052019
 31
0.0
  0
LINE
  5
168
  8
0
 10
25.120184032264952
 20
159.24750783052019
 30
0.0
 11
25.120184032264952
 21
144.74750783052019
 31
0.0
  0
LINE
  5
169
  8
0
 10
25.120184032264952
 20
144.74750783052019
 30
0.0
 11
26.120184032264952
 21
143.74750783052019
 31
0.0
  0
LINE
  5
16A
  8
0
 10
34.870184032264952
 20
143.74750783052019
 30
0.0
 11
34.870184032264952
 21
142.24750783052019
 31
0.0
  0
LINE
  5
16B
  8
0
 10
34.870184032264952
 20
142.24750783052019
 30
0.0
 11
35.370184032264952
 21
141.74750783052019
 31
0.0
  0
LINE
  5
16C
  8
0
 10
48.370184032264937
 20
142.24750783052019
 30
0.0
 11
47.870184032264937
 21
141.74750783052019
 31
0.0
  0
LINE
  5
16D
  8
0
 10
48.370184032264937
 20
143.74750783052019
 30
0.0
 11
48.370184032264937
 21
142.24750783052019
 31
0.0
  0
LINE
  5
16E
  8
0
 10
58.120184032264937
 20
144.74750783052019
 30
0.0
 11
57.120184032264937
 21
143.74750783052019
 31
0.0
  0
LINE
  5
16F
  8
0
 10
56.620184032264937
 20
160.74750783052019
 30
0.0
 11
58.120184032264937
 21
159.24750783052019
 31
0.0
  0
LINE
  5
170
  8
0
 10
26.620184032264952
 20
160.74750783052019
 30
0.0
 11
56.620184032264937
 21
160.74750783052019
 31
0.0
  0
LINE
  5
171
  8
0
 10
26.120184032264952
 20
143.74750783052019
 30
0.0
 11
57.120184032264937
 21
143.74750783052019
 31
0.0
  0
LINE
  5
172
  8
0
 10
35.370184032264952
 20
141.74750783052019
 30
0.0
 11
47.870184032264937
 21
141.74750783052019
 31
0.0
  0
LINE
  5
173
  8
0
 10
25.120184032264952
 20
159.24750783052019
 30
0.0
 11
58.120184032264937
 21
159.24750783052019
 31
0.0
  0
LINE
  5
174
  8
0
 10
25.120184032264952
 20
144.74750783052019
 30
0.0
 11
58.120184032264937
 21
144.74750783052019
 31
0.0
  0
LINE
  5
175
  8
0
 10
58.120184032264937
 20
159.24750783052019
 30
0.0
 11
58.120184032264937
 21
144.74750783052019
 31
0.0
  0
LINE
  5
176
  8
1
 10
41.620184032264937
 20
165.74750783052019
 30
0.0
 11
41.620184032264937
 21
106.74750783052021
 31
0.0
  0
LINE
  5
177
  8
0
 10
34.870184032264952
 20
142.24750783052019
 30
0.0
 11
48.370184032264937
 21
142.24750783052019
 31
0.0
  0
LINE
  5
182
  8
2
 10
129.620184032265
 20
158.74750783052019
 30
0.0
 11
131.12018383874849
 21
158.74750783052019
 31
0.0
  0
LINE
  5
183
  8
2
 10
129.62018403226489
 20
148.74750783052019
 30
0.0
 11
131.12018383874849
 21
148.74750783052019
 31
0.0
  0
LINE
  5
184
  8
2
 10
129.62018403226489
 20
158.74750783052011
 30
0.0
 11
129.62018403226489
 21
148.74750783052019
 31
0.0
  0
LINE
  5
185
  8
2
 10
129.62018403226489
 20
149.74750783052019
 30
0.0
 11
123.120184032265
 21
149.74750783052019
 31
0.0
  0
LINE
  5
186
  8
2
 10
129.62018403226489
 20
150.42400783052011
 30
0.0
 11
123.1201840322649
 21
150.42400783052011
 31
0.0
  0
LINE
  5
187
  8
2
 10
129.62018403226489
 20
157.0710078305203
 30
0.0
 11
123.1201840322649
 21
157.0710078305203
 31
0.0
  0
LINE
  5
188
  8
2
 10
129.620184032265
 20
157.74750783052019
 30
0.0
 11
123.120184032265
 21
157.74750783052019
 31
0.0
  0
LINE
  5
189
  8
2
 10
123.1201840322649
 20
157.74750783052019
 30
0.0
 11
123.120184032265
 21
149.74750783052019
 31
0.0
  0
CIRCLE
  5
18A
  8
0
 10
186.84436903226489
 20
153.74750783052019
 30
0.0
 40
5.0
  0
CIRCLE
  5
18B
  8
0
 10
186.84436903226489
 20
153.74750783052019
 30
0.0
 40
3.3235000000000801
  0
CIRCLE
  5
18C
  8
3
 10
186.84436903226489
 20
153.74750783052019
 30
0.0
 40
3.9999999999999711
  0
LINE
  5
18E
  8
0
 10
37.620184032264952
 20
112.94750783052019
 30
0.0
 11
45.620184032264937
 21
112.94750783052019
 31
0.0
  0
LINE
  5
18F
  8
0
 10
38.82018403226494
 20
111.74750783052021
 30
0.0
 11
44.420184032264949
 21
111.74750783052021
 31
0.0
  0
LINE
  5
190
  8
3
 10
44.943684032264969
 20
140.17577583052019
 30
0.0
 11
44.943684032264969
 21
112.2710078305202
 31
0.0
  0
LINE
  5
191
  8
0
 10
45.620184032264937
 20
112.94750783052019
 30
0.0
 11
45.620184032264937
 21
141.34750783052019
 31
0.0
  0
LINE
  5
192
  8
0
 10
44.420184032264949
 20
111.74750783052021
 30
0.0
 11
45.620184032264937
 21
112.94750783052019
 31
0.0
  0
LINE
  5
193
  8
0
 10
45.620184032264937
 20
140.17577583052019
 30
0.0
 11
37.620184032264952
 21
140.17577583052019
 31
0.0
  0
LINE
  5
194
  8
0
 10
37.620184032264952
 20
112.94750783052019
 30
0.0
 11
37.620184032264952
 21
141.34750783052019
 31
0.0
  0
LINE
  5
195
  8
3
 10
37.620184032264952
 20
141.34750883052021
 30
0.0
 11
38.29668403226492
 21
140.17577583052019
 31
0.0
  0
LINE
  5
196
  8
3
 10
38.29668403226492
 20
140.17577583052019
 30
0.0
 11
38.29668403226492
 21
112.2710078305202
 31
0.0
  0
ARC
  5
197
  8
0
 10
37.22018403226491
 20
141.34750783052019
 30
0.0
 40
0.4
 50
0.0
 51
90.0
  0
LINE
  5
198
  8
3
 10
45.620184032264937
 20
141.34750883052021
 30
0.0
 11
44.943684032264969
 21
140.17577583052019
 31
0.0
  0
ARC
  5
199
  8
0
 10
46.020184032264922
 20
141.34750783052019
 30
0.0
 40
0.4
 50
90.0
 51
180.0
  0
LINE
  5
19A
  8
0
 10
38.82018403226494
 20
111.74750783052021
 30
0.0
 11
37.620184032264952
 21
112.94750783052019
 31
0.0
  0
ARC
  5
19D
  8
0
 10
119.02018403226479
 20
141.34750783052019
 30
0.0
 40
0.4
 50
90.0
 51
180.0
  0
LINE
  5
19E
  8
3
 10
118.6201840322649
 20
141.34750883052021
 30
0.0
 11
117.9436840322649
 21
140.17577583052019
 31
0.0
  0
ARC
  5
19F
  8
0
 10
110.2201840322648
 20
141.34750783052019
 30
0.0
 40
0.4
 50
0.0
 51
90.0
  0
LINE
  5
1A0
  8
3
 10
110.6201840322649
 20
141.34750883052021
 30
0.0
 11
111.29668403226481
 21
140.17577583052019
 31
0.0
  0
LINE
  5
1A1
  8
0
 10
118.6201840322649
 20
140.17577583052019
 30
0.0
 11
110.6201840322649
 21
140.17577583052019
 31
0.0
  0
LINE
  5
1A2
  8
0
 10
118.6201840322649
 20
112.94750783052019
 30
0.0
 11
118.6201840322649
 21
141.34750783052019
 31
0.0
  0
LINE
  5
1A3
  8
3
 10
117.9436840322649
 20
140.17577583052019
 30
0.0
 11
117.9436840322649
 21
112.2710078305202
 31
0.0
  0
LINE
  5
1A4
  8
3
 10
111.29668403226481
 20
140.17577583052019
 30
0.0
 11
111.29668403226481
 21
112.2710078305202
 31
0.0
  0
LINE
  5
1A5
  8
0
 10
110.6201840322649
 20
112.94750783052019
 30
0.0
 11
110.6201840322649
 21
141.34750783052019
 31
0.0
  0
LINE
  5
1A6
  8
0
 10
111.8201840322649
 20
111.74750783052021
 30
0.0
 11
110.6201840322649
 21
112.94750783052019
 31
0.0
  0
LINE
  5
1A7
  8
0
 10
117.4201840322649
 20
111.74750783052021
 30
0.0
 11
118.6201840322649
 21
112.94750783052019
 31
0.0
  0
LINE
  5
1A8
  8
0
 10
111.8201840322649
 20
111.74750783052021
 30
0.0
 11
117.4201840322649
 21
111.74750783052021
 31
0.0
  0
LINE
  5
1A9
  8
0
 10
110.6201840322649
 20
112.94750783052019
 30
0.0
 11
118.6201840322649
 21
112.94750783052019
 31
0.0
  0
LINE
  5
1AA
  8
0
 10
182.84436903226489
 20
112.94750783052019
 30
0.0
 11
190.84436903226489
 21
112.94750783052019
 31
0.0
  0
LINE
  5
1AB
  8
0
 10
184.04436903226491
 20
111.74750783052021
 30
0.0
 11
189.6443690322649
 21
111.74750783052021
 31
0.0
  0
LINE
  5
1AC
  8
0
 10
189.6443690322649
 20
111.74750783052021
 30
0.0
 11
190.84436903226489
 21
112.94750783052019
 31
0.0
  0
LINE
  5
1AD
  8
0
 10
184.04436903226491
 20
111.74750783052021
 30
0.0
 11
182.84436903226489
 21
112.94750783052019
 31
0.0
  0
LINE
  5
1AE
  8
0
 10
182.84436903226489
 20
112.94750783052019
 30
0.0
 11
182.84436903226489
 21
141.34750783052019
 31
0.0
  0
LINE
  5
1AF
  8
3
 10
183.5208690322649
 20
140.17577583052019
 30
0.0
 11
183.5208690322649
 21
112.2710078305202
 31
0.0
  0
LINE
  5
1B0
  8
3
 10
190.16786903226489
 20
140.17577583052019
 30
0.0
 11
190.16786903226489
 21
112.2710078305202
 31
0.0
  0
LINE
  5
1B1
  8
0
 10
190.84436903226489
 20
112.94750783052019
 30
0.0
 11
190.84436903226489
 21
141.34750783052019
 31
0.0
  0
LINE
  5
1B2
  8
0
 10
190.84436903226489
 20
140.17577583052019
 30
0.0
 11
182.84436903226489
 21
140.17577583052019
 31
0.0
  0
LINE
  5
1B3
  8
3
 10
182.84436903226489
 20
141.34750883052021
 30
0.0
 11
183.5208690322649
 21
140.17577583052019
 31
0.0
  0
ARC
  5
1B4
  8
0
 10
182.44436903226489
 20
141.34750783052019
 30
0.0
 40
0.4
 50
0.0
 51
90.0
  0
LINE
  5
1B5
  8
3
 10
190.84436903226489
 20
141.34750883052021
 30
0.0
 11
190.16786903226489
 21
140.17577583052019
 31
0.0
  0
ARC
  5
1B6
  8
0
 10
191.2443690322649
 20
141.34750783052019
 30
0.0
 40
0.4
 50
90.0
 51
180.0
  0
TEXT
  5
26E
  8
0
 62
     3
 10
0.0
 20
0.0
 30
0.0
 40
10.0
  1
FTN8X30
  7
STANDARD1
  0
ENDSEC
  0
EOF
