  0
SECTION
  2
HEADER
  9
$ACADVER
  1
AC1009
  9
$INSBASE
 10
0.0
 20
0.0
 30
0.0
  9
$EXTMIN
 10
0.0
 20
-2.960436562073669
 30
0.0
  9
$EXTMAX
 10
112.5
 20
114.8636146578388946
 30
0.0
  9
$LIMMIN
 10
0.0
 20
0.0
  9
$LIMMAX
 10
187.5
 20
135.0
  9
$ORTHOMODE
 70
     1
  9
$REGENMODE
 70
     1
  9
$FILLMODE
 70
     1
  9
$QTEXTMODE
 70
     0
  9
$MIRRTEXT
 70
     0
  9
$DRAGMODE
 70
     2
  9
$LTSCALE
 40
5.0
  9
$OSMODE
 70
    37
  9
$ATTMODE
 70
     1
  9
$TEXTSIZE
 40
4.000000000000048
  9
$TRACEWID
 40
0.05
  9
$TEXTSTYLE
  7
STANDARD
  9
$CLAYER
  8
0
  9
$CELTYPE
  6
BYLAYER
  9
$CECOLOR
 62
   256
  9
$DIMSCALE
 40
0.5
  9
$DIMASZ
 40
3.0
  9
$DIMEXO
 40
2.0
  9
$DIMDLI
 40
0.38
  9
$DIMRND
 40
0.0
  9
$DIMDLE
 40
0.0
  9
$DIMEXE
 40
2.0
  9
$DIMTP
 40
0.0
  9
$DIMTM
 40
0.0
  9
$DIMTXT
 40
3.2000000000000002
  9
$DIMCEN
 40
0.0
  9
$DIMTSZ
 40
0.0
  9
$DIMTOL
 70
     0
  9
$DIMLIM
 70
     0
  9
$DIMTIH
 70
     0
  9
$DIMTOH
 70
     0
  9
$DIMSE1
 70
     0
  9
$DIMSE2
 70
     0
  9
$DIMTAD
 70
     1
  9
$DIMZIN
 70
     0
  9
$DIMBLK
  1

  9
$DIMASO
 70
     1
  9
$DIMSHO
 70
     0
  9
$DIMPOST
  1

  9
$DIMAPOST
  1

  9
$DIMALT
 70
     0
  9
$DIMALTD
 70
     2
  9
$DIMALTF
 40
25.3999999999999986
  9
$DIMLFAC
 40
1.0
  9
$DIMTOFL
 70
     1
  9
$DIMTVP
 40
1.6000000000000001
  9
$DIMTIX
 70
     1
  9
$DIMSOXD
 70
     0
  9
$DIMSAH
 70
     0
  9
$DIMBLK1
  1

  9
$DIMBLK2
  1

  9
$DIMSTYLE
  2
STANDARD
  9
$DIMCLRD
 70
     0
  9
$DIMCLRE
 70
     0
  9
$DIMCLRT
 70
     0
  9
$DIMTFAC
 40
1.0
  9
$DIMGAP
 40
0.09
  9
$LUNITS
 70
     2
  9
$LUPREC
 70
     4
  9
$SKETCHINC
 40
0.1
  9
$FILLETRAD
 40
1.0
  9
$AUNITS
 70
     1
  9
$AUPREC
 70
     4
  9
$MENU
  1
E:\r13\win\SUPPORT\ACAD
  9
$ELEVATION
 40
0.0
  9
$PELEVATION
 40
0.0
  9
$THICKNESS
 40
0.0
  9
$LIMCHECK
 70
     0
  9
$BLIPMODE
 70
     0
  9
$CHAMFERA
 40
2.0
  9
$CHAMFERB
 40
2.0
  9
$SKPOLY
 70
     0
  9
$TDCREATE
 40
2449839.7904861117713153
  9
$TDUPDATE
 40
2460580.5713310190476477
  9
$TDINDWG
 40
0.2246027083
  9
$TDUSRTIMER
 40
0.2246027083
  9
$USRTIMER
 70
     1
  9
$ANGBASE
 50
0.0
  9
$ANGDIR
 70
     0
  9
$PDMODE
 70
     0
  9
$PDSIZE
 40
0.0
  9
$PLINEWID
 40
0.0
  9
$COORDS
 70
     1
  9
$SPLFRAME
 70
     0
  9
$SPLINETYPE
 70
     6
  9
$SPLINESEGS
 70
     8
  9
$ATTDIA
 70
     1
  9
$ATTREQ
 70
     1
  9
$HANDLING
 70
     1
  9
$HANDSEED
  5
170C
  9
$SURFTAB1
 70
     6
  9
$SURFTAB2
 70
     6
  9
$SURFTYPE
 70
     6
  9
$SURFU
 70
     6
  9
$SURFV
 70
     6
  9
$UCSNAME
  2

  9
$UCSORG
 10
0.0
 20
0.0
 30
0.0
  9
$UCSXDIR
 10
1.0
 20
0.0
 30
0.0
  9
$UCSYDIR
 10
0.0
 20
1.0
 30
0.0
  9
$PUCSNAME
  2

  9
$PUCSORG
 10
0.0
 20
0.0
 30
0.0
  9
$PUCSXDIR
 10
1.0
 20
0.0
 30
0.0
  9
$PUCSYDIR
 10
0.0
 20
1.0
 30
0.0
  9
$USERI1
 70
     0
  9
$USERI2
 70
     1
  9
$USERI3
 70
     1
  9
$USERI4
 70
     0
  9
$USERI5
 70
     0
  9
$USERR1
 40
0.0
  9
$USERR2
 40
0.0
  9
$USERR3
 40
0.0
  9
$USERR4
 40
0.0
  9
$USERR5
 40
0.0
  9
$WORLDVIEW
 70
     1
  9
$SHADEDGE
 70
     3
  9
$SHADEDIF
 70
    70
  9
$TILEMODE
 70
     1
  9
$MAXACTVP
 70
    16
  9
$PLIMCHECK
 70
     0
  9
$PEXTMIN
 10
1.0000000000000000E+20
 20
1.0000000000000000E+20
 30
1.0000000000000000E+20
  9
$PEXTMAX
 10
-1.0000000000000000E+20
 20
-1.0000000000000000E+20
 30
-1.0000000000000000E+20
  9
$PLIMMIN
 10
0.0
 20
0.0
  9
$PLIMMAX
 10
12.0
 20
9.0
  9
$UNITMODE
 70
     0
  9
$VISRETAIN
 70
     0
  9
$PLINEGEN
 70
     0
  9
$PSLTSCALE
 70
     0
  0
ENDSEC
  0
SECTION
  2
TABLES
  0
TABLE
  2
VPORT
 70
     1
  0
VPORT
  2
*ACTIVE
 70
     0
 10
0.0
 20
0.0
 11
1.0
 21
1.0
 12
140.9113300492610108
 22
60.0
 13
0.0
 23
0.0
 14
5.0
 24
5.0
 15
5.0
 25
5.0
 16
0.0
 26
0.0
 36
1.0
 17
0.0
 27
0.0
 37
0.0
 40
120.0
 41
2.3485221674876842
 42
50.0
 43
0.0
 44
0.0
 50
0.0
 51
0.0
 71
     0
 72
   500
 73
     1
 74
     0
 75
     0
 76
     0
 77
     0
 78
     2
  0
ENDTAB
  0
TABLE
  2
LTYPE
 70
     3
  0
LTYPE
  2
CONTINUOUS
 70
     0
  3
Solid Line
 72
    65
 73
     0
 40
0.0
  0
LTYPE
  2
CENTER
 70
     0
  3
____ _ ____ _ ____ _ ____ _ ____ _ ____ _ ____
 72
    65
 73
     4
 40
2.0
 49
1.25
 49
-0.25
 49
0.25
 49
-0.25
  0
LTYPE
  2
HIDDEN
 70
     0
  3
_ _ _ _ _ _ _ _ _ _ _ _ _ _ _ _ _ _ _ _ _ _ _
 72
    65
 73
     2
 40
0.375
 49
0.25
 49
-0.125
  0
ENDTAB
  0
TABLE
  2
LAYER
 70
     4
  0
LAYER
  2
0
 70
     0
 62
     7
  6
CONTINUOUS
  0
LAYER
  2
1
 70
     0
 62
     1
  6
CENTER
  0
LAYER
  2
2
 70
     0
 62
     2
  6
HIDDEN
  0
LAYER
  2
DEFPOINTS
 70
     0
 62
     7
  6
CONTINUOUS
  0
ENDTAB
  0
TABLE
  2
STYLE
 70
     2
  0
STYLE
  2
STANDARD
 70
     0
 40
0.0
 41
1.0
 50
0.0
 71
     0
 42
4.000000000000048
  3
TXT
  4
BIGFONT
  0
STYLE
  2
STANDARD1
 70
     0
 40
0.0
 41
1.0
 50
0.0
 71
     0
 42
3.0
  3
txt
  4

  0
ENDTAB
  0
TABLE
  2
VIEW
 70
     1
  0
VIEW
  2
ALL
 70
     0
 40
135.0
 10
110.4957983193277045
 20
67.5
 41
0.0
 11
0.0
 21
0.0
 31
1.0
 12
0.0
 22
0.0
 32
0.0
 42
0.0
 43
0.0
 44
0.0
 50
0.0
 71
     0
  0
ENDTAB
  0
TABLE
  2
UCS
 70
     0
  0
ENDTAB
  0
TABLE
  2
APPID
 70
     6
  0
APPID
  2
ACAD
 70
     0
  0
APPID
  2
ACAD_MLEADERVER
 70
     0
  0
APPID
  2
ACAD_NAV_VCDISPLAY
 70
     0
  0
APPID
  2
ACAD_EXEMPT_FROM_CAD_STANDARDS
 70
     0
  0
APPID
  2
ACAD_DSTYLE_DIMRADIAL_EXTENSION
 70
     0
  0
APPID
  2
ACAD_TC
 70
     0
  0
ENDTAB
  0
TABLE
  2
DIMSTYLE
 70
     1
  0
DIMSTYLE
  2
STANDARD
 70
     0
  3

  4

  5

  6

  7

 40
1.0
 41
0.18
 42
0.0625
 43
0.38
 44
0.18
 45
0.0
 46
0.0
 47
0.0
 48
0.0
140
0.18
141
0.09
142
0.0
143
25.3999999999999986
144
1.0
145
0.0
146
1.0
147
0.09
 71
     0
 72
     0
 73
     1
 74
     1
 75
     0
 76
     0
 77
     0
 78
     0
170
     0
171
     2
172
     0
173
     0
174
     0
175
     0
176
     0
177
     0
178
     0
  0
ENDTAB
  0
ENDSEC
  0
SECTION
  2
BLOCKS
  0
BLOCK
  8
0
  2
$MODEL_SPACE
 70
     0
 10
0.0
 20
0.0
 30
0.0
  3
$MODEL_SPACE
  1

  0
ENDBLK
  5
13F
  8
0
  0
BLOCK
 67
     1
  8
0
  2
$PAPER_SPACE
 70
     0
 10
0.0
 20
0.0
 30
0.0
  3
$PAPER_SPACE
  1

  0
ENDBLK
  5
13D
 67
     1
  8
0
  0
ENDSEC
  0
SECTION
  2
ENTITIES
  0
TEXT
  5
13E7
  8
0
 62
     3
 10
0.0
 20
0.0
 30
0.0
 40
10.0
  1
FWN25-M5
  7
STANDARD1
  0
LINE
  5
14E9
  8
0
 10
62.4999999999999716
 20
56.0000000000000426
 30
0.0
 11
62.3865074991517474
 21
59.2500000000000426
 31
0.0
  0
LINE
  5
14EA
  8
0
 10
37.6134925008481389
 20
59.2499999999999432
 30
0.0
 11
37.4999999999999716
 21
55.9999999999999574
 31
0.0
  0
ARC
  5
14EB
  8
0
 10
41.9696724528361287
 20
54.3333333333333073
 30
0.0
 40
1.6666666666666621
 50
358.0000000000003979
 51
90.0
  0
ARC
  5
14EC
  8
0
 10
58.0303275471638003
 20
54.3333333333333712
 30
0.0
 40
1.666666666666669
 50
90.0
 51
182.0000000000019895
  0
LINE
  5
14ED
  8
0
 10
56.4999999999999716
 20
50.4000000000000199
 30
0.0
 11
56.3646761687986384
 21
54.2751675054958369
 31
0.0
  0
LINE
  5
14EE
  8
0
 10
43.6353238312012977
 20
54.2751675054958014
 30
0.0
 11
43.5
 21
50.3999999999999773
 31
0.0
  0
LINE
  5
14EF
  8
0
 10
46.5
 20
50.3999999999999773
 30
0.0
 11
46.5
 21
49.9999999999999929
 31
0.0
  0
LINE
  5
14F0
  8
0
 10
53.5
 20
50.0000000000000071
 30
0.0
 11
53.5
 21
50.3999999999999986
 31
0.0
  0
LINE
  5
14F1
  8
0
 10
37.4999999999999716
 20
55.9999999999999574
 30
0.0
 11
62.4999999999999716
 21
56.0000000000000426
 31
0.0
  0
LINE
  5
14F2
  8
0
 10
46.8047618809870016
 20
72.3914991611708132
 30
0.0
 11
46.7610618117298884
 21
59.2499999999999716
 31
0.0
  0
LINE
  5
14F3
  8
0
 10
53.1952381190128492
 20
72.3914991611708558
 30
0.0
 11
53.2389381882699695
 21
59.25
 31
0.0
  0
LINE
  5
14F4
  8
0
 10
53.2389381882699695
 20
59.25
 30
0.0
 11
62.3865074991517687
 21
59.2500000000000426
 31
0.0
  0
LINE
  5
14F5
  8
0
 10
37.6134925008481389
 20
59.2499999999999432
 30
0.0
 11
46.7610618117298884
 21
59.2499999999999716
 31
0.0
  0
LINE
  5
14F8
  8
0
 10
46.9495148807372615
 20
73.9999999999999858
 30
0.0
 11
53.0504851192625821
 21
74.0
 31
0.0
  0
LINE
  5
14F9
  8
0
 10
43.5
 20
50.3999999999999773
 30
0.0
 11
56.4999999999999716
 21
50.4000000000000199
 31
0.0
  0
LINE
  5
14FA
  8
0
 10
46.5
 20
49.9999999999999929
 30
0.0
 11
53.5
 21
50.0000000000000071
 31
0.0
  0
LINE
  5
14FB
  8
2
 10
47.9329999999999927
 20
50.4329999999999785
 30
0.0
 11
52.0669999999999717
 21
50.4329999999999927
 31
0.0
  0
LINE
  5
14FC
  8
2
 10
47.9329999999999572
 20
57.1999999999999815
 30
0.0
 11
52.0669999999999717
 21
57.2000000000000028
 31
0.0
  0
LINE
  5
14FD
  8
2
 10
52.5
 20
50.0000000000000071
 30
0.0
 11
52.0669999999999717
 21
50.4329999999999927
 31
0.0
  0
LINE
  5
14FE
  8
2
 10
47.9329999999999927
 20
50.4329999999999785
 30
0.0
 11
47.5
 21
49.9999999999999929
 31
0.0
  0
LINE
  5
14FF
  8
2
 10
52.0669999999999717
 20
57.2000000000000028
 30
0.0
 11
49.9999999999999716
 21
58.3933830064149504
 31
0.0
  0
LINE
  5
1500
  8
2
 10
49.9999999999999716
 20
58.3933830064149504
 30
0.0
 11
47.9329999999999572
 21
57.1999999999999815
 31
0.0
  0
LINE
  5
1501
  8
2
 10
47.9329999999999572
 20
57.1999999999999815
 30
0.0
 11
47.9329999999999927
 21
50.4329999999999927
 31
0.0
  0
LINE
  5
1502
  8
2
 10
52.0669999999999717
 20
50.4329999999999927
 30
0.0
 11
52.0669999999999717
 21
57.2000000000000028
 31
0.0
  0
CIRCLE
  5
1503
  8
0
 10
49.9999999999999716
 20
100.3636146578388946
 30
0.0
 40
12.4999999999999893
  0
ARC
  5
1504
  8
0
 10
49.9999999999999716
 20
100.3636146578388946
 30
0.0
 40
12.3865074991518007
 50
285.1584455693250106
 51
74.8415544306750178
  0
ARC
  5
1505
  8
0
 10
49.9999999999999716
 20
100.3636146578388946
 30
0.0
 40
12.3865074991518096
 50
105.1584455693233053
 51
254.8415544306766947
  0
LINE
  5
1506
  8
0
 10
112.5
 20
56.0
 30
0.0
 11
111.9275962361684975
 21
72.3914991611708416
 31
0.0
  0
LINE
  5
1507
  8
0
 10
88.0724037638313888
 20
72.3914991611708416
 30
0.0
 11
87.5
 21
56.0
 31
0.0
  0
ARC
  5
1508
  8
0
 10
91.9696724528361642
 20
54.3333333333333428
 30
0.0
 40
1.6666666666666621
 50
358.0000000000003979
 51
90.0
  0
ARC
  5
1509
  8
0
 10
108.0303275471637932
 20
54.3333333333333428
 30
0.0
 40
1.6666666666666761
 50
90.0
 51
182.0000000000011084
  0
LINE
  5
150A
  8
0
 10
106.5
 20
50.3999999999999915
 30
0.0
 11
106.3646761687985958
 21
54.2751675054958298
 31
0.0
  0
LINE
  5
150B
  8
0
 10
93.6353238312013332
 20
54.2751675054958298
 30
0.0
 11
93.4999999999999858
 21
50.3999999999999915
 31
0.0
  0
LINE
  5
150C
  8
0
 10
96.5
 20
50.3999999999999915
 30
0.0
 11
96.5
 21
50.0
 31
0.0
  0
LINE
  5
150D
  8
0
 10
103.5
 20
50.0
 30
0.0
 11
103.5
 21
50.3999999999999915
 31
0.0
  0
ARC
  5
150E
  8
0
 10
110.2619448578033996
 20
72.333333333333357
 30
0.0
 40
1.6666666666666461
 50
1.9999999999995719
 51
89.9999999999983658
  0
ARC
  5
150F
  8
0
 10
89.738055142196572
 20
72.333333333333357
 30
0.0
 40
1.666666666666661
 50
90.0000000000016058
 51
178.0000000000003979
  0
LINE
  5
1510
  8
0
 10
87.5
 20
56.0
 30
0.0
 11
112.5
 21
56.0
 31
0.0
  0
LINE
  5
1511
  8
0
 10
88.5083506259601904
 20
72.3914991611708558
 30
0.0
 11
88.0444637326838944
 21
59.25
 31
0.0
  0
LINE
  5
1512
  8
0
 10
88.0444637326838944
 20
59.25
 30
0.0
 11
111.9555362673160062
 21
59.2500000000000071
 31
0.0
  0
LINE
  5
1513
  8
0
 10
111.4916493740397954
 20
72.3914991611708558
 30
0.0
 11
111.9555362673160062
 21
59.2500000000000071
 31
0.0
  0
LINE
  5
1514
  8
0
 10
93.4999999999999858
 20
50.3999999999999915
 30
0.0
 11
106.5
 21
50.3999999999999915
 31
0.0
  0
LINE
  5
1518
  8
0
 10
89.7380551421967141
 20
74.0
 30
0.0
 11
90.2019362728263445
 21
74.0
 31
0.0
  0
LINE
  5
1519
  8
0
 10
109.7980637271735986
 20
74.0
 30
0.0
 11
110.261944857803897
 21
74.0
 31
0.0
  0
LINE
  5
151A
  8
0
 10
96.5
 20
50.0
 30
0.0
 11
103.5
 21
50.0
 31
0.0
  0
LINE
  5
151B
  8
2
 10
100.0
 20
50.4329999999999927
 30
0.0
 11
102.0669999999999931
 21
50.4329999999999927
 31
0.0
  0
LINE
  5
151C
  8
2
 10
97.9330000000000069
 20
50.4329999999999927
 30
0.0
 11
100.0
 21
50.4329999999999927
 31
0.0
  0
LINE
  5
151D
  8
2
 10
100.0
 20
57.2000000000000028
 30
0.0
 11
102.0669999999999931
 21
57.1999999999999815
 31
0.0
  0
LINE
  5
151E
  8
2
 10
97.9330000000000069
 20
57.1999999999999815
 30
0.0
 11
100.0
 21
57.2000000000000028
 31
0.0
  0
LINE
  5
151F
  8
2
 10
102.5
 20
50.0
 30
0.0
 11
102.0669999999999931
 21
50.4329999999999927
 31
0.0
  0
LINE
  5
1520
  8
2
 10
97.9330000000000069
 20
50.4329999999999927
 30
0.0
 11
97.5
 21
50.0
 31
0.0
  0
LINE
  5
1521
  8
2
 10
97.9330000000000069
 20
57.1999999999999815
 30
0.0
 11
97.9330000000000069
 21
50.4329999999999927
 31
0.0
  0
LINE
  5
1522
  8
2
 10
102.0669999999999931
 20
50.4329999999999927
 30
0.0
 11
102.0669999999999931
 21
57.1999999999999815
 31
0.0
  0
LINE
  5
1523
  8
2
 10
102.0669999999999931
 20
57.1999999999999815
 30
0.0
 11
100.0
 21
58.3933830064149504
 31
0.0
  0
LINE
  5
1524
  8
2
 10
100.0
 20
58.3933830064149504
 30
0.0
 11
97.9330000000000069
 21
57.1999999999999815
 31
0.0
  0
LINE
  5
1525
  8
2
 10
52.5
 20
50.0000000000000071
 30
0.0
 11
52.4999999999999716
 21
56.0
 31
0.0
  0
LINE
  5
1526
  8
2
 10
47.4999999999999716
 20
56.0
 30
0.0
 11
47.5
 21
49.9999999999999929
 31
0.0
  0
LINE
  5
1527
  8
2
 10
47.4999999999999716
 20
56.0
 30
0.0
 11
52.4999999999999716
 21
56.0
 31
0.0
  0
ARC
  5
1528
  8
0
 10
-77.6658852398084889
 20
100.3636146578385961
 30
0.0
 40
125.0000000000218989
 50
354.5115962184971181
 51
5.4884037815028401
  0
ARC
  5
1529
  8
0
 10
177.6658852397420105
 20
100.3636146578390935
 30
0.0
 40
124.9999999999556053
 50
174.5115962184939065
 51
185.4884037815060935
  0
LINE
  5
152A
  8
2
 10
102.5
 20
50.0000000000000071
 30
0.0
 11
102.5
 21
56.0
 31
0.0
  0
LINE
  5
152B
  8
2
 10
97.4999999999999858
 20
56.0
 30
0.0
 11
97.5
 21
49.9999999999999929
 31
0.0
  0
LINE
  5
152C
  8
2
 10
97.4999999999999858
 20
56.0
 30
0.0
 11
102.5
 21
56.0
 31
0.0
  0
LINE
  5
152D
  8
1
 10
49.9999999999999716
 20
48.0
 30
0.0
 11
49.9999999999999716
 21
75.9999999999999858
 31
0.0
  0
LINE
  5
152E
  8
1
 10
100.0
 20
48.0
 30
0.0
 11
99.9999999999999858
 21
75.9999999999999858
 31
0.0
  0
LINE
  5
152F
  8
1
 10
64.4999999999999716
 20
100.3636146578388946
 30
0.0
 11
35.4999999999999716
 21
100.3636146578388946
 31
0.0
  0
LINE
  5
1530
  8
1
 10
49.9999999999999716
 20
114.8636146578388946
 30
0.0
 11
49.9999999999999716
 21
85.9999999999999858
 31
0.0
  0
POLYLINE
  5
1549
  8
0
 66
     1
 10
0.0
 20
0.0
 30
0.0
  0
VERTEX
  5
15C6
  8
0
 10
109.7980637271735986
 20
74.0
 30
0.0
  0
VERTEX
  5
15C7
  8
0
 10
109.834666205257804
 20
73.9996198073432936
 30
0.0
  0
VERTEX
  5
15C8
  8
0
 10
109.8711759554103935
 20
73.9984800966373939
 30
0.0
  0
VERTEX
  5
15C9
  8
0
 10
109.9075853610776932
 20
73.9965821687786303
 30
0.0
  0
VERTEX
  5
15CA
  8
0
 10
109.9438868057061995
 20
73.993927324663332
 30
0.0
  0
VERTEX
  5
15CB
  8
0
 10
109.9800726727424944
 20
73.9905168651878284
 30
0.0
  0
VERTEX
  5
15CC
  8
0
 10
110.0161353456327049
 20
73.9863520912484489
 30
0.0
  0
VERTEX
  5
15CD
  8
0
 10
110.0520672078235975
 20
73.9814343037415227
 30
0.0
  0
VERTEX
  5
15CE
  8
0
 10
110.0878606427614983
 20
73.9757648035633935
 30
0.0
  0
VERTEX
  5
15CF
  8
0
 10
110.1235080338929038
 20
73.9693448916103762
 30
0.0
  0
VERTEX
  5
15D0
  8
0
 10
110.1590017646641968
 20
73.9621758687788002
 30
0.0
  0
VERTEX
  5
15D1
  8
0
 10
110.1943342185219024
 20
73.9542590359650092
 30
0.0
  0
VERTEX
  5
15D2
  8
0
 10
110.2294977789124033
 20
73.9455956940653323
 30
0.0
  0
VERTEX
  5
15D3
  8
0
 10
110.2644848292822957
 20
73.9361871439760847
 30
0.0
  0
VERTEX
  5
15D4
  8
0
 10
110.299287753077806
 20
73.92603468659361
 30
0.0
  0
VERTEX
  5
15D5
  8
0
 10
110.3338989337456013
 20
73.9151396228142374
 30
0.0
  0
VERTEX
  5
15D6
  8
0
 10
110.368310754731894
 20
73.9035032535342822
 30
0.0
  0
VERTEX
  5
15D7
  8
0
 10
110.4025155994833938
 20
73.8911268796500877
 30
0.0
  0
VERTEX
  5
15D8
  8
0
 10
110.4365009843361065
 20
73.8780136057184507
 30
0.0
  0
VERTEX
  5
15D9
  8
0
 10
110.4701543255753933
 20
73.8642042902563531
 30
0.0
  0
VERTEX
  5
15DA
  8
0
 10
110.5034315429051048
 20
73.8497160393796719
 30
0.0
  0
VERTEX
  5
15DB
  8
0
 10
110.5363331193589005
 20
73.8345496820127494
 30
0.0
  0
VERTEX
  5
15DC
  8
0
 10
110.5688595379701979
 20
73.8187060470799707
 30
0.0
  0
VERTEX
  5
15DD
  8
0
 10
110.6010112817725002
 20
73.8021859635056927
 30
0.0
  0
VERTEX
  5
15DE
  8
0
 10
110.6327888337994949
 20
73.7849902602143004
 30
0.0
  0
VERTEX
  5
15DF
  8
0
 10
110.6641926770845998
 20
73.7671197661301647
 30
0.0
  0
VERTEX
  5
15E0
  8
0
 10
110.6952232946613037
 20
73.7485753101776567
 30
0.0
  0
VERTEX
  5
15E1
  8
0
 10
110.7258852190075942
 20
73.7293531666376083
 30
0.0
  0
VERTEX
  5
15E2
  8
0
 10
110.7562099448550015
 20
73.7094142022555729
 30
0.0
  0
VERTEX
  5
15E3
  8
0
 10
110.7861757291732943
 20
73.6887691682736659
 30
0.0
  0
VERTEX
  5
15E4
  8
0
 10
110.8157472493804931
 20
73.6674430397344651
 30
0.0
  0
VERTEX
  5
15E5
  8
0
 10
110.8448891828948035
 20
73.6454607916806054
 30
0.0
  0
VERTEX
  5
15E6
  8
0
 10
110.8735662071344024
 20
73.6228473991546366
 30
0.0
  0
VERTEX
  5
15E7
  8
0
 10
110.901742999517694
 20
73.599627837199165
 30
0.0
  0
VERTEX
  5
15E8
  8
0
 10
110.9293842374625996
 20
73.5758270808567687
 30
0.0
  0
VERTEX
  5
15E9
  8
0
 10
110.956454598387495
 20
73.5514701051700541
 30
0.0
  0
VERTEX
  5
15EA
  8
0
 10
110.9829239079973036
 20
73.5265814069570069
 30
0.0
  0
VERTEX
  5
15EB
  8
0
 10
111.0088007650586945
 20
73.5011735273333926
 30
0.0
  0
VERTEX
  5
15EC
  8
0
 10
111.0340882983237947
 20
73.4752465203038412
 30
0.0
  0
VERTEX
  5
15ED
  8
0
 10
111.0587859362166938
 20
73.4487998553666159
 30
0.0
  0
VERTEX
  5
15EE
  8
0
 10
111.0828931071612971
 20
73.4218330020199659
 30
0.0
  0
VERTEX
  5
15EF
  8
0
 10
111.1064092395816942
 20
73.3943454297620974
 30
0.0
  0
VERTEX
  5
15F0
  8
0
 10
111.1293337619018047
 20
73.366336608091288
 30
0.0
  0
VERTEX
  5
15F1
  8
0
 10
111.1516661025456045
 20
73.3378060065057582
 30
0.0
  0
VERTEX
  5
15F2
  8
0
 10
111.1734056899371978
 20
73.3087530945037571
 30
0.0
  0
VERTEX
  5
15F3
  8
0
 10
111.1945506604855041
 20
73.2791709933392355
 30
0.0
  0
VERTEX
  5
15F4
  8
0
 10
111.2150860491989022
 20
73.2490525049460501
 30
0.0
  0
VERTEX
  5
15F5
  8
0
 10
111.2349896608568969
 20
73.2184329832049201
 30
0.0
  0
VERTEX
  5
15F6
  8
0
 10
111.2542392575603003
 20
73.1873509834384919
 30
0.0
  0
VERTEX
  5
15F7
  8
0
 10
111.2728126014092993
 20
73.1558450609694262
 30
0.0
  0
VERTEX
  5
15F8
  8
0
 10
111.2906874545048055
 20
73.1239537711203695
 30
0.0
  0
VERTEX
  5
15F9
  8
0
 10
111.3078415789471052
 20
73.0917156692139969
 30
0.0
  0
VERTEX
  5
15FA
  8
0
 10
111.3242527368367973
 20
73.0591693105729547
 30
0.0
  0
VERTEX
  5
15FB
  8
0
 10
111.3398986902744952
 20
73.0263532505199038
 30
0.0
  0
VERTEX
  5
15FC
  8
0
 10
111.3547782976416016
 20
72.9932667202789531
 30
0.0
  0
VERTEX
  5
15FD
  8
0
 10
111.3689291853824983
 20
72.9598407292425861
 30
0.0
  0
VERTEX
  5
15FE
  8
0
 10
111.3823475430458956
 20
72.9260873218827896
 30
0.0
  0
VERTEX
  5
15FF
  8
0
 10
111.3950273854485999
 20
72.892022678947356
 30
0.0
  0
VERTEX
  5
1600
  8
0
 10
111.4069627274072047
 20
72.8576629811840633
 30
0.0
  0
VERTEX
  5
1601
  8
0
 10
111.4181475837383033
 20
72.8230244093407038
 30
0.0
  0
VERTEX
  5
1602
  8
0
 10
111.4285759692587021
 20
72.7881231441651124
 30
0.0
  0
VERTEX
  5
1603
  8
0
 10
111.4382418987848951
 20
72.7529753664050105
 30
0.0
  0
VERTEX
  5
1604
  8
0
 10
111.4471393871337028
 20
72.7175972568082187
 30
0.0
  0
VERTEX
  5
1605
  8
0
 10
111.455262449121804
 20
72.6820049961225152
 30
0.0
  0
VERTEX
  5
1606
  8
0
 10
111.4626050995658062
 20
72.6462147650956922
 30
0.0
  0
VERTEX
  5
1607
  8
0
 10
111.4691613532824022
 20
72.6102427444755421
 30
0.0
  0
VERTEX
  5
1608
  8
0
 10
111.4749252250881995
 20
72.5741051150098571
 30
0.0
  0
VERTEX
  5
1609
  8
0
 10
111.4798907298000046
 20
72.5378180574464153
 30
0.0
  0
VERTEX
  5
160A
  8
0
 10
111.4840518822343967
 20
72.5013977525329949
 30
0.0
  0
VERTEX
  5
160B
  8
0
 10
111.4874026972079974
 20
72.4648603810174166
 30
0.0
  0
VERTEX
  5
160C
  8
0
 10
111.4899371895375992
 20
72.4282221236474157
 30
0.0
  0
VERTEX
  5
160D
  8
0
 10
111.4916493740397954
 20
72.3914991611708558
 30
0.0
  0
SEQEND
  5
160E
  8
0
  0
POLYLINE
  5
154A
  8
0
 66
     1
 10
0.0
 20
0.0
 30
0.0
  0
VERTEX
  5
160F
  8
0
 10
90.2019362728263445
 20
74.0
 30
0.0
  0
VERTEX
  5
1610
  8
0
 10
90.8143152557746873
 20
73.9198915113346544
 30
0.0
  0
VERTEX
  5
1611
  8
0
 10
91.4266942387230444
 20
73.8450348282867282
 30
0.0
  0
VERTEX
  5
1612
  8
0
 10
92.0390732216714014
 20
73.7754184271315836
 30
0.0
  0
VERTEX
  5
1613
  8
0
 10
92.6514522046197726
 20
73.7110307841445263
 30
0.0
  0
VERTEX
  5
1614
  8
0
 10
93.2638311875681154
 20
73.6518603756008901
 30
0.0
  0
VERTEX
  5
1615
  8
0
 10
93.8762101705164582
 20
73.5978956777760089
 30
0.0
  0
VERTEX
  5
1616
  8
0
 10
94.4885891534648152
 20
73.5491251669452026
 30
0.0
  0
VERTEX
  5
1617
  8
0
 10
95.100968136413158
 20
73.5055373193837909
 30
0.0
  0
VERTEX
  5
1618
  8
0
 10
95.7133471193615151
 20
73.4671206113670934
 30
0.0
  0
VERTEX
  5
1619
  8
0
 10
96.3257261023098863
 20
73.4338635191704867
 30
0.0
  0
VERTEX
  5
161A
  8
0
 10
96.9381050852582291
 20
73.4057545190692338
 30
0.0
  0
VERTEX
  5
161B
  8
0
 10
97.5504840682065719
 20
73.3827820873386969
 30
0.0
  0
VERTEX
  5
161C
  8
0
 10
98.1628630511549432
 20
73.3649347002541816
 30
0.0
  0
VERTEX
  5
161D
  8
0
 10
98.775242034103286
 20
73.3522008340910361
 30
0.0
  0
VERTEX
  5
161E
  8
0
 10
99.3876210170516288
 20
73.34456896512458
 30
0.0
  0
VERTEX
  5
161F
  8
0
 10
100.0
 20
73.3420275696301189
 30
0.0
  0
VERTEX
  5
1620
  8
0
 10
100.6123789829483002
 20
73.3445689651245658
 30
0.0
  0
VERTEX
  5
1621
  8
0
 10
101.2247579658966998
 20
73.3522008340910219
 30
0.0
  0
VERTEX
  5
1622
  8
0
 10
101.837136948845
 20
73.3649347002541532
 30
0.0
  0
VERTEX
  5
1623
  8
0
 10
102.4495159317933997
 20
73.3827820873386685
 30
0.0
  0
VERTEX
  5
1624
  8
0
 10
103.0618949147416998
 20
73.4057545190692053
 30
0.0
  0
VERTEX
  5
1625
  8
0
 10
103.6742738976900995
 20
73.4338635191704441
 30
0.0
  0
VERTEX
  5
1626
  8
0
 10
104.2866528806383997
 20
73.4671206113670792
 30
0.0
  0
VERTEX
  5
1627
  8
0
 10
104.8990318635867993
 20
73.5055373193837482
 30
0.0
  0
VERTEX
  5
1628
  8
0
 10
105.5114108465350995
 20
73.5491251669451458
 30
0.0
  0
VERTEX
  5
1629
  8
0
 10
106.1237898294834991
 20
73.5978956777759521
 30
0.0
  0
VERTEX
  5
162A
  8
0
 10
106.7361688124317993
 20
73.6518603756008332
 30
0.0
  0
VERTEX
  5
162B
  8
0
 10
107.348547795380199
 20
73.7110307841444552
 30
0.0
  0
VERTEX
  5
162C
  8
0
 10
107.9609267783284992
 20
73.7754184271314841
 30
0.0
  0
VERTEX
  5
162D
  8
0
 10
108.5733057612768988
 20
73.8450348282866429
 30
0.0
  0
VERTEX
  5
162E
  8
0
 10
109.185684744225199
 20
73.9198915113345407
 30
0.0
  0
VERTEX
  5
162F
  8
0
 10
109.7980637271735986
 20
73.9999999999998863
 30
0.0
  0
SEQEND
  5
1630
  8
0
  0
POLYLINE
  5
154B
  8
0
 66
     1
 10
0.0
 20
0.0
 30
0.0
  0
VERTEX
  5
1631
  8
0
 10
88.5083506259601904
 20
72.3914991611708558
 30
0.0
  0
VERTEX
  5
1632
  8
0
 10
88.5100520985685364
 20
72.4281585905376346
 30
0.0
  0
VERTEX
  5
1633
  8
0
 10
88.5125570053960473
 20
72.4646505217335033
 30
0.0
  0
VERTEX
  5
1634
  8
0
 10
88.515861440357483
 20
72.5009757708396307
 30
0.0
  0
VERTEX
  5
1635
  8
0
 10
88.5199614973675182
 20
72.5371351539371858
 30
0.0
  0
VERTEX
  5
1636
  8
0
 10
88.5248532703409126
 20
72.5731294871073231
 30
0.0
  0
VERTEX
  5
1637
  8
0
 10
88.5305328531923266
 20
72.6089595864312116
 30
0.0
  0
VERTEX
  5
1638
  8
0
 10
88.5369963398364632
 20
72.6446262679900201
 30
0.0
  0
VERTEX
  5
1639
  8
0
 10
88.5442398241880824
 20
72.6801303478649032
 30
0.0
  0
VERTEX
  5
163A
  8
0
 10
88.5522597208617839
 20
72.7154732641465387
 30
0.0
  0
VERTEX
  5
163B
  8
0
 10
88.5610756821502747
 20
72.7506966909093791
 30
0.0
  0
VERTEX
  5
163C
  8
0
 10
88.5706934936415138
 20
72.7858002476311725
 30
0.0
  0
VERTEX
  5
163D
  8
0
 10
88.581102345705915
 20
72.8207484422541143
 30
0.0
  0
VERTEX
  5
163E
  8
0
 10
88.5922914287139349
 20
72.8555057827204422
 30
0.0
  0
VERTEX
  5
163F
  8
0
 10
88.6042499330360869
 20
72.8900367769723374
 30
0.0
  0
VERTEX
  5
1640
  8
0
 10
88.6169670490427848
 20
72.9243059329520236
 30
0.0
  0
VERTEX
  5
1641
  8
0
 10
88.6304319671045278
 20
72.9582777586017102
 30
0.0
  0
VERTEX
  5
1642
  8
0
 10
88.644633877591815
 20
72.9919167618635925
 30
0.0
  0
VERTEX
  5
1643
  8
0
 10
88.6595609902930732
 20
73.0251869458516154
 30
0.0
  0
VERTEX
  5
1644
  8
0
 10
88.675183418375795
 20
73.0580511521037295
 30
0.0
  0
VERTEX
  5
1645
  8
0
 10
88.6914902116630657
 20
73.090502195673551
 30
0.0
  0
VERTEX
  5
1646
  8
0
 10
88.7084801436320163
 20
73.1225408334035905
 30
0.0
  0
VERTEX
  5
1647
  8
0
 10
88.7261519877598062
 20
73.1541678221363583
 30
0.0
  0
VERTEX
  5
1648
  8
0
 10
88.7445045175236373
 20
73.1853839187143507
 30
0.0
  0
VERTEX
  5
1649
  8
0
 10
88.7635365064006407
 20
73.2161898799800639
 30
0.0
  0
VERTEX
  5
164A
  8
0
 10
88.7832467278679758
 20
73.2465864627760084
 30
0.0
  0
VERTEX
  5
164B
  8
0
 10
88.8036339554028444
 20
73.2765744239446661
 30
0.0
  0
VERTEX
  5
164C
  8
0
 10
88.8247000566527163
 20
73.3061558507344557
 30
0.0
  0
VERTEX
  5
164D
  8
0
 10
88.8464670695517498
 20
73.3353349686411917
 30
0.0
  0
VERTEX
  5
164E
  8
0
 10
88.8689155044481538
 20
73.3640852946716961
 30
0.0
  0
VERTEX
  5
164F
  8
0
 10
88.8920154064349219
 20
73.3923744959844839
 30
0.0
  0
VERTEX
  5
1650
  8
0
 10
88.9157368206050052
 20
73.4201702397381268
 30
0.0
  0
VERTEX
  5
1651
  8
0
 10
88.9400497920515249
 20
73.4474401930911682
 30
0.0
  0
VERTEX
  5
1652
  8
0
 10
88.9649243658674038
 20
73.4741520232021657
 30
0.0
  0
VERTEX
  5
1653
  8
0
 10
88.9903305871456354
 20
73.500273397229634
 30
0.0
  0
VERTEX
  5
1654
  8
0
 10
89.0162385009792843
 20
73.5257719823321594
 30
0.0
  0
VERTEX
  5
1655
  8
0
 10
89.0426327691193649
 20
73.5506292296000765
 30
0.0
  0
VERTEX
  5
1656
  8
0
 10
89.0695754870047978
 20
73.5749038148357499
 30
0.0
  0
VERTEX
  5
1657
  8
0
 10
89.097062434070466
 20
73.5985984131543631
 30
0.0
  0
VERTEX
  5
1658
  8
0
 10
89.1250752564706232
 20
73.621702838523035
 30
0.0
  0
VERTEX
  5
1659
  8
0
 10
89.1535956003596652
 20
73.6442069049087848
 30
0.0
  0
VERTEX
  5
165A
  8
0
 10
89.1826051118919167
 20
73.6661004262787174
 30
0.0
  0
VERTEX
  5
165B
  8
0
 10
89.2120854372217167
 20
73.6873732165999087
 30
0.0
  0
VERTEX
  5
165C
  8
0
 10
89.2420182225033329
 20
73.7080150898394066
 30
0.0
  0
VERTEX
  5
165D
  8
0
 10
89.2723851138912039
 20
73.7280158599643158
 30
0.0
  0
VERTEX
  5
165E
  8
0
 10
89.3031677575396259
 20
73.7473653409416983
 30
0.0
  0
VERTEX
  5
165F
  8
0
 10
89.3343477996029236
 20
73.7660533467386301
 30
0.0
  0
VERTEX
  5
1660
  8
0
 10
89.365906886235436
 20
73.7840696913221734
 30
0.0
  0
VERTEX
  5
1661
  8
0
 10
89.3978266635915304
 20
73.8014041886594043
 30
0.0
  0
VERTEX
  5
1662
  8
0
 10
89.4300887778255031
 20
73.8180466527174417
 30
0.0
  0
VERTEX
  5
1663
  8
0
 10
89.4626748750917358
 20
73.8339868974633049
 30
0.0
  0
VERTEX
  5
1664
  8
0
 10
89.4955666015445104
 20
73.8492147368640985
 30
0.0
  0
VERTEX
  5
1665
  8
0
 10
89.5287456033381943
 20
73.8637199848868846
 30
0.0
  0
VERTEX
  5
1666
  8
0
 10
89.5621935266271265
 20
73.8774924554987393
 30
0.0
  0
VERTEX
  5
1667
  8
0
 10
89.5959115756749611
 20
73.8905327342069143
 30
0.0
  0
VERTEX
  5
1668
  8
0
 10
89.6299301563476831
 20
73.9028601026800089
 30
0.0
  0
VERTEX
  5
1669
  8
0
 10
89.6642349316979903
 20
73.9144716541848936
 30
0.0
  0
VERTEX
  5
166A
  8
0
 10
89.6988094110634222
 20
73.9253633491766635
 30
0.0
  0
VERTEX
  5
166B
  8
0
 10
89.7336371037816463
 20
73.9355311481103001
 30
0.0
  0
VERTEX
  5
166C
  8
0
 10
89.7687015191901878
 20
73.944971011440856
 30
0.0
  0
VERTEX
  5
166D
  8
0
 10
89.8039861666266859
 20
73.9536788996233554
 30
0.0
  0
VERTEX
  5
166E
  8
0
 10
89.839474555428751
 20
73.961650773112865
 30
0.0
  0
VERTEX
  5
166F
  8
0
 10
89.8751501949339513
 20
73.9688825923643947
 30
0.0
  0
VERTEX
  5
1670
  8
0
 10
89.9109965944799114
 20
73.9753703178329971
 30
0.0
  0
VERTEX
  5
1671
  8
0
 10
89.9469972634042279
 20
73.9811099099736538
 30
0.0
  0
VERTEX
  5
1672
  8
0
 10
89.9831357110444543
 20
73.9860973292414883
 30
0.0
  0
VERTEX
  5
1673
  8
0
 10
90.0193954467382582
 20
73.9903285360914538
 30
0.0
  0
VERTEX
  5
1674
  8
0
 10
90.0557599798231934
 20
73.9937994909786312
 30
0.0
  0
VERTEX
  5
1675
  8
0
 10
90.0922128196368845
 20
73.9965061543580447
 30
0.0
  0
VERTEX
  5
1676
  8
0
 10
90.1287374755168855
 20
73.9984444866847184
 30
0.0
  0
VERTEX
  5
1677
  8
0
 10
90.1653174568008353
 20
73.9996104484136907
 30
0.0
  0
VERTEX
  5
1678
  8
0
 10
90.2019362728263445
 20
74.0000000000000142
 30
0.0
  0
SEQEND
  5
1679
  8
0
  0
POLYLINE
  5
154C
  8
0
 66
     1
 10
0.0
 20
0.0
 30
0.0
  0
VERTEX
  5
167A
  8
0
 10
46.9495148807372615
 20
73.9999999999999858
 30
0.0
  0
VERTEX
  5
167B
  8
0
 10
46.9466314524957724
 20
73.9996198073432794
 30
0.0
  0
VERTEX
  5
167C
  8
0
 10
46.9437444028447928
 20
73.9984800966373797
 30
0.0
  0
VERTEX
  5
167D
  8
0
 10
46.940854480686049
 20
73.9965821687786161
 30
0.0
  0
VERTEX
  5
167E
  8
0
 10
46.9379624349212179
 20
73.9939273246633036
 30
0.0
  0
VERTEX
  5
167F
  8
0
 10
46.9350690144519618
 20
73.9905168651878142
 30
0.0
  0
VERTEX
  5
1680
  8
0
 10
46.9321749681799929
 20
73.9863520912484347
 30
0.0
  0
VERTEX
  5
1681
  8
0
 10
46.9292810450069666
 20
73.9814343037415085
 30
0.0
  0
VERTEX
  5
1682
  8
0
 10
46.926387993834652
 20
73.9757648035633792
 30
0.0
  0
VERTEX
  5
1683
  8
0
 10
46.9234965635646688
 20
73.969344891610362
 30
0.0
  0
VERTEX
  5
1684
  8
0
 10
46.9206075030987222
 20
73.962175868778786
 30
0.0
  0
VERTEX
  5
1685
  8
0
 10
46.9177215613385101
 20
73.954259035964995
 30
0.0
  0
VERTEX
  5
1686
  8
0
 10
46.9148394871857235
 20
73.9455956940653039
 30
0.0
  0
VERTEX
  5
1687
  8
0
 10
46.9119620295420532
 20
73.9361871439760705
 30
0.0
  0
VERTEX
  5
1688
  8
0
 10
46.9090899373091688
 20
73.9260346865935958
 30
0.0
  0
VERTEX
  5
1689
  8
0
 10
46.9062239593887966
 20
73.9151396228142232
 30
0.0
  0
VERTEX
  5
168A
  8
0
 10
46.9033648446826135
 20
73.903503253534268
 30
0.0
  0
VERTEX
  5
168B
  8
0
 10
46.9005133420922888
 20
73.8911268796500735
 30
0.0
  0
VERTEX
  5
168C
  8
0
 10
46.8976706158140573
 20
73.8780136057184365
 30
0.0
  0
VERTEX
  5
168D
  8
0
 10
46.8948464217500032
 20
73.8642042902563247
 30
0.0
  0
VERTEX
  5
168E
  8
0
 10
46.8920447958629367
 20
73.8497160393796435
 30
0.0
  0
VERTEX
  5
168F
  8
0
 10
46.8892659898519923
 20
73.834549682012721
 30
0.0
  0
VERTEX
  5
1690
  8
0
 10
46.8865102554162476
 20
73.8187060470799423
 30
0.0
  0
VERTEX
  5
1691
  8
0
 10
46.8837778442548583
 20
73.8021859635056785
 30
0.0
  0
VERTEX
  5
1692
  8
0
 10
46.8810690080669303
 20
73.7849902602142862
 30
0.0
  0
VERTEX
  5
1693
  8
0
 10
46.8783839985516124
 20
73.7671197661301505
 30
0.0
  0
VERTEX
  5
1694
  8
0
 10
46.8757230674079608
 20
73.7485753101776425
 30
0.0
  0
VERTEX
  5
1695
  8
0
 10
46.8730861035115822
 20
73.7293531666375941
 30
0.0
  0
VERTEX
  5
1696
  8
0
 10
46.870470561482108
 20
73.7094142022555445
 30
0.0
  0
VERTEX
  5
1697
  8
0
 10
46.8678786296031475
 20
73.6887691682736659
 30
0.0
  0
VERTEX
  5
1698
  8
0
 10
46.8653137090452674
 20
73.6674430397344651
 30
0.0
  0
VERTEX
  5
1699
  8
0
 10
46.8627792009790696
 20
73.6454607916806054
 30
0.0
  0
VERTEX
  5
169A
  8
0
 10
46.8602785065751632
 20
73.6228473991546224
 30
0.0
  0
VERTEX
  5
169B
  8
0
 10
46.8578150270041434
 20
73.5996278371991508
 30
0.0
  0
VERTEX
  5
169C
  8
0
 10
46.8553921634365622
 20
73.5758270808567545
 30
0.0
  0
VERTEX
  5
169D
  8
0
 10
46.853013317043029
 20
73.5514701051700399
 30
0.0
  0
VERTEX
  5
169E
  8
0
 10
46.8506814647438716
 20
73.5265814069569785
 30
0.0
  0
VERTEX
  5
169F
  8
0
 10
46.8483963340976786
 20
73.5011735273333358
 30
0.0
  0
VERTEX
  5
16A0
  8
0
 10
46.8461580190763911
 20
73.4752465203038128
 30
0.0
  0
VERTEX
  5
16A1
  8
0
 10
46.8439669125565885
 20
73.4487998553665875
 30
0.0
  0
VERTEX
  5
16A2
  8
0
 10
46.8418234074148927
 20
73.4218330020199232
 30
0.0
  0
VERTEX
  5
16A3
  8
0
 10
46.8397278965278971
 20
73.3943454297620548
 30
0.0
  0
VERTEX
  5
16A4
  8
0
 10
46.837680772772238
 20
73.3663366080912596
 30
0.0
  0
VERTEX
  5
16A5
  8
0
 10
46.8356824290245513
 20
73.3378060065057298
 30
0.0
  0
VERTEX
  5
16A6
  8
0
 10
46.8337332581614305
 20
73.3087530945037287
 30
0.0
  0
VERTEX
  5
16A7
  8
0
 10
46.8318337547500789
 20
73.279170993339207
 30
0.0
  0
VERTEX
  5
16A8
  8
0
 10
46.8299855422336009
 20
73.2490525049460217
 30
0.0
  0
VERTEX
  5
16A9
  8
0
 10
46.8281909322197905
 20
73.2184329832048917
 30
0.0
  0
VERTEX
  5
16AA
  8
0
 10
46.8264522448787304
 20
73.1873509834384492
 30
0.0
  0
VERTEX
  5
16AB
  8
0
 10
46.8247718003805105
 20
73.1558450609693836
 30
0.0
  0
VERTEX
  5
16AC
  8
0
 10
46.8231519188952632
 20
73.1239537711203269
 30
0.0
  0
VERTEX
  5
16AD
  8
0
 10
46.8215949205930997
 20
73.0917156692139542
 30
0.0
  0
VERTEX
  5
16AE
  8
0
 10
46.8201031256440672
 20
73.0591693105729121
 30
0.0
  0
VERTEX
  5
16AF
  8
0
 10
46.818678854218291
 20
73.0263532505198611
 30
0.0
  0
VERTEX
  5
16B0
  8
0
 10
46.8173225863304197
 20
72.9932667202789105
 30
0.0
  0
VERTEX
  5
16B1
  8
0
 10
46.8160313201049121
 20
72.9598407292425435
 30
0.0
  0
VERTEX
  5
16B2
  8
0
 10
46.8148055739167432
 20
72.926087321882747
 30
0.0
  0
VERTEX
  5
16B3
  8
0
 10
46.8136460537885668
 20
72.8920226789473134
 30
0.0
  0
VERTEX
  5
16B4
  8
0
 10
46.8125534657430933
 20
72.8576629811840348
 30
0.0
  0
VERTEX
  5
16B5
  8
0
 10
46.8115285158029621
 20
72.8230244093406895
 30
0.0
  0
VERTEX
  5
16B6
  8
0
 10
46.8105719099908413
 20
72.7881231441650698
 30
0.0
  0
VERTEX
  5
16B7
  8
0
 10
46.809684354329363
 20
72.7529753664049821
 30
0.0
  0
VERTEX
  5
16B8
  8
0
 10
46.8088665548412166
 20
72.7175972568081761
 30
0.0
  0
VERTEX
  5
16B9
  8
0
 10
46.8081192175490628
 20
72.6820049961224868
 30
0.0
  0
VERTEX
  5
16BA
  8
0
 10
46.8074430484755624
 20
72.6462147650956638
 30
0.0
  0
VERTEX
  5
16BB
  8
0
 10
46.806838753643369
 20
72.6102427444755136
 30
0.0
  0
VERTEX
  5
16BC
  8
0
 10
46.8063070390751719
 20
72.5741051150098286
 30
0.0
  0
VERTEX
  5
16BD
  8
0
 10
46.8058486107935892
 20
72.5378180574463727
 30
0.0
  0
VERTEX
  5
16BE
  8
0
 10
46.8054641748213314
 20
72.5013977525329665
 30
0.0
  0
VERTEX
  5
16BF
  8
0
 10
46.805154437181038
 20
72.4648603810173739
 30
0.0
  0
VERTEX
  5
16C0
  8
0
 10
46.8049201038953697
 20
72.4282221236474015
 30
0.0
  0
VERTEX
  5
16C1
  8
0
 10
46.8047618809870016
 20
72.3914991611708132
 30
0.0
  0
SEQEND
  5
16C2
  8
0
  0
POLYLINE
  5
154D
  8
0
 66
     1
 10
0.0
 20
0.0
 30
0.0
  0
VERTEX
  5
16C3
  8
0
 10
53.1952381190128492
 20
72.3914991611708558
 30
0.0
  0
VERTEX
  5
16C4
  8
0
 10
53.1950810056316925
 20
72.4281585905376346
 30
0.0
  0
VERTEX
  5
16C5
  8
0
 10
53.1948497245616281
 20
72.4646505217335033
 30
0.0
  0
VERTEX
  5
16C6
  8
0
 10
53.1945447284902784
 20
72.5009757708396307
 30
0.0
  0
VERTEX
  5
16C7
  8
0
 10
53.1941664701051309
 20
72.5371351539371858
 30
0.0
  0
VERTEX
  5
16C8
  8
0
 10
53.1937154020937086
 20
72.5731294871073231
 30
0.0
  0
VERTEX
  5
16C9
  8
0
 10
53.1931919771435275
 20
72.6089595864312116
 30
0.0
  0
VERTEX
  5
16CA
  8
0
 10
53.1925966479421604
 20
72.6446262679900201
 30
0.0
  0
VERTEX
  5
16CB
  8
0
 10
53.1919298671770875
 20
72.6801303478649032
 30
0.0
  0
VERTEX
  5
16CC
  8
0
 10
53.1911920582633897
 20
72.7154732641465387
 30
0.0
  0
VERTEX
  5
16CD
  8
0
 10
53.1903815501558981
 20
72.7506966909093791
 30
0.0
  0
VERTEX
  5
16CE
  8
0
 10
53.1894980209372576
 20
72.7858002476311725
 30
0.0
  0
VERTEX
  5
16CF
  8
0
 10
53.1885426795420173
 20
72.8207484422541143
 30
0.0
  0
VERTEX
  5
16D0
  8
0
 10
53.1875167349046194
 20
72.8555057827204422
 30
0.0
  0
VERTEX
  5
16D1
  8
0
 10
53.1864213959596484
 20
72.8900367769723374
 30
0.0
  0
VERTEX
  5
16D2
  8
0
 10
53.1852578716415678
 20
72.9243059329520236
 30
0.0
  0
VERTEX
  5
16D3
  8
0
 10
53.1840273708848983
 20
72.9582777586017102
 30
0.0
  0
VERTEX
  5
16D4
  8
0
 10
53.1827311026241887
 20
72.9919167618635925
 30
0.0
  0
VERTEX
  5
16D5
  8
0
 10
53.1813703651377523
 20
73.0251869458516154
 30
0.0
  0
VERTEX
  5
16D6
  8
0
 10
53.1799481250480071
 20
73.0580511521037295
 30
0.0
  0
VERTEX
  5
16D7
  8
0
 10
53.1784656719748909
 20
73.090502195673551
 30
0.0
  0
VERTEX
  5
16D8
  8
0
 10
53.1769234166084388
 20
73.1225408334035905
 30
0.0
  0
VERTEX
  5
16D9
  8
0
 10
53.1753217696387424
 20
73.1541678221363583
 30
0.0
  0
VERTEX
  5
16DA
  8
0
 10
53.173661141755872
 20
73.1853839187143507
 30
0.0
  0
VERTEX
  5
16DB
  8
0
 10
53.1719419436498981
 20
73.2161898799800639
 30
0.0
  0
VERTEX
  5
16DC
  8
0
 10
53.1701645860108485
 20
73.2465864627760084
 30
0.0
  0
VERTEX
  5
16DD
  8
0
 10
53.1683294795288575
 20
73.2765744239446661
 30
0.0
  0
VERTEX
  5
16DE
  8
0
 10
53.1664367681586114
 20
73.3061558507344557
 30
0.0
  0
VERTEX
  5
16DF
  8
0
 10
53.1644848950660105
 20
73.3353349686411917
 30
0.0
  0
VERTEX
  5
16E0
  8
0
 10
53.1624759580923296
 20
73.3640852946716961
 30
0.0
  0
VERTEX
  5
16E1
  8
0
 10
53.1604129650968886
 20
73.3923744959844839
 30
0.0
  0
VERTEX
  5
16E2
  8
0
 10
53.1582989239391281
 20
73.4201702397381268
 30
0.0
  0
VERTEX
  5
16E3
  8
0
 10
53.1561368424784177
 20
73.4474401930911682
 30
0.0
  0
VERTEX
  5
16E4
  8
0
 10
53.1539297285740915
 20
73.4741520232021657
 30
0.0
  0
VERTEX
  5
16E5
  8
0
 10
53.15168059008559
 20
73.500273397229634
 30
0.0
  0
VERTEX
  5
16E6
  8
0
 10
53.1493924348722473
 20
73.5257719823321594
 30
0.0
  0
VERTEX
  5
16E7
  8
0
 10
53.1470670100679783
 20
73.5506292296000765
 30
0.0
  0
VERTEX
  5
16E8
  8
0
 10
53.1446993358362718
 20
73.5749038148357499
 30
0.0
  0
VERTEX
  5
16E9
  8
0
 10
53.1422900774347511
 20
73.5985984131543631
 30
0.0
  0
VERTEX
  5
16EA
  8
0
 10
53.1398411138084086
 20
73.621702838523035
 30
0.0
  0
VERTEX
  5
16EB
  8
0
 10
53.1373543239023078
 20
73.6442069049087848
 30
0.0
  0
VERTEX
  5
16EC
  8
0
 10
53.1348315866614769
 20
73.6661004262787174
 30
0.0
  0
VERTEX
  5
16ED
  8
0
 10
53.1322747810308726
 20
73.6873732165999087
 30
0.0
  0
VERTEX
  5
16EE
  8
0
 10
53.1296857859555587
 20
73.7080150898394066
 30
0.0
  0
VERTEX
  5
16EF
  8
0
 10
53.1270664803805275
 20
73.7280158599643158
 30
0.0
  0
VERTEX
  5
16F0
  8
0
 10
53.1244187432508284
 20
73.7473653409416983
 30
0.0
  0
VERTEX
  5
16F1
  8
0
 10
53.1217444535114396
 20
73.7660533467386301
 30
0.0
  0
VERTEX
  5
16F2
  8
0
 10
53.1190454901074176
 20
73.7840696913221734
 30
0.0
  0
VERTEX
  5
16F3
  8
0
 10
53.1163237319837478
 20
73.8014041886594043
 30
0.0
  0
VERTEX
  5
16F4
  8
0
 10
53.1135810580854795
 20
73.8180466527174417
 30
0.0
  0
VERTEX
  5
16F5
  8
0
 10
53.1108193473576193
 20
73.8339868974633049
 30
0.0
  0
VERTEX
  5
16F6
  8
0
 10
53.1080404787452096
 20
73.8492147368640985
 30
0.0
  0
VERTEX
  5
16F7
  8
0
 10
53.1052463311932001
 20
73.8637199848868846
 30
0.0
  0
VERTEX
  5
16F8
  8
0
 10
53.1024387836466687
 20
73.8774924554987393
 30
0.0
  0
VERTEX
  5
16F9
  8
0
 10
53.0996180809139275
 20
73.8905327342069143
 30
0.0
  0
VERTEX
  5
16FA
  8
0
 10
53.0967819054824588
 20
73.9028601026800089
 30
0.0
  0
VERTEX
  5
16FB
  8
0
 10
53.09393156328548
 20
73.9144716541848936
 30
0.0
  0
VERTEX
  5
16FC
  8
0
 10
53.0910685377065192
 20
73.9253633491766635
 30
0.0
  0
VERTEX
  5
16FD
  8
0
 10
53.0881943121290476
 20
73.9355311481103001
 30
0.0
  0
VERTEX
  5
16FE
  8
0
 10
53.08531036993665
 20
73.944971011440856
 30
0.0
  0
VERTEX
  5
16FF
  8
0
 10
53.0824181945127904
 20
73.9536788996233554
 30
0.0
  0
VERTEX
  5
1700
  8
0
 10
53.0795192692410396
 20
73.961650773112865
 30
0.0
  0
VERTEX
  5
1701
  8
0
 10
53.076615077504897
 20
73.9688825923643947
 30
0.0
  0
VERTEX
  5
1702
  8
0
 10
53.0737071026878766
 20
73.9753703178329971
 30
0.0
  0
VERTEX
  5
1703
  8
0
 10
53.0707968281734921
 20
73.9811099099736538
 30
0.0
  0
VERTEX
  5
1704
  8
0
 10
53.0678857373452786
 20
73.9860973292414883
 30
0.0
  0
VERTEX
  5
1705
  8
0
 10
53.0649753135867215
 20
73.9903285360914538
 30
0.0
  0
VERTEX
  5
1706
  8
0
 10
53.0620670402814127
 20
73.9937994909786312
 30
0.0
  0
VERTEX
  5
1707
  8
0
 10
53.0591624008128235
 20
73.9965061543580447
 30
0.0
  0
VERTEX
  5
1708
  8
0
 10
53.0562628785644677
 20
73.9984444866847184
 30
0.0
  0
VERTEX
  5
1709
  8
0
 10
53.0533699569198802
 20
73.9996104484136907
 30
0.0
  0
VERTEX
  5
170A
  8
0
 10
53.0504851192625821
 20
74.0000000000000142
 30
0.0
  0
SEQEND
  5
170B
  8
0
  0
ENDSEC
  0
EOF
