  0
SECTION
  2
HEADER
  9
$ACADVER
  1
AC1009
  9
$INSBASE
 10
0.0
 20
0.0
 30
0.0
  9
$EXTMIN
 10
0.0
 20
-2.960436562073669
 30
0.0
  9
$EXTMAX
 10
115.0
 20
116.9999999999999005
 30
0.0
  9
$LIMMIN
 10
0.0
 20
0.0
  9
$LIMMAX
 10
187.5
 20
135.0
  9
$ORTHOMODE
 70
     1
  9
$REGENMODE
 70
     1
  9
$FILLMODE
 70
     1
  9
$QTEXTMODE
 70
     0
  9
$MIRRTEXT
 70
     0
  9
$DRAGMODE
 70
     2
  9
$LTSCALE
 40
5.0
  9
$OSMODE
 70
    37
  9
$ATTMODE
 70
     1
  9
$TEXTSIZE
 40
4.000000000000048
  9
$TRACEWID
 40
0.05
  9
$TEXTSTYLE
  7
STANDARD
  9
$CLAYER
  8
0
  9
$CELTYPE
  6
BYLAYER
  9
$CECOLOR
 62
   256
  9
$DIMSCALE
 40
0.5
  9
$DIMASZ
 40
3.0
  9
$DIMEXO
 40
2.0
  9
$DIMDLI
 40
0.38
  9
$DIMRND
 40
0.0
  9
$DIMDLE
 40
0.0
  9
$DIMEXE
 40
2.0
  9
$DIMTP
 40
0.0
  9
$DIMTM
 40
0.0
  9
$DIMTXT
 40
3.2000000000000002
  9
$DIMCEN
 40
0.0
  9
$DIMTSZ
 40
0.0
  9
$DIMTOL
 70
     0
  9
$DIMLIM
 70
     0
  9
$DIMTIH
 70
     0
  9
$DIMTOH
 70
     0
  9
$DIMSE1
 70
     0
  9
$DIMSE2
 70
     0
  9
$DIMTAD
 70
     1
  9
$DIMZIN
 70
     0
  9
$DIMBLK
  1

  9
$DIMASO
 70
     1
  9
$DIMSHO
 70
     0
  9
$DIMPOST
  1

  9
$DIMAPOST
  1

  9
$DIMALT
 70
     0
  9
$DIMALTD
 70
     2
  9
$DIMALTF
 40
25.3999999999999986
  9
$DIMLFAC
 40
1.0
  9
$DIMTOFL
 70
     1
  9
$DIMTVP
 40
1.6000000000000001
  9
$DIMTIX
 70
     1
  9
$DIMSOXD
 70
     0
  9
$DIMSAH
 70
     0
  9
$DIMBLK1
  1

  9
$DIMBLK2
  1

  9
$DIMSTYLE
  2
STANDARD
  9
$DIMCLRD
 70
     0
  9
$DIMCLRE
 70
     0
  9
$DIMCLRT
 70
     0
  9
$DIMTFAC
 40
1.0
  9
$DIMGAP
 40
0.09
  9
$LUNITS
 70
     2
  9
$LUPREC
 70
     4
  9
$SKETCHINC
 40
0.1
  9
$FILLETRAD
 40
1.0
  9
$AUNITS
 70
     1
  9
$AUPREC
 70
     4
  9
$MENU
  1
E:\r13\win\SUPPORT\ACAD
  9
$ELEVATION
 40
0.0
  9
$PELEVATION
 40
0.0
  9
$THICKNESS
 40
0.0
  9
$LIMCHECK
 70
     0
  9
$BLIPMODE
 70
     0
  9
$CHAMFERA
 40
2.0
  9
$CHAMFERB
 40
2.0
  9
$SKPOLY
 70
     0
  9
$TDCREATE
 40
2449839.7904861117713153
  9
$TDUPDATE
 40
2460580.5713541670702398
  9
$TDINDWG
 40
0.2247415972
  9
$TDUSRTIMER
 40
0.2247415972
  9
$USRTIMER
 70
     1
  9
$ANGBASE
 50
0.0
  9
$ANGDIR
 70
     0
  9
$PDMODE
 70
     0
  9
$PDSIZE
 40
0.0
  9
$PLINEWID
 40
0.0
  9
$COORDS
 70
     1
  9
$SPLFRAME
 70
     0
  9
$SPLINETYPE
 70
     6
  9
$SPLINESEGS
 70
     8
  9
$ATTDIA
 70
     1
  9
$ATTREQ
 70
     1
  9
$HANDLING
 70
     1
  9
$HANDSEED
  5
17A6
  9
$SURFTAB1
 70
     6
  9
$SURFTAB2
 70
     6
  9
$SURFTYPE
 70
     6
  9
$SURFU
 70
     6
  9
$SURFV
 70
     6
  9
$UCSNAME
  2

  9
$UCSORG
 10
0.0
 20
0.0
 30
0.0
  9
$UCSXDIR
 10
1.0
 20
0.0
 30
0.0
  9
$UCSYDIR
 10
0.0
 20
1.0
 30
0.0
  9
$PUCSNAME
  2

  9
$PUCSORG
 10
0.0
 20
0.0
 30
0.0
  9
$PUCSXDIR
 10
1.0
 20
0.0
 30
0.0
  9
$PUCSYDIR
 10
0.0
 20
1.0
 30
0.0
  9
$USERI1
 70
     0
  9
$USERI2
 70
     1
  9
$USERI3
 70
     1
  9
$USERI4
 70
     0
  9
$USERI5
 70
     0
  9
$USERR1
 40
0.0
  9
$USERR2
 40
0.0
  9
$USERR3
 40
0.0
  9
$USERR4
 40
0.0
  9
$USERR5
 40
0.0
  9
$WORLDVIEW
 70
     1
  9
$SHADEDGE
 70
     3
  9
$SHADEDIF
 70
    70
  9
$TILEMODE
 70
     1
  9
$MAXACTVP
 70
    16
  9
$PLIMCHECK
 70
     0
  9
$PEXTMIN
 10
1.0000000000000000E+20
 20
1.0000000000000000E+20
 30
1.0000000000000000E+20
  9
$PEXTMAX
 10
-1.0000000000000000E+20
 20
-1.0000000000000000E+20
 30
-1.0000000000000000E+20
  9
$PLIMMIN
 10
0.0
 20
0.0
  9
$PLIMMAX
 10
12.0
 20
9.0
  9
$UNITMODE
 70
     0
  9
$VISRETAIN
 70
     0
  9
$PLINEGEN
 70
     0
  9
$PSLTSCALE
 70
     0
  0
ENDSEC
  0
SECTION
  2
TABLES
  0
TABLE
  2
VPORT
 70
     1
  0
VPORT
  2
*ACTIVE
 70
     0
 10
0.0
 20
0.0
 11
1.0
 21
1.0
 12
152.6539408866995018
 22
65.0
 13
0.0
 23
0.0
 14
5.0
 24
5.0
 15
5.0
 25
5.0
 16
0.0
 26
0.0
 36
1.0
 17
0.0
 27
0.0
 37
0.0
 40
130.0
 41
2.3485221674876842
 42
50.0
 43
0.0
 44
0.0
 50
0.0
 51
0.0
 71
     0
 72
   500
 73
     1
 74
     0
 75
     0
 76
     0
 77
     0
 78
     2
  0
ENDTAB
  0
TABLE
  2
LTYPE
 70
     3
  0
LTYPE
  2
CONTINUOUS
 70
     0
  3
Solid Line
 72
    65
 73
     0
 40
0.0
  0
LTYPE
  2
CENTER
 70
     0
  3
____ _ ____ _ ____ _ ____ _ ____ _ ____ _ ____
 72
    65
 73
     4
 40
2.0
 49
1.25
 49
-0.25
 49
0.25
 49
-0.25
  0
LTYPE
  2
HIDDEN
 70
     0
  3
_ _ _ _ _ _ _ _ _ _ _ _ _ _ _ _ _ _ _ _ _ _ _
 72
    65
 73
     2
 40
0.375
 49
0.25
 49
-0.125
  0
ENDTAB
  0
TABLE
  2
LAYER
 70
     4
  0
LAYER
  2
0
 70
     0
 62
     7
  6
CONTINUOUS
  0
LAYER
  2
1
 70
     0
 62
     1
  6
CENTER
  0
LAYER
  2
2
 70
     0
 62
     2
  6
HIDDEN
  0
LAYER
  2
DEFPOINTS
 70
     0
 62
     7
  6
CONTINUOUS
  0
ENDTAB
  0
TABLE
  2
STYLE
 70
     2
  0
STYLE
  2
STANDARD
 70
     0
 40
0.0
 41
1.0
 50
0.0
 71
     0
 42
4.000000000000048
  3
TXT
  4
BIGFONT
  0
STYLE
  2
STANDARD1
 70
     0
 40
0.0
 41
1.0
 50
0.0
 71
     0
 42
3.0
  3
txt
  4

  0
ENDTAB
  0
TABLE
  2
VIEW
 70
     1
  0
VIEW
  2
ALL
 70
     0
 40
135.0
 10
110.4957983193277045
 20
67.5
 41
0.0
 11
0.0
 21
0.0
 31
1.0
 12
0.0
 22
0.0
 32
0.0
 42
0.0
 43
0.0
 44
0.0
 50
0.0
 71
     0
  0
ENDTAB
  0
TABLE
  2
UCS
 70
     0
  0
ENDTAB
  0
TABLE
  2
APPID
 70
     5
  0
APPID
  2
ACAD
 70
     0
  0
APPID
  2
ACAD_MLEADERVER
 70
     0
  0
APPID
  2
ACAD_NAV_VCDISPLAY
 70
     0
  0
APPID
  2
ACAD_EXEMPT_FROM_CAD_STANDARDS
 70
     0
  0
APPID
  2
ACAD_TC
 70
     0
  0
ENDTAB
  0
TABLE
  2
DIMSTYLE
 70
     1
  0
DIMSTYLE
  2
STANDARD
 70
     0
  3

  4

  5

  6

  7

 40
1.0
 41
0.18
 42
0.0625
 43
0.38
 44
0.18
 45
0.0
 46
0.0
 47
0.0
 48
0.0
140
0.18
141
0.09
142
0.0
143
25.3999999999999986
144
1.0
145
0.0
146
1.0
147
0.09
 71
     0
 72
     0
 73
     1
 74
     1
 75
     0
 76
     0
 77
     0
 78
     0
170
     0
171
     2
172
     0
173
     0
174
     0
175
     0
176
     0
177
     0
178
     0
  0
ENDTAB
  0
ENDSEC
  0
SECTION
  2
BLOCKS
  0
BLOCK
  8
0
  2
$MODEL_SPACE
 70
     0
 10
0.0
 20
0.0
 30
0.0
  3
$MODEL_SPACE
  1

  0
ENDBLK
  5
13F
  8
0
  0
BLOCK
 67
     1
  8
0
  2
$PAPER_SPACE
 70
     0
 10
0.0
 20
0.0
 30
0.0
  3
$PAPER_SPACE
  1

  0
ENDBLK
  5
13D
 67
     1
  8
0
  0
ENDSEC
  0
SECTION
  2
ENTITIES
  0
TEXT
  5
13E7
  8
0
 62
     3
 10
0.0
 20
0.0
 30
0.0
 40
10.0
  1
FWN30-M6
  7
STANDARD1
  0
LINE
  5
1581
  8
0
 10
64.9999999999999432
 20
58.0000000000000568
 30
0.0
 11
64.8777773067788246
 21
61.5000000000000497
 31
0.0
  0
LINE
  5
1582
  8
0
 10
35.1222226932210617
 20
61.4999999999999503
 30
0.0
 11
34.9999999999999716
 21
57.9999999999999432
 31
0.0
  0
ARC
  5
1583
  8
0
 10
40.4443372205561218
 20
55.9999999999999716
 30
0.0
 40
2.0000000000000049
 50
358.0000000000003979
 51
90.0
  0
ARC
  5
1584
  8
0
 10
59.5556627794438214
 20
56.0000000000000426
 30
0.0
 40
2.0000000000000062
 50
90.0
 51
182.0000000000011937
  0
LINE
  5
1585
  8
0
 10
57.75
 20
50.400000000000027
 30
0.0
 11
57.5568811254056172
 21
55.930201006595027
 31
0.0
  0
LINE
  5
1586
  8
0
 10
42.4431188745943118
 20
55.9302010065949702
 30
0.0
 11
42.2499999999999574
 21
50.3999999999999773
 31
0.0
  0
LINE
  5
1587
  8
0
 10
46.0
 20
50.3999999999999915
 30
0.0
 11
46.0
 21
49.9999999999999929
 31
0.0
  0
LINE
  5
1588
  8
0
 10
54.0
 20
50.0000000000000071
 30
0.0
 11
54.0
 21
50.4000000000000199
 31
0.0
  0
LINE
  5
1589
  8
0
 10
34.9999999999999716
 20
57.9999999999999432
 30
0.0
 11
64.9999999999999432
 21
58.0000000000000568
 31
0.0
  0
LINE
  5
158A
  8
0
 10
53.4393537975539914
 20
76.0697989934050014
 30
0.0
 11
53.4880497324764121
 21
61.5000000000000213
 31
0.0
  0
LINE
  5
158B
  8
0
 10
53.4880497324764121
 20
61.5000000000000213
 30
0.0
 11
64.8777773067788246
 21
61.5000000000000497
 31
0.0
  0
LINE
  5
158C
  8
0
 10
46.5119502675231828
 20
61.4999999999999716
 30
0.0
 11
35.1222226932210617
 21
61.4999999999999503
 31
0.0
  0
LINE
  5
158D
  8
0
 10
46.560646202445632
 20
76.069798993404973
 30
0.0
 11
46.5119502675231828
 21
61.4999999999999716
 31
0.0
  0
LINE
  5
1590
  8
0
 10
46.7355467576211865
 20
77.9999999999999858
 30
0.0
 11
53.2644532423783801
 21
78.0000000000000142
 31
0.0
  0
LINE
  5
1591
  8
0
 10
42.2499999999999574
 20
50.3999999999999773
 30
0.0
 11
57.75
 21
50.400000000000027
 31
0.0
  0
LINE
  5
1592
  8
0
 10
46.0
 20
49.9999999999999929
 30
0.0
 11
54.0
 21
50.0000000000000071
 31
0.0
  0
LINE
  5
1593
  8
2
 10
47.5414999999999779
 20
50.5414999999999921
 30
0.0
 11
52.4584999999999866
 21
50.5414999999999921
 31
0.0
  0
LINE
  5
1594
  8
2
 10
47.5414999999999495
 20
59.5999999999999872
 30
0.0
 11
52.4584999999999582
 21
59.6000000000000014
 31
0.0
  0
LINE
  5
1595
  8
2
 10
53.0
 20
50.0
 30
0.0
 11
52.4584999999999866
 21
50.5414999999999921
 31
0.0
  0
LINE
  5
1596
  8
2
 10
47.5414999999999779
 20
50.5414999999999921
 30
0.0
 11
47.0
 21
49.9999999999999929
 31
0.0
  0
LINE
  5
1597
  8
2
 10
52.4584999999999582
 20
59.6000000000000014
 30
0.0
 11
49.9999999999999716
 21
61.019415636802691
 31
0.0
  0
LINE
  5
1598
  8
2
 10
49.9999999999999716
 20
61.019415636802691
 30
0.0
 11
47.5414999999999495
 21
59.5999999999999872
 31
0.0
  0
LINE
  5
1599
  8
2
 10
47.5414999999999495
 20
59.5999999999999872
 30
0.0
 11
47.5414999999999779
 21
50.5414999999999921
 31
0.0
  0
LINE
  5
159A
  8
2
 10
52.4584999999999866
 20
50.5414999999999921
 30
0.0
 11
52.4584999999999582
 21
59.6000000000000014
 31
0.0
  0
LINE
  5
159B
  8
0
 10
115.0
 20
58.0
 30
0.0
 11
114.3689887145890935
 21
76.0697989934050014
 31
0.0
  0
LINE
  5
159C
  8
0
 10
85.6310112854109207
 20
76.0697989934050014
 30
0.0
 11
85.0000000000000284
 21
58.0
 31
0.0
  0
ARC
  5
159D
  8
0
 10
90.4443372205561502
 20
56.0
 30
0.0
 40
2.0000000000000049
 50
358.0000000000003979
 51
90.0
  0
ARC
  5
159E
  8
0
 10
109.5556627794439066
 20
56.0
 30
0.0
 40
2.0000000000000329
 50
90.0
 51
182.0000000000003979
  0
LINE
  5
159F
  8
0
 10
107.75
 20
50.3999999999999986
 30
0.0
 11
107.5568811254056953
 21
55.9302010065949986
 31
0.0
  0
LINE
  5
15A0
  8
0
 10
92.4431188745943047
 20
55.9302010065949986
 30
0.0
 11
92.2499999999999858
 21
50.3999999999999986
 31
0.0
  0
LINE
  5
15A1
  8
0
 10
96.0
 20
50.3999999999999986
 30
0.0
 11
96.0
 21
50.0
 31
0.0
  0
LINE
  5
15A2
  8
0
 10
104.0
 20
50.0
 30
0.0
 11
104.0
 21
50.3999999999999986
 31
0.0
  0
ARC
  5
15A3
  8
0
 10
112.370207060550797
 20
76.0
 30
0.0
 40
2.000000000000004
 50
1.999999999999571
 51
90.0000000000016058
  0
ARC
  5
15A4
  8
0
 10
87.6297929394491177
 20
76.0
 30
0.0
 40
2.000000000000004
 50
89.9999999999967457
 51
178.0000000000003979
  0
LINE
  5
15A5
  8
0
 10
85.0000000000000284
 20
58.0
 30
0.0
 11
115.0
 21
58.0
 31
0.0
  0
LINE
  5
15A6
  8
0
 10
86.0487032095493305
 20
76.0697989934050014
 30
0.0
 11
85.5368825402724866
 21
61.5000000000000213
 31
0.0
  0
LINE
  5
15A7
  8
0
 10
85.5368825402724866
 20
61.5000000000000213
 30
0.0
 11
114.4631174597274992
 21
61.5000000000000213
 31
0.0
  0
LINE
  5
15A8
  8
0
 10
113.9512967904505985
 20
76.0697989934050014
 30
0.0
 11
114.4631174597274992
 21
61.5000000000000213
 31
0.0
  0
LINE
  5
15A9
  8
0
 10
92.2499999999999858
 20
50.3999999999999986
 30
0.0
 11
107.75
 21
50.3999999999999986
 31
0.0
  0
LINE
  5
15AD
  8
0
 10
87.6297929394495583
 20
78.0
 30
0.0
 11
88.0683040707020268
 21
78.0000000000000142
 31
0.0
  0
LINE
  5
15AE
  8
0
 10
111.9316959292980016
 20
78.0000000000000142
 30
0.0
 11
112.3702070605508965
 21
78.0
 31
0.0
  0
LINE
  5
15AF
  8
0
 10
96.0
 20
50.0
 30
0.0
 11
104.0
 21
50.0
 31
0.0
  0
LINE
  5
15B0
  8
2
 10
100.0
 20
50.5414999999999921
 30
0.0
 11
102.4585000000000008
 21
50.5414999999999921
 31
0.0
  0
LINE
  5
15B1
  8
2
 10
97.5415000000000134
 20
50.5414999999999921
 30
0.0
 11
100.0
 21
50.5414999999999921
 31
0.0
  0
LINE
  5
15B2
  8
2
 10
100.0
 20
59.6000000000000014
 30
0.0
 11
102.4585000000000008
 21
59.6000000000000014
 31
0.0
  0
LINE
  5
15B3
  8
2
 10
97.5415000000000134
 20
59.6000000000000014
 30
0.0
 11
100.0
 21
59.6000000000000014
 31
0.0
  0
LINE
  5
15B4
  8
2
 10
103.0
 20
50.0
 30
0.0
 11
102.4585000000000008
 21
50.5414999999999921
 31
0.0
  0
LINE
  5
15B5
  8
2
 10
97.5415000000000134
 20
50.5414999999999921
 30
0.0
 11
97.0
 21
50.0
 31
0.0
  0
LINE
  5
15B6
  8
2
 10
97.5415000000000134
 20
59.6000000000000014
 30
0.0
 11
97.5415000000000134
 21
50.5414999999999921
 31
0.0
  0
LINE
  5
15B7
  8
2
 10
102.4585000000000008
 20
50.5414999999999921
 30
0.0
 11
102.4585000000000008
 21
59.6000000000000014
 31
0.0
  0
LINE
  5
15B8
  8
2
 10
102.4585000000000008
 20
59.6000000000000014
 30
0.0
 11
100.0
 21
61.019415636802691
 31
0.0
  0
LINE
  5
15B9
  8
2
 10
100.0
 20
61.019415636802691
 30
0.0
 11
97.5415000000000134
 21
59.6000000000000014
 31
0.0
  0
CIRCLE
  5
15BA
  8
0
 10
50.0
 20
100.0
 30
0.0
 40
14.9999999999999698
  0
ARC
  5
15BB
  8
0
 10
50.0
 20
100.0
 30
0.0
 40
14.8777773067788797
 50
283.5590254934309087
 51
76.440974506570754
  0
ARC
  5
15BC
  8
0
 10
50.0
 20
100.0
 30
0.0
 40
14.8777773067788903
 50
103.5590254934308945
 51
256.4409745065690913
  0
LINE
  5
15BD
  8
2
 10
53.0
 20
50.0000000000000071
 30
0.0
 11
53.0
 21
58.0
 31
0.0
  0
LINE
  5
15BE
  8
2
 10
47.0
 20
49.9999999999999929
 30
0.0
 11
47.0
 21
57.9999999999999716
 31
0.0
  0
LINE
  5
15BF
  8
2
 10
46.9999999999999716
 20
57.9999999999999787
 30
0.0
 11
52.9999999999999716
 21
58.0000000000000071
 31
0.0
  0
LINE
  5
15C0
  8
2
 10
103.0
 20
50.0000000000000284
 30
0.0
 11
103.0
 21
58.0000000000000071
 31
0.0
  0
LINE
  5
15C1
  8
2
 10
97.0
 20
50.0
 30
0.0
 11
97.0
 21
57.9999999999999787
 31
0.0
  0
LINE
  5
15C2
  8
2
 10
96.9999999999999716
 20
58.0
 30
0.0
 11
103.0
 21
58.0000000000000284
 31
0.0
  0
ARC
  5
15C3
  8
0
 10
202.7891489693766971
 20
100.0000000000005969
 30
0.0
 40
150.0000000000021032
 50
174.4668998720580078
 51
185.5331001279427028
  0
ARC
  5
15C4
  8
0
 10
-102.7891489693698048
 20
100.0000000000004974
 30
0.0
 40
149.9999999999949125
 50
354.4668998720572972
 51
5.533100127941962
  0
LINE
  5
15C5
  8
1
 10
50.0
 20
48.0
 30
0.0
 11
49.9999999999999716
 21
80.0
 31
0.0
  0
LINE
  5
15C6
  8
1
 10
100.0
 20
48.0
 30
0.0
 11
99.9999999999999858
 21
80.0
 31
0.0
  0
LINE
  5
15C7
  8
1
 10
66.9999999999999716
 20
100.0
 30
0.0
 11
33.0000000000000284
 21
100.0
 31
0.0
  0
LINE
  5
15C8
  8
1
 10
50.0
 20
83.0000000000000142
 30
0.0
 11
50.0
 21
116.9999999999999005
 31
0.0
  0
POLYLINE
  5
15DF
  8
0
 66
     1
 10
0.0
 20
0.0
 30
0.0
  0
VERTEX
  5
1654
  8
0
 10
111.9316959292980016
 20
78.0000000000000142
 30
0.0
  0
VERTEX
  5
1655
  8
0
 10
111.9691306503003005
 20
77.9996621133107197
 30
0.0
  0
VERTEX
  5
1656
  8
0
 10
112.0064507985457993
 20
77.9986499794855632
 30
0.0
  0
VERTEX
  5
1657
  8
0
 10
112.043656767241302
 20
77.996965887888706
 30
0.0
  0
VERTEX
  5
1658
  8
0
 10
112.0807489495940956
 20
77.9946121278842242
 30
0.0
  0
VERTEX
  5
1659
  8
0
 10
112.117727738811098
 20
77.9915909888362506
 30
0.0
  0
VERTEX
  5
165A
  8
0
 10
112.1545935280994968
 20
77.9879047601089184
 30
0.0
  0
VERTEX
  5
165B
  8
0
 10
112.1913467106662949
 20
77.9835557310663177
 30
0.0
  0
VERTEX
  5
165C
  8
0
 10
112.2279876797186944
 20
77.9785461910725815
 30
0.0
  0
VERTEX
  5
165D
  8
0
 10
112.2645168284636981
 20
77.9728784294918285
 30
0.0
  0
VERTEX
  5
165E
  8
0
 10
112.3009345501083942
 20
77.9665547356881774
 30
0.0
  0
VERTEX
  5
165F
  8
0
 10
112.3372525197126066
 20
77.959572326287244
 30
0.0
  0
VERTEX
  5
1660
  8
0
 10
112.373503892339599
 20
77.9519152026478537
 30
0.0
  0
VERTEX
  5
1661
  8
0
 10
112.4096716923903045
 20
77.9435855709027265
 30
0.0
  0
VERTEX
  5
1662
  8
0
 10
112.4457343684716051
 20
77.9345875052013355
 30
0.0
  0
VERTEX
  5
1663
  8
0
 10
112.4816703691908941
 20
77.9249250796931676
 30
0.0
  0
VERTEX
  5
1664
  8
0
 10
112.5174581431551957
 20
77.91460236852771
 30
0.0
  0
VERTEX
  5
1665
  8
0
 10
112.5530761389717043
 20
77.9036234458544214
 30
0.0
  0
VERTEX
  5
1666
  8
0
 10
112.5885028052476002
 20
77.8919923858228032
 30
0.0
  0
VERTEX
  5
1667
  8
0
 10
112.6237165905901065
 20
77.8797132625823281
 30
0.0
  0
VERTEX
  5
1668
  8
0
 10
112.658695943606304
 20
77.8667901502824691
 30
0.0
  0
VERTEX
  5
1669
  8
0
 10
112.6934175252884955
 20
77.8532283245824317
 30
0.0
  0
VERTEX
  5
166A
  8
0
 10
112.727826173704301
 20
77.8390574124323678
 30
0.0
  0
VERTEX
  5
166B
  8
0
 10
112.7619041440405994
 20
77.8242892377311648
 30
0.0
  0
VERTEX
  5
166C
  8
0
 10
112.7956518381327982
 20
77.8089244938414453
 30
0.0
  0
VERTEX
  5
166D
  8
0
 10
112.829069657816504
 20
77.7929638741258458
 30
0.0
  0
VERTEX
  5
166E
  8
0
 10
112.8621580049271955
 20
77.7764080719469888
 30
0.0
  0
VERTEX
  5
166F
  8
0
 10
112.8949172813003941
 20
77.7592577806675109
 30
0.0
  0
VERTEX
  5
1670
  8
0
 10
112.9273478887718056
 20
77.7415136936500346
 30
0.0
  0
VERTEX
  5
1671
  8
0
 10
112.9594502291765963
 20
77.7231765042571823
 30
0.0
  0
VERTEX
  5
1672
  8
0
 10
112.9912247043505999
 20
77.7042469058515763
 30
0.0
  0
VERTEX
  5
1673
  8
0
 10
113.0226717161290964
 20
77.6847255917958819
 30
0.0
  0
VERTEX
  5
1674
  8
0
 10
113.0538081647719935
 20
77.6645930721509217
 30
0.0
  0
VERTEX
  5
1675
  8
0
 10
113.0846448755583964
 20
77.6438289568057485
 30
0.0
  0
VERTEX
  5
1676
  8
0
 10
113.1151556249262029
 20
77.6224523283444228
 30
0.0
  0
VERTEX
  5
1677
  8
0
 10
113.1453137822137052
 20
77.6004827303442397
 30
0.0
  0
VERTEX
  5
1678
  8
0
 10
113.1750927167590959
 20
77.5779397063824518
 30
0.0
  0
VERTEX
  5
1679
  8
0
 10
113.2044657979003972
 20
77.5548428000363543
 30
0.0
  0
VERTEX
  5
167A
  8
0
 10
113.2334063949760008
 20
77.5312115548831997
 30
0.0
  0
VERTEX
  5
167B
  8
0
 10
113.2618878773239999
 20
77.5070655145002831
 30
0.0
  0
VERTEX
  5
167C
  8
0
 10
113.2898836142827008
 20
77.4824242224648714
 30
0.0
  0
VERTEX
  5
167D
  8
0
 10
113.3173669751900974
 20
77.4573072223542312
 30
0.0
  0
VERTEX
  5
167E
  8
0
 10
113.3443168156529026
 20
77.4317327301072851
 30
0.0
  0
VERTEX
  5
167F
  8
0
 10
113.3707492359477982
 20
77.4057048337848954
 30
0.0
  0
VERTEX
  5
1680
  8
0
 10
113.396668170188903
 20
77.379222609016864
 30
0.0
  0
VERTEX
  5
1681
  8
0
 10
113.4220731565919067
 20
77.3522856268839689
 30
0.0
  0
VERTEX
  5
1682
  8
0
 10
113.4469637333723995
 20
77.3248934584669456
 30
0.0
  0
VERTEX
  5
1683
  8
0
 10
113.4713394387461989
 20
77.2970456748466006
 30
0.0
  0
VERTEX
  5
1684
  8
0
 10
113.4951998109288951
 20
77.268741847103712
 30
0.0
  0
VERTEX
  5
1685
  8
0
 10
113.5185443881361067
 20
77.2399815463190578
 30
0.0
  0
VERTEX
  5
1686
  8
0
 10
113.5413727085836939
 20
77.2107643435734019
 30
0.0
  0
VERTEX
  5
1687
  8
0
 10
113.5636843104871048
 20
77.1810898099475509
 30
0.0
  0
VERTEX
  5
1688
  8
0
 10
113.5854786474224056
 20
77.1509573532710675
 30
0.0
  0
VERTEX
  5
1689
  8
0
 10
113.606745500620093
 20
77.1203597505131597
 30
0.0
  0
VERTEX
  5
168A
  8
0
 10
113.6274672121484031
 20
77.089313137961966
 30
0.0
  0
VERTEX
  5
168B
  8
0
 10
113.6476283627939949
 20
77.0578452442315864
 30
0.0
  0
VERTEX
  5
168C
  8
0
 10
113.6672135333438973
 20
77.0259837979361208
 30
0.0
  0
VERTEX
  5
168D
  8
0
 10
113.6862073045848973
 20
76.9937565276896549
 30
0.0
  0
VERTEX
  5
168E
  8
0
 10
113.7045942573038957
 20
76.9611911621062887
 30
0.0
  0
VERTEX
  5
168F
  8
0
 10
113.7223589722876937
 20
76.9283154298001364
 30
0.0
  0
VERTEX
  5
1690
  8
0
 10
113.739486030323107
 20
76.8951570593852551
 30
0.0
  0
VERTEX
  5
1691
  8
0
 10
113.7559600121970931
 20
76.8617437794757734
 30
0.0
  0
VERTEX
  5
1692
  8
0
 10
113.7717654986963964
 20
76.8281033186857627
 30
0.0
  0
VERTEX
  5
1693
  8
0
 10
113.7869047785602987
 20
76.794229131768347
 30
0.0
  0
VERTEX
  5
1694
  8
0
 10
113.8014113347542065
 20
76.7600572543431952
 30
0.0
  0
VERTEX
  5
1695
  8
0
 10
113.8152826039192007
 20
76.7255962663624729
 30
0.0
  0
VERTEX
  5
1696
  8
0
 10
113.8285141697602967
 20
76.6908583945065914
 30
0.0
  0
VERTEX
  5
1697
  8
0
 10
113.8411016159821969
 20
76.6558558654560187
 30
0.0
  0
VERTEX
  5
1698
  8
0
 10
113.8530405262898029
 20
76.6206009058911661
 30
0.0
  0
VERTEX
  5
1699
  8
0
 10
113.8643264843878029
 20
76.5851057424924733
 30
0.0
  0
VERTEX
  5
169A
  8
0
 10
113.8749550739810985
 20
76.5493826019404224
 30
0.0
  0
VERTEX
  5
169B
  8
0
 10
113.8849218787745059
 20
76.5134437109154106
 30
0.0
  0
VERTEX
  5
169C
  8
0
 10
113.8942224824726992
 20
76.4773012960978917
 30
0.0
  0
VERTEX
  5
169D
  8
0
 10
113.9028524687806936
 20
76.4409675841682912
 30
0.0
  0
VERTEX
  5
169E
  8
0
 10
113.9108074214031063
 20
76.4044548018070628
 30
0.0
  0
VERTEX
  5
169F
  8
0
 10
113.9180829240447963
 20
76.3677751756946464
 30
0.0
  0
VERTEX
  5
16A0
  8
0
 10
113.9246745604106934
 20
76.3309409325114672
 30
0.0
  0
VERTEX
  5
16A1
  8
0
 10
113.9305779142055002
 20
76.2939642989379792
 30
0.0
  0
VERTEX
  5
16A2
  8
0
 10
113.935788569133905
 20
76.2568575016546077
 30
0.0
  0
VERTEX
  5
16A3
  8
0
 10
113.940302108900994
 20
76.2196327673418068
 30
0.0
  0
VERTEX
  5
16A4
  8
0
 10
113.9441141172113987
 20
76.182302322680016
 30
0.0
  0
VERTEX
  5
16A5
  8
0
 10
113.947220177769907
 20
76.1448783943496466
 30
0.0
  0
VERTEX
  5
16A6
  8
0
 10
113.949615874281406
 20
76.1073732090311665
 30
0.0
  0
VERTEX
  5
16A7
  8
0
 10
113.9512967904505985
 20
76.0697989934050156
 30
0.0
  0
SEQEND
  5
16A8
  8
0
  0
POLYLINE
  5
15E0
  8
0
 66
     1
 10
0.0
 20
0.0
 30
0.0
  0
VERTEX
  5
16A9
  8
0
 10
88.0683040707020268
 20
78.0000000000000142
 30
0.0
  0
VERTEX
  5
16AA
  8
0
 10
88.8140350662831537
 20
77.9012519329657351
 30
0.0
  0
VERTEX
  5
16AB
  8
0
 10
89.5597660618642948
 20
77.8089805162089334
 30
0.0
  0
VERTEX
  5
16AC
  8
0
 10
90.3054970574454217
 20
77.7231711502139291
 30
0.0
  0
VERTEX
  5
16AD
  8
0
 10
91.0512280530265343
 20
77.6438092354649427
 30
0.0
  0
VERTEX
  5
16AE
  8
0
 10
91.7969590486076754
 20
77.570880172446266
 30
0.0
  0
VERTEX
  5
16AF
  8
0
 10
92.5426900441887739
 20
77.5043693616421621
 30
0.0
  0
VERTEX
  5
16B0
  8
0
 10
93.2884210397699292
 20
77.4442622035369084
 30
0.0
  0
VERTEX
  5
16B1
  8
0
 10
94.0341520353510418
 20
77.3905440986147823
 30
0.0
  0
VERTEX
  5
16B2
  8
0
 10
94.7798830309321545
 20
77.3432004473600472
 30
0.0
  0
VERTEX
  5
16B3
  8
0
 10
95.5256140265132956
 20
77.3022166502569661
 30
0.0
  0
VERTEX
  5
16B4
  8
0
 10
96.2713450220944083
 20
77.2675781077898307
 30
0.0
  0
VERTEX
  5
16B5
  8
0
 10
97.0170760176755209
 20
77.23927022044289
 30
0.0
  0
VERTEX
  5
16B6
  8
0
 10
97.7628070132566762
 20
77.2172783887004357
 30
0.0
  0
VERTEX
  5
16B7
  8
0
 10
98.5085380088377747
 20
77.2015880130467167
 30
0.0
  0
VERTEX
  5
16B8
  8
0
 10
99.2542690044189158
 20
77.1921844939660389
 30
0.0
  0
VERTEX
  5
16B9
  8
0
 10
100.0
 20
77.189053231942637
 30
0.0
  0
VERTEX
  5
16BA
  8
0
 10
100.7457309955810985
 20
77.1921844939660389
 30
0.0
  0
VERTEX
  5
16BB
  8
0
 10
101.4914619911621969
 20
77.2015880130467309
 30
0.0
  0
VERTEX
  5
16BC
  8
0
 10
102.2371929867432954
 20
77.2172783887004357
 30
0.0
  0
VERTEX
  5
16BD
  8
0
 10
102.9829239823243938
 20
77.2392702204429042
 30
0.0
  0
VERTEX
  5
16BE
  8
0
 10
103.728654977905606
 20
77.2675781077898449
 30
0.0
  0
VERTEX
  5
16BF
  8
0
 10
104.4743859734867044
 20
77.3022166502569803
 30
0.0
  0
VERTEX
  5
16C0
  8
0
 10
105.2201169690679023
 20
77.3432004473600614
 30
0.0
  0
VERTEX
  5
16C1
  8
0
 10
105.9658479646490008
 20
77.3905440986147966
 30
0.0
  0
VERTEX
  5
16C2
  8
0
 10
106.7115789602300993
 20
77.4442622035369226
 30
0.0
  0
VERTEX
  5
16C3
  8
0
 10
107.4573099558111977
 20
77.5043693616421763
 30
0.0
  0
VERTEX
  5
16C4
  8
0
 10
108.2030409513922962
 20
77.570880172446266
 30
0.0
  0
VERTEX
  5
16C5
  8
0
 10
108.9487719469734941
 20
77.6438092354649427
 30
0.0
  0
VERTEX
  5
16C6
  8
0
 10
109.6945029425546068
 20
77.7231711502139149
 30
0.0
  0
VERTEX
  5
16C7
  8
0
 10
110.4402339381357052
 20
77.8089805162089334
 30
0.0
  0
VERTEX
  5
16C8
  8
0
 10
111.1859649337168037
 20
77.9012519329657067
 30
0.0
  0
VERTEX
  5
16C9
  8
0
 10
111.9316959292980016
 20
77.9999999999999858
 30
0.0
  0
SEQEND
  5
16CA
  8
0
  0
POLYLINE
  5
15E1
  8
0
 66
     1
 10
0.0
 20
0.0
 30
0.0
  0
VERTEX
  5
16CB
  8
0
 10
86.0487032095493305
 20
76.0697989934050014
 30
0.0
  0
VERTEX
  5
16CC
  8
0
 10
86.0507262790621468
 20
76.1136463702776211
 30
0.0
  0
VERTEX
  5
16CD
  8
0
 10
86.0537023919422666
 20
76.1572953900419094
 30
0.0
  0
VERTEX
  5
16CE
  8
0
 10
86.0576269798990268
 20
76.2007470055719551
 30
0.0
  0
VERTEX
  5
16CF
  8
0
 10
86.0624954746417075
 20
76.2440021697418189
 30
0.0
  0
VERTEX
  5
16D0
  8
0
 10
86.0683033078797166
 20
76.2870618354255612
 30
0.0
  0
VERTEX
  5
16D1
  8
0
 10
86.0750459113223769
 20
76.329926955497271
 30
0.0
  0
VERTEX
  5
16D2
  8
0
 10
86.0827187166789827
 20
76.3725984828309947
 30
0.0
  0
VERTEX
  5
16D3
  8
0
 10
86.0913171556589134
 20
76.4150773703008639
 30
0.0
  0
VERTEX
  5
16D4
  8
0
 10
86.1008370309833424
 20
76.457365302942236
 30
0.0
  0
VERTEX
  5
16D5
  8
0
 10
86.1113011229119536
 20
76.4995114532103884
 30
0.0
  0
VERTEX
  5
16D6
  8
0
 10
86.1227164652670467
 20
76.5415158867164962
 30
0.0
  0
VERTEX
  5
16D7
  8
0
 10
86.1350709502139011
 20
76.5833374158654721
 30
0.0
  0
VERTEX
  5
16D8
  8
0
 10
86.1483524699177963
 20
76.6249348530622285
 30
0.0
  0
VERTEX
  5
16D9
  8
0
 10
86.1625489165439546
 20
76.6662670107116782
 30
0.0
  0
VERTEX
  5
16DA
  8
0
 10
86.1776481822576983
 20
76.7072927012187193
 30
0.0
  0
VERTEX
  5
16DB
  8
0
 10
86.193638159224264
 20
76.7479707369882647
 30
0.0
  0
VERTEX
  5
16DC
  8
0
 10
86.2105067396089169
 20
76.7882599304252125
 30
0.0
  0
VERTEX
  5
16DD
  8
0
 10
86.2282405546224027
 20
76.828118212610363
 30
0.0
  0
VERTEX
  5
16DE
  8
0
 10
86.2468025384774251
 20
76.8674959611731765
 30
0.0
  0
VERTEX
  5
16DF
  8
0
 10
86.2661789197500468
 20
76.9063821777576493
 30
0.0
  0
VERTEX
  5
16E0
  8
0
 10
86.2863682775035556
 20
76.9447777394927641
 30
0.0
  0
VERTEX
  5
16E1
  8
0
 10
86.3073691908012393
 20
76.9826835235074896
 30
0.0
  0
VERTEX
  5
16E2
  8
0
 10
86.3291802387063285
 20
77.0201004069307942
 30
0.0
  0
VERTEX
  5
16E3
  8
0
 10
86.3518000002821253
 20
77.057029266891675
 30
0.0
  0
VERTEX
  5
16E4
  8
0
 10
86.3752270545918748
 20
77.0934709805190863
 30
0.0
  0
VERTEX
  5
16E5
  8
0
 10
86.3994599806988504
 20
77.1294264249420252
 30
0.0
  0
VERTEX
  5
16E6
  8
0
 10
86.4245014818334312
 20
77.1648986563578205
 30
0.0
  0
VERTEX
  5
16E7
  8
0
 10
86.4503824265385248
 20
77.1998985505846349
 30
0.0
  0
VERTEX
  5
16E8
  8
0
 10
86.4770808509689175
 20
77.2343951781445952
 30
0.0
  0
VERTEX
  5
16E9
  8
0
 10
86.5045611069220257
 20
77.268348920131487
 30
0.0
  0
VERTEX
  5
16EA
  8
0
 10
86.5327875461952942
 20
77.3017201576390818
 30
0.0
  0
VERTEX
  5
16EB
  8
0
 10
86.5617245205861678
 20
77.334469271761165
 30
0.0
  0
VERTEX
  5
16EC
  8
0
 10
86.5913363818922051
 20
77.366556643591565
 30
0.0
  0
VERTEX
  5
16ED
  8
0
 10
86.6215874819107796
 20
77.3979426542240105
 30
0.0
  0
VERTEX
  5
16EE
  8
0
 10
86.6524421724393648
 20
77.4285876847523298
 30
0.0
  0
VERTEX
  5
16EF
  8
0
 10
86.6838819808129983
 20
77.4584685747234971
 30
0.0
  0
VERTEX
  5
16F0
  8
0
 10
86.7159795614061437
 20
77.487654627728304
 30
0.0
  0
VERTEX
  5
16F1
  8
0
 10
86.7487298565635001
 20
77.5161486778569468
 30
0.0
  0
VERTEX
  5
16F2
  8
0
 10
86.782111216353627
 20
77.5439382309439225
 30
0.0
  0
VERTEX
  5
16F3
  8
0
 10
86.8161019908450555
 20
77.5710107928237278
 30
0.0
  0
VERTEX
  5
16F4
  8
0
 10
86.8506805301062457
 20
77.597353869330874
 30
0.0
  0
VERTEX
  5
16F5
  8
0
 10
86.8858251842057427
 20
77.6229549662998437
 30
0.0
  0
VERTEX
  5
16F6
  8
0
 10
86.9215143032120636
 20
77.6478015895651765
 30
0.0
  0
VERTEX
  5
16F7
  8
0
 10
86.9577262371936683
 20
77.6718812449613552
 30
0.0
  0
VERTEX
  5
16F8
  8
0
 10
86.9944393362191022
 20
77.6951814383228623
 30
0.0
  0
VERTEX
  5
16F9
  8
0
 10
87.031631950356882
 20
77.7176896754842375
 30
0.0
  0
VERTEX
  5
16FA
  8
0
 10
87.0692824296754964
 20
77.7393934622799492
 30
0.0
  0
VERTEX
  5
16FB
  8
0
 10
87.1073691242434336
 20
77.7602803045445228
 30
0.0
  0
VERTEX
  5
16FC
  8
0
 10
87.1458703841292674
 20
77.780337708112441
 30
0.0
  0
VERTEX
  5
16FD
  8
0
 10
87.184764559401458
 20
77.7995531788182291
 30
0.0
  0
VERTEX
  5
16FE
  8
0
 10
87.2240300001285078
 20
77.817914222496384
 30
0.0
  0
VERTEX
  5
16FF
  8
0
 10
87.2636450563789765
 20
77.8354083449813885
 30
0.0
  0
VERTEX
  5
1700
  8
0
 10
87.3035880782213098
 20
77.8520230521077679
 30
0.0
  0
VERTEX
  5
1701
  8
0
 10
87.3438601194298485
 20
77.8677584077092746
 30
0.0
  0
VERTEX
  5
1702
  8
0
 10
87.3844959564841588
 20
77.8826363325181745
 30
0.0
  0
VERTEX
  5
1703
  8
0
 10
87.4254782621692925
 20
77.8966529352283459
 30
0.0
  0
VERTEX
  5
1704
  8
0
 10
87.4667872055846232
 20
77.9098030050691648
 30
0.0
  0
VERTEX
  5
1705
  8
0
 10
87.5084029558295242
 20
77.9220813312699647
 30
0.0
  0
VERTEX
  5
1706
  8
0
 10
87.5503056820032839
 20
77.9334827030601502
 30
0.0
  0
VERTEX
  5
1707
  8
0
 10
87.5924755532052757
 20
77.9440019096690406
 30
0.0
  0
VERTEX
  5
1708
  8
0
 10
87.6348927385348304
 20
77.9536337403260262
 30
0.0
  0
VERTEX
  5
1709
  8
0
 10
87.6775374070912932
 20
77.9623729842604547
 30
0.0
  0
VERTEX
  5
170A
  8
0
 10
87.7203897279740232
 20
77.9702144307017022
 30
0.0
  0
VERTEX
  5
170B
  8
0
 10
87.7634298702823372
 20
77.9771528688791022
 30
0.0
  0
VERTEX
  5
170C
  8
0
 10
87.8066380031156086
 20
77.9831830880220451
 30
0.0
  0
VERTEX
  5
170D
  8
0
 10
87.8499942955731541
 20
77.9882998773598644
 30
0.0
  0
VERTEX
  5
170E
  8
0
 10
87.8934789167543045
 20
77.9924980261219503
 30
0.0
  0
VERTEX
  5
170F
  8
0
 10
87.9370720357584332
 20
77.9957723235376363
 30
0.0
  0
VERTEX
  5
1710
  8
0
 10
87.980753821684857
 20
77.9981175588362987
 30
0.0
  0
VERTEX
  5
1711
  8
0
 10
88.0245044436329351
 20
77.9995285212472993
 30
0.0
  0
VERTEX
  5
1712
  8
0
 10
88.0683040707020268
 20
78.0
 30
0.0
  0
SEQEND
  5
1713
  8
0
  0
POLYLINE
  5
15E2
  8
0
 66
     1
 10
0.0
 20
0.0
 30
0.0
  0
VERTEX
  5
1714
  8
0
 10
46.560646202445632
 20
76.069798993404973
 30
0.0
  0
VERTEX
  5
1715
  8
0
 10
46.5608352154410383
 20
76.1136463702776069
 30
0.0
  0
VERTEX
  5
1716
  8
0
 10
46.5611132452550578
 20
76.1572953900418952
 30
0.0
  0
VERTEX
  5
1717
  8
0
 10
46.5614797570271435
 20
76.2007470055719267
 30
0.0
  0
VERTEX
  5
1718
  8
0
 10
46.561934215896791
 20
76.2440021697417905
 30
0.0
  0
VERTEX
  5
1719
  8
0
 10
46.5624760870035672
 20
76.287061835425547
 30
0.0
  0
VERTEX
  5
171A
  8
0
 10
46.5631048354869321
 20
76.3299269554972426
 30
0.0
  0
VERTEX
  5
171B
  8
0
 10
46.563819926486417
 20
76.3725984828309947
 30
0.0
  0
VERTEX
  5
171C
  8
0
 10
46.5646208251415032
 20
76.4150773703008213
 30
0.0
  0
VERTEX
  5
171D
  8
0
 10
46.5655070308732775
 20
76.4573653029422076
 30
0.0
  0
VERTEX
  5
171E
  8
0
 10
46.5664805045239234
 20
76.4995114532103599
 30
0.0
  0
VERTEX
  5
171F
  8
0
 10
46.5675416537929721
 20
76.5415158867164678
 30
0.0
  0
VERTEX
  5
1720
  8
0
 10
46.5686890987504611
 20
76.5833374158654436
 30
0.0
  0
VERTEX
  5
1721
  8
0
 10
46.5699214594664284
 20
76.6249348530622001
 30
0.0
  0
VERTEX
  5
1722
  8
0
 10
46.5712373560108901
 20
76.6662670107116497
 30
0.0
  0
VERTEX
  5
1723
  8
0
 10
46.5726354084539125
 20
76.7072927012186909
 30
0.0
  0
VERTEX
  5
1724
  8
0
 10
46.5741142368654835
 20
76.7479707369882362
 30
0.0
  0
VERTEX
  5
1725
  8
0
 10
46.5756724613156265
 20
76.7882599304251841
 30
0.0
  0
VERTEX
  5
1726
  8
0
 10
46.5773085855319096
 20
76.8281182126103346
 30
0.0
  0
VERTEX
  5
1727
  8
0
 10
46.579018903488361
 20
76.8674959611731481
 30
0.0
  0
VERTEX
  5
1728
  8
0
 10
46.5808018005403994
 20
76.9063821777576209
 30
0.0
  0
VERTEX
  5
1729
  8
0
 10
46.5826567931639701
 20
76.9447777394927357
 30
0.0
  0
VERTEX
  5
172A
  8
0
 10
46.5845833978351322
 20
76.9826835235074611
 30
0.0
  0
VERTEX
  5
172B
  8
0
 10
46.5865811310298383
 20
77.0201004069307658
 30
0.0
  0
VERTEX
  5
172C
  8
0
 10
46.5886495092240622
 20
77.0570292668916466
 30
0.0
  0
VERTEX
  5
172D
  8
0
 10
46.5907880488938417
 20
77.0934709805190721
 30
0.0
  0
VERTEX
  5
172E
  8
0
 10
46.5929962665151365
 20
77.1294264249419967
 30
0.0
  0
VERTEX
  5
172F
  8
0
 10
46.5952740404331109
 20
77.1648986563577921
 30
0.0
  0
VERTEX
  5
1730
  8
0
 10
46.5976236783254834
 20
77.1998985505846207
 30
0.0
  0
VERTEX
  5
1731
  8
0
 10
46.6000427695710684
 20
77.234395178144581
 30
0.0
  0
VERTEX
  5
1732
  8
0
 10
46.6025276941583115
 20
77.2683489201314586
 30
0.0
  0
VERTEX
  5
1733
  8
0
 10
46.6050748320755517
 20
77.3017201576390534
 30
0.0
  0
VERTEX
  5
1734
  8
0
 10
46.6076805633111917
 20
77.3344692717611508
 30
0.0
  0
VERTEX
  5
1735
  8
0
 10
46.6103412678535776
 20
77.3665566435915366
 30
0.0
  0
VERTEX
  5
1736
  8
0
 10
46.6130533256911121
 20
77.3979426542239821
 30
0.0
  0
VERTEX
  5
1737
  8
0
 10
46.6158131168121699
 20
77.4285876847522871
 30
0.0
  0
VERTEX
  5
1738
  8
0
 10
46.6186185225664573
 20
77.4584685747234687
 30
0.0
  0
VERTEX
  5
1739
  8
0
 10
46.6214754460249594
 20
77.4876546277282756
 30
0.0
  0
VERTEX
  5
173A
  8
0
 10
46.6243830844298301
 20
77.5161486778569184
 30
0.0
  0
VERTEX
  5
173B
  8
0
 10
46.6273391908746575
 20
77.543938230943894
 30
0.0
  0
VERTEX
  5
173C
  8
0
 10
46.6303415184530081
 20
77.5710107928236994
 30
0.0
  0
VERTEX
  5
173D
  8
0
 10
46.6333878202583776
 20
77.5973538693308456
 30
0.0
  0
VERTEX
  5
173E
  8
0
 10
46.6364758493843965
 20
77.6229549662998295
 30
0.0
  0
VERTEX
  5
173F
  8
0
 10
46.6396033589245391
 20
77.6478015895651623
 30
0.0
  0
VERTEX
  5
1740
  8
0
 10
46.6427681019724787
 20
77.6718812449613267
 30
0.0
  0
VERTEX
  5
1741
  8
0
 10
46.6459678316216682
 20
77.6951814383228481
 30
0.0
  0
VERTEX
  5
1742
  8
0
 10
46.649200300965731
 20
77.717689675484209
 30
0.0
  0
VERTEX
  5
1743
  8
0
 10
46.652463263098177
 20
77.739393462279935
 30
0.0
  0
VERTEX
  5
1744
  8
0
 10
46.6557544711126013
 20
77.7602803045444944
 30
0.0
  0
VERTEX
  5
1745
  8
0
 10
46.6590716781025208
 20
77.7803377081124268
 30
0.0
  0
VERTEX
  5
1746
  8
0
 10
46.6624126371615588
 20
77.7995531788182149
 30
0.0
  0
VERTEX
  5
1747
  8
0
 10
46.6657751013832183
 20
77.8179142224963556
 30
0.0
  0
VERTEX
  5
1748
  8
0
 10
46.6691568238610728
 20
77.8354083449813743
 30
0.0
  0
VERTEX
  5
1749
  8
0
 10
46.6725555576886677
 20
77.8520230521077252
 30
0.0
  0
VERTEX
  5
174A
  8
0
 10
46.6759709751108289
 20
77.8677584077092746
 30
0.0
  0
VERTEX
  5
174B
  8
0
 10
46.6794057443812207
 20
77.8826363325181603
 30
0.0
  0
VERTEX
  5
174C
  8
0
 10
46.6828582659274218
 20
77.8966529352283317
 30
0.0
  0
VERTEX
  5
174D
  8
0
 10
46.6863267315073927
 20
77.9098030050691364
 30
0.0
  0
VERTEX
  5
174E
  8
0
 10
46.6898093328790367
 20
77.9220813312699505
 30
0.0
  0
VERTEX
  5
174F
  8
0
 10
46.6933042618003284
 20
77.933482703060136
 30
0.0
  0
VERTEX
  5
1750
  8
0
 10
46.6968097100292425
 20
77.9440019096690264
 30
0.0
  0
VERTEX
  5
1751
  8
0
 10
46.7003238693236824
 20
77.953633740326012
 30
0.0
  0
VERTEX
  5
1752
  8
0
 10
46.7038449314415729
 20
77.9623729842604405
 30
0.0
  0
VERTEX
  5
1753
  8
0
 10
46.7073710881409383
 20
77.9702144307016738
 30
0.0
  0
VERTEX
  5
1754
  8
0
 10
46.7109005311797034
 20
77.977152868879088
 30
0.0
  0
VERTEX
  5
1755
  8
0
 10
46.7144314523157718
 20
77.9831830880220309
 30
0.0
  0
VERTEX
  5
1756
  8
0
 10
46.7179620433071179
 20
77.9882998773598501
 30
0.0
  0
VERTEX
  5
1757
  8
0
 10
46.7214904959116879
 20
77.9924980261219361
 30
0.0
  0
VERTEX
  5
1758
  8
0
 10
46.7250150018874422
 20
77.9957723235376221
 30
0.0
  0
VERTEX
  5
1759
  8
0
 10
46.7285337529922771
 20
77.9981175588362845
 30
0.0
  0
VERTEX
  5
175A
  8
0
 10
46.7320449409842169
 20
77.9995285212472851
 30
0.0
  0
VERTEX
  5
175B
  8
0
 10
46.7355467576211581
 20
77.9999999999999858
 30
0.0
  0
SEQEND
  5
175C
  8
0
  0
POLYLINE
  5
15E3
  8
0
 66
     1
 10
0.0
 20
0.0
 30
0.0
  0
VERTEX
  5
175D
  8
0
 10
53.4393537975539914
 20
76.0697989934050014
 30
0.0
  0
VERTEX
  5
175E
  8
0
 10
53.4391647845585567
 20
76.1136463702776211
 30
0.0
  0
VERTEX
  5
175F
  8
0
 10
53.4388867547445372
 20
76.1572953900419094
 30
0.0
  0
VERTEX
  5
1760
  8
0
 10
53.4385202429724586
 20
76.2007470055719551
 30
0.0
  0
VERTEX
  5
1761
  8
0
 10
53.4380657841027684
 20
76.2440021697418189
 30
0.0
  0
VERTEX
  5
1762
  8
0
 10
53.4375239129959994
 20
76.2870618354255612
 30
0.0
  0
VERTEX
  5
1763
  8
0
 10
53.4368951645125989
 20
76.329926955497271
 30
0.0
  0
VERTEX
  5
1764
  8
0
 10
53.4361800735130927
 20
76.3725984828309947
 30
0.0
  0
VERTEX
  5
1765
  8
0
 10
53.4353791748580065
 20
76.4150773703008639
 30
0.0
  0
VERTEX
  5
1766
  8
0
 10
53.4344929691262323
 20
76.457365302942236
 30
0.0
  0
VERTEX
  5
1767
  8
0
 10
53.4335194954755934
 20
76.4995114532103884
 30
0.0
  0
VERTEX
  5
1768
  8
0
 10
53.4324583462065377
 20
76.5415158867164962
 30
0.0
  0
VERTEX
  5
1769
  8
0
 10
53.431310901249077
 20
76.5833374158654721
 30
0.0
  0
VERTEX
  5
176A
  8
0
 10
53.4300785405331098
 20
76.6249348530622285
 30
0.0
  0
VERTEX
  5
176B
  8
0
 10
53.4287626439886694
 20
76.6662670107116782
 30
0.0
  0
VERTEX
  5
176C
  8
0
 10
53.4273645915456825
 20
76.7072927012187193
 30
0.0
  0
VERTEX
  5
176D
  8
0
 10
53.4258857631341186
 20
76.7479707369882647
 30
0.0
  0
VERTEX
  5
176E
  8
0
 10
53.4243275386839684
 20
76.7882599304252125
 30
0.0
  0
VERTEX
  5
176F
  8
0
 10
53.422691414467721
 20
76.828118212610363
 30
0.0
  0
VERTEX
  5
1770
  8
0
 10
53.4209810965112695
 20
76.8674959611731765
 30
0.0
  0
VERTEX
  5
1771
  8
0
 10
53.4191981994592311
 20
76.9063821777576493
 30
0.0
  0
VERTEX
  5
1772
  8
0
 10
53.417343206835632
 20
76.9447777394927641
 30
0.0
  0
VERTEX
  5
1773
  8
0
 10
53.4154166021644699
 20
76.9826835235074896
 30
0.0
  0
VERTEX
  5
1774
  8
0
 10
53.4134188689697567
 20
77.0201004069307942
 30
0.0
  0
VERTEX
  5
1775
  8
0
 10
53.4113504907754972
 20
77.057029266891675
 30
0.0
  0
VERTEX
  5
1776
  8
0
 10
53.4092119511057319
 20
77.0934709805190863
 30
0.0
  0
VERTEX
  5
1777
  8
0
 10
53.4070037334844301
 20
77.1294264249420252
 30
0.0
  0
VERTEX
  5
1778
  8
0
 10
53.4047259595664627
 20
77.1648986563578205
 30
0.0
  0
VERTEX
  5
1779
  8
0
 10
53.4023763216740974
 20
77.1998985505846349
 30
0.0
  0
VERTEX
  5
177A
  8
0
 10
53.3999572304284982
 20
77.2343951781445952
 30
0.0
  0
VERTEX
  5
177B
  8
0
 10
53.3974723058412906
 20
77.268348920131487
 30
0.0
  0
VERTEX
  5
177C
  8
0
 10
53.3949251679240433
 20
77.3017201576390818
 30
0.0
  0
VERTEX
  5
177D
  8
0
 10
53.3923194366884104
 20
77.334469271761165
 30
0.0
  0
VERTEX
  5
177E
  8
0
 10
53.3896587321460103
 20
77.366556643591565
 30
0.0
  0
VERTEX
  5
177F
  8
0
 10
53.3869466743084899
 20
77.3979426542240105
 30
0.0
  0
VERTEX
  5
1780
  8
0
 10
53.3841868831874535
 20
77.4285876847523298
 30
0.0
  0
VERTEX
  5
1781
  8
0
 10
53.381381477433159
 20
77.4584685747234971
 30
0.0
  0
VERTEX
  5
1782
  8
0
 10
53.3785245539746711
 20
77.487654627728304
 30
0.0
  0
VERTEX
  5
1783
  8
0
 10
53.3756169155697933
 20
77.5161486778569468
 30
0.0
  0
VERTEX
  5
1784
  8
0
 10
53.3726608091249375
 20
77.5439382309439225
 30
0.0
  0
VERTEX
  5
1785
  8
0
 10
53.3696584815466224
 20
77.5710107928237278
 30
0.0
  0
VERTEX
  5
1786
  8
0
 10
53.3666121797412174
 20
77.597353869330874
 30
0.0
  0
VERTEX
  5
1787
  8
0
 10
53.3635241506151985
 20
77.6229549662998437
 30
0.0
  0
VERTEX
  5
1788
  8
0
 10
53.3603966410750203
 20
77.6478015895651765
 30
0.0
  0
VERTEX
  5
1789
  8
0
 10
53.3572318980271234
 20
77.6718812449613552
 30
0.0
  0
VERTEX
  5
178A
  8
0
 10
53.3540321683779268
 20
77.6951814383228623
 30
0.0
  0
VERTEX
  5
178B
  8
0
 10
53.3507996990338711
 20
77.7176896754842375
 30
0.0
  0
VERTEX
  5
178C
  8
0
 10
53.3475367369014108
 20
77.7393934622799492
 30
0.0
  0
VERTEX
  5
178D
  8
0
 10
53.3442455288869724
 20
77.7602803045445228
 30
0.0
  0
VERTEX
  5
178E
  8
0
 10
53.3409283218970174
 20
77.780337708112441
 30
0.0
  0
VERTEX
  5
178F
  8
0
 10
53.3375873628380077
 20
77.7995531788182291
 30
0.0
  0
VERTEX
  5
1790
  8
0
 10
53.3342248986163625
 20
77.817914222496384
 30
0.0
  0
VERTEX
  5
1791
  8
0
 10
53.3308431761385009
 20
77.8354083449813885
 30
0.0
  0
VERTEX
  5
1792
  8
0
 10
53.3274444423108989
 20
77.8520230521077679
 30
0.0
  0
VERTEX
  5
1793
  8
0
 10
53.3240290248887376
 20
77.8677584077092746
 30
0.0
  0
VERTEX
  5
1794
  8
0
 10
53.3205942556183388
 20
77.8826363325181745
 30
0.0
  0
VERTEX
  5
1795
  8
0
 10
53.3171417340721518
 20
77.8966529352283459
 30
0.0
  0
VERTEX
  5
1796
  8
0
 10
53.313673268492181
 20
77.9098030050691648
 30
0.0
  0
VERTEX
  5
1797
  8
0
 10
53.310190667120537
 20
77.9220813312699647
 30
0.0
  0
VERTEX
  5
1798
  8
0
 10
53.3066957381992381
 20
77.9334827030601502
 30
0.0
  0
VERTEX
  5
1799
  8
0
 10
53.3031902899703312
 20
77.9440019096690406
 30
0.0
  0
VERTEX
  5
179A
  8
0
 10
53.2996761306759197
 20
77.9536337403260262
 30
0.0
  0
VERTEX
  5
179B
  8
0
 10
53.2961550685579866
 20
77.9623729842604547
 30
0.0
  0
VERTEX
  5
179C
  8
0
 10
53.2926289118586212
 20
77.9702144307017022
 30
0.0
  0
VERTEX
  5
179D
  8
0
 10
53.2890994688198703
 20
77.9771528688791022
 30
0.0
  0
VERTEX
  5
179E
  8
0
 10
53.2855685476837877
 20
77.9831830880220451
 30
0.0
  0
VERTEX
  5
179F
  8
0
 10
53.2820379566924487
 20
77.9882998773598644
 30
0.0
  0
VERTEX
  5
17A0
  8
0
 10
53.2785095040878716
 20
77.9924980261219503
 30
0.0
  0
VERTEX
  5
17A1
  8
0
 10
53.2749849981121315
 20
77.9957723235376363
 30
0.0
  0
VERTEX
  5
17A2
  8
0
 10
53.2714662470072824
 20
77.9981175588362987
 30
0.0
  0
VERTEX
  5
17A3
  8
0
 10
53.2679550590153497
 20
77.9995285212472993
 30
0.0
  0
VERTEX
  5
17A4
  8
0
 10
53.2644532423784085
 20
78.0
 30
0.0
  0
SEQEND
  5
17A5
  8
0
  0
ENDSEC
  0
EOF
