  0
SECTION
  2
HEADER
  9
$ACADVER
  1
AC1009
  9
$INSBASE
 10
0.0
 20
0.0
 30
0.0
  9
$EXTMIN
 10
0.0
 20
-2.960436562073669
 30
0.0
  9
$EXTMAX
 10
129.6384720327421007
 20
127.0
 30
0.0
  9
$LIMMIN
 10
0.0
 20
0.0
  9
$LIMMAX
 10
187.5
 20
135.0
  9
$ORTHOMODE
 70
     1
  9
$REGENMODE
 70
     1
  9
$FILLMODE
 70
     1
  9
$QTEXTMODE
 70
     0
  9
$MIRRTEXT
 70
     0
  9
$DRAGMODE
 70
     2
  9
$LTSCALE
 40
5.0
  9
$OSMODE
 70
    37
  9
$ATTMODE
 70
     1
  9
$TEXTSIZE
 40
4.000000000000048
  9
$TRACEWID
 40
0.05
  9
$TEXTSTYLE
  7
STANDARD
  9
$CLAYER
  8
0
  9
$CELTYPE
  6
BYLAYER
  9
$CECOLOR
 62
   256
  9
$DIMSCALE
 40
0.5
  9
$DIMASZ
 40
3.0
  9
$DIMEXO
 40
2.0
  9
$DIMDLI
 40
0.38
  9
$DIMRND
 40
0.0
  9
$DIMDLE
 40
0.0
  9
$DIMEXE
 40
2.0
  9
$DIMTP
 40
0.0
  9
$DIMTM
 40
0.0
  9
$DIMTXT
 40
3.2000000000000002
  9
$DIMCEN
 40
0.0
  9
$DIMTSZ
 40
0.0
  9
$DIMTOL
 70
     0
  9
$DIMLIM
 70
     0
  9
$DIMTIH
 70
     0
  9
$DIMTOH
 70
     0
  9
$DIMSE1
 70
     0
  9
$DIMSE2
 70
     0
  9
$DIMTAD
 70
     1
  9
$DIMZIN
 70
     0
  9
$DIMBLK
  1

  9
$DIMASO
 70
     1
  9
$DIMSHO
 70
     0
  9
$DIMPOST
  1

  9
$DIMAPOST
  1

  9
$DIMALT
 70
     0
  9
$DIMALTD
 70
     2
  9
$DIMALTF
 40
25.3999999999999986
  9
$DIMLFAC
 40
1.0
  9
$DIMTOFL
 70
     1
  9
$DIMTVP
 40
1.6000000000000001
  9
$DIMTIX
 70
     1
  9
$DIMSOXD
 70
     0
  9
$DIMSAH
 70
     0
  9
$DIMBLK1
  1

  9
$DIMBLK2
  1

  9
$DIMSTYLE
  2
STANDARD
  9
$DIMCLRD
 70
     0
  9
$DIMCLRE
 70
     0
  9
$DIMCLRT
 70
     0
  9
$DIMTFAC
 40
1.0
  9
$DIMGAP
 40
0.09
  9
$LUNITS
 70
     2
  9
$LUPREC
 70
     4
  9
$SKETCHINC
 40
0.1
  9
$FILLETRAD
 40
1.0
  9
$AUNITS
 70
     1
  9
$AUPREC
 70
     4
  9
$MENU
  1
E:\r13\win\SUPPORT\ACAD
  9
$ELEVATION
 40
0.0
  9
$PELEVATION
 40
0.0
  9
$THICKNESS
 40
0.0
  9
$LIMCHECK
 70
     0
  9
$BLIPMODE
 70
     0
  9
$CHAMFERA
 40
2.0
  9
$CHAMFERB
 40
2.0
  9
$SKPOLY
 70
     0
  9
$TDCREATE
 40
2449839.7904861117713153
  9
$TDUPDATE
 40
2460580.5713657410815358
  9
$TDINDWG
 40
0.2352971528
  9
$TDUSRTIMER
 40
0.2352971528
  9
$USRTIMER
 70
     1
  9
$ANGBASE
 50
0.0
  9
$ANGDIR
 70
     0
  9
$PDMODE
 70
     0
  9
$PDSIZE
 40
0.0
  9
$PLINEWID
 40
0.0
  9
$COORDS
 70
     1
  9
$SPLFRAME
 70
     0
  9
$SPLINETYPE
 70
     6
  9
$SPLINESEGS
 70
     8
  9
$ATTDIA
 70
     1
  9
$ATTREQ
 70
     1
  9
$HANDLING
 70
     1
  9
$HANDSEED
  5
198B
  9
$SURFTAB1
 70
     6
  9
$SURFTAB2
 70
     6
  9
$SURFTYPE
 70
     6
  9
$SURFU
 70
     6
  9
$SURFV
 70
     6
  9
$UCSNAME
  2

  9
$UCSORG
 10
0.0
 20
0.0
 30
0.0
  9
$UCSXDIR
 10
1.0
 20
0.0
 30
0.0
  9
$UCSYDIR
 10
0.0
 20
1.0
 30
0.0
  9
$PUCSNAME
  2

  9
$PUCSORG
 10
0.0
 20
0.0
 30
0.0
  9
$PUCSXDIR
 10
1.0
 20
0.0
 30
0.0
  9
$PUCSYDIR
 10
0.0
 20
1.0
 30
0.0
  9
$USERI1
 70
     0
  9
$USERI2
 70
     1
  9
$USERI3
 70
     1
  9
$USERI4
 70
     0
  9
$USERI5
 70
     0
  9
$USERR1
 40
0.0
  9
$USERR2
 40
0.0
  9
$USERR3
 40
0.0
  9
$USERR4
 40
0.0
  9
$USERR5
 40
0.0
  9
$WORLDVIEW
 70
     1
  9
$SHADEDGE
 70
     3
  9
$SHADEDIF
 70
    70
  9
$TILEMODE
 70
     1
  9
$MAXACTVP
 70
    16
  9
$PLIMCHECK
 70
     0
  9
$PEXTMIN
 10
1.0000000000000000E+20
 20
1.0000000000000000E+20
 30
1.0000000000000000E+20
  9
$PEXTMAX
 10
-1.0000000000000000E+20
 20
-1.0000000000000000E+20
 30
-1.0000000000000000E+20
  9
$PLIMMIN
 10
0.0
 20
0.0
  9
$PLIMMAX
 10
12.0
 20
9.0
  9
$UNITMODE
 70
     0
  9
$VISRETAIN
 70
     0
  9
$PLINEGEN
 70
     0
  9
$PSLTSCALE
 70
     0
  0
ENDSEC
  0
SECTION
  2
TABLES
  0
TABLE
  2
VPORT
 70
     1
  0
VPORT
  2
*ACTIVE
 70
     0
 10
0.0
 20
0.0
 11
1.0
 21
1.0
 12
164.3965517241379075
 22
70.0
 13
0.0
 23
0.0
 14
5.0
 24
5.0
 15
5.0
 25
5.0
 16
0.0
 26
0.0
 36
1.0
 17
0.0
 27
0.0
 37
0.0
 40
140.0
 41
2.3485221674876842
 42
50.0
 43
0.0
 44
0.0
 50
0.0
 51
0.0
 71
     0
 72
   500
 73
     1
 74
     0
 75
     0
 76
     0
 77
     0
 78
     2
  0
ENDTAB
  0
TABLE
  2
LTYPE
 70
     2
  0
LTYPE
  2
CONTINUOUS
 70
     0
  3
Solid Line
 72
    65
 73
     0
 40
0.0
  0
LTYPE
  2
CENTER
 70
     0
  3
____ _ ____ _ ____ _ ____ _ ____ _ ____ _ ____
 72
    65
 73
     4
 40
2.0
 49
1.25
 49
-0.25
 49
0.25
 49
-0.25
  0
ENDTAB
  0
TABLE
  2
LAYER
 70
     4
  0
LAYER
  2
0
 70
     0
 62
     7
  6
CONTINUOUS
  0
LAYER
  2
1
 70
     0
 62
     1
  6
CENTER
  0
LAYER
  2
DEFPOINTS
 70
     0
 62
     7
  6
CONTINUOUS
  0
LAYER
  2
3
 70
     0
 62
     3
  6
CONTINUOUS
  0
ENDTAB
  0
TABLE
  2
STYLE
 70
     2
  0
STYLE
  2
STANDARD
 70
     0
 40
0.0
 41
1.0
 50
0.0
 71
     0
 42
4.000000000000048
  3
TXT
  4
BIGFONT
  0
STYLE
  2
STANDARD1
 70
     0
 40
0.0
 41
1.0
 50
0.0
 71
     0
 42
3.0
  3
txt
  4

  0
ENDTAB
  0
TABLE
  2
VIEW
 70
     1
  0
VIEW
  2
ALL
 70
     0
 40
135.0
 10
110.4957983193277045
 20
67.5
 41
0.0
 11
0.0
 21
0.0
 31
1.0
 12
0.0
 22
0.0
 32
0.0
 42
0.0
 43
0.0
 44
0.0
 50
0.0
 71
     0
  0
ENDTAB
  0
TABLE
  2
UCS
 70
     0
  0
ENDTAB
  0
TABLE
  2
APPID
 70
     5
  0
APPID
  2
ACAD
 70
     0
  0
APPID
  2
ACAD_MLEADERVER
 70
     0
  0
APPID
  2
ACAD_NAV_VCDISPLAY
 70
     0
  0
APPID
  2
ACAD_EXEMPT_FROM_CAD_STANDARDS
 70
     0
  0
APPID
  2
ACAD_TC
 70
     0
  0
ENDTAB
  0
TABLE
  2
DIMSTYLE
 70
     1
  0
DIMSTYLE
  2
STANDARD
 70
     0
  3

  4

  5

  6

  7

 40
1.0
 41
0.18
 42
0.0625
 43
0.38
 44
0.18
 45
0.0
 46
0.0
 47
0.0
 48
0.0
140
0.18
141
0.09
142
0.0
143
25.3999999999999986
144
1.0
145
0.0
146
1.0
147
0.09
 71
     0
 72
     0
 73
     1
 74
     1
 75
     0
 76
     0
 77
     0
 78
     0
170
     0
171
     2
172
     0
173
     0
174
     0
175
     0
176
     0
177
     0
178
     0
  0
ENDTAB
  0
ENDSEC
  0
SECTION
  2
BLOCKS
  0
BLOCK
  8
0
  2
$MODEL_SPACE
 70
     0
 10
0.0
 20
0.0
 30
0.0
  3
$MODEL_SPACE
  1

  0
ENDBLK
  5
13F
  8
0
  0
BLOCK
 67
     1
  8
0
  2
$PAPER_SPACE
 70
     0
 10
0.0
 20
0.0
 30
0.0
  3
$PAPER_SPACE
  1

  0
ENDBLK
  5
13D
 67
     1
  8
0
  0
ENDSEC
  0
SECTION
  2
ENTITIES
  0
TEXT
  5
13E7
  8
0
 62
     3
 10
0.0
 20
0.0
 30
0.0
 40
10.0
  1
FWN30-M6X16-SUS
  7
STANDARD1
  0
LINE
  5
175F
  8
0
 10
47.0
 20
50.0
 30
0.0
 11
47.0000000000000497
 21
34.6134999999999877
 31
0.0
  0
LINE
  5
1760
  8
0
 10
53.0000000000000568
 20
34.6135000000000517
 30
0.0
 11
53.0
 21
50.0
 31
0.0
  0
LINE
  5
1761
  8
0
 10
47.0000000000000497
 20
34.6134999999999877
 30
0.0
 11
47.613500000000073
 21
34.0
 31
0.0
  0
LINE
  5
1762
  8
0
 10
52.386500000000062
 20
34.0
 30
0.0
 11
53.0000000000000568
 21
34.6135000000000517
 31
0.0
  0
LINE
  5
1763
  8
0
 10
46.0
 20
50.0
 30
0.0
 11
54.0
 21
50.0
 31
0.0
  0
LINE
  5
1764
  8
0
 10
47.0000000000000497
 20
34.6134999999999877
 30
0.0
 11
53.0000000000000568
 21
34.6135000000000517
 31
0.0
  0
LINE
  5
1765
  8
0
 10
47.613500000000073
 20
34.0
 30
0.0
 11
52.386500000000062
 21
34.0
 31
0.0
  0
LINE
  5
1766
  8
0
 10
96.9999999999999858
 20
50.0
 30
0.0
 11
96.9999999999999858
 21
34.6134999999999877
 31
0.0
  0
LINE
  5
1767
  8
0
 10
103.0
 20
34.6134999999999877
 30
0.0
 11
103.0
 21
50.0
 31
0.0
  0
LINE
  5
1768
  8
0
 10
96.9999999999999858
 20
34.6134999999999877
 30
0.0
 11
97.6135000000000019
 21
34.0
 31
0.0
  0
LINE
  5
1769
  8
0
 10
102.3864999999999981
 20
34.0
 30
0.0
 11
103.0
 21
34.6134999999999877
 31
0.0
  0
LINE
  5
176A
  8
0
 10
95.9999999999999858
 20
50.0
 30
0.0
 11
104.0
 21
50.0
 31
0.0
  0
LINE
  5
176B
  8
0
 10
96.9999999999999858
 20
34.6134999999999877
 30
0.0
 11
103.0
 21
34.6135000000001014
 31
0.0
  0
LINE
  5
176C
  8
0
 10
97.6135000000000019
 20
34.0
 30
0.0
 11
102.3864999999999981
 21
34.0
 31
0.0
  0
LINE
  5
176D
  8
0
 10
64.9999999999999432
 20
58.0000000000000568
 30
0.0
 11
64.877777306778853
 21
61.5000000000000497
 31
0.0
  0
LINE
  5
176E
  8
0
 10
35.122222693221083
 20
61.4999999999999503
 30
0.0
 11
34.9999999999999929
 21
57.9999999999999432
 31
0.0
  0
ARC
  5
176F
  8
0
 10
40.4443372205561431
 20
56.0
 30
0.0
 40
2.0000000000000049
 50
357.9999999999996021
 51
90.00000000000081
  0
ARC
  5
1770
  8
0
 10
59.5556627794438214
 20
56.0000000000000497
 30
0.0
 40
2.0000000000000062
 50
90.0
 51
182.0000000000003126
  0
LINE
  5
1771
  8
0
 10
57.75
 20
50.400000000000027
 30
0.0
 11
57.5568811254056527
 21
55.9302010065950412
 31
0.0
  0
LINE
  5
1772
  8
0
 10
42.4431188745943331
 20
55.9302010065949773
 30
0.0
 11
42.2499999999999787
 21
50.3999999999999773
 31
0.0
  0
LINE
  5
1773
  8
0
 10
46.0
 20
50.400000000000027
 30
0.0
 11
46.0
 21
50.0
 31
0.0
  0
LINE
  5
1774
  8
0
 10
54.0
 20
50.0000000000000568
 30
0.0
 11
54.0
 21
50.400000000000027
 31
0.0
  0
LINE
  5
1775
  8
0
 10
34.9999999999999929
 20
57.9999999999999432
 30
0.0
 11
64.9999999999999432
 21
58.0000000000000568
 31
0.0
  0
LINE
  5
1776
  8
0
 10
53.4393537975540198
 20
76.0697989934050156
 30
0.0
 11
53.4880497324764406
 21
61.5000000000000497
 31
0.0
  0
LINE
  5
1777
  8
0
 10
53.4880497324764406
 20
61.5000000000000497
 30
0.0
 11
64.877777306778853
 21
61.5000000000000497
 31
0.0
  0
LINE
  5
1778
  8
0
 10
46.5119502675232113
 20
61.5
 30
0.0
 11
35.122222693221083
 21
61.4999999999999503
 31
0.0
  0
LINE
  5
1779
  8
0
 10
46.560646202445632
 20
76.0697989934050156
 30
0.0
 11
46.5119502675232113
 21
61.5
 31
0.0
  0
LINE
  5
177C
  8
0
 10
46.7355467576211865
 20
78.0
 30
0.0
 11
53.2644532423784085
 21
78.0000000000000568
 31
0.0
  0
LINE
  5
177D
  8
0
 10
42.2499999999999787
 20
50.3999999999999773
 30
0.0
 11
57.75
 21
50.400000000000027
 31
0.0
  0
LINE
  5
177E
  8
1
 10
50.0
 20
32.0
 30
0.0
 11
50.0
 21
80.0
 31
0.0
  0
LINE
  5
177F
  8
0
 10
115.0
 20
58.0
 30
0.0
 11
114.3689887145890935
 21
76.0697989934050156
 31
0.0
  0
LINE
  5
1780
  8
0
 10
85.6310112854109349
 20
76.0697989934050156
 30
0.0
 11
85.0000000000000142
 21
58.0
 31
0.0
  0
ARC
  5
1781
  8
0
 10
90.444337220556136
 20
56.0
 30
0.0
 40
2.0000000000000049
 50
357.9999999999996021
 51
90.0
  0
ARC
  5
1782
  8
0
 10
109.5556627794439066
 20
56.0
 30
0.0
 40
2.0000000000000329
 50
90.0
 51
182.0000000000003126
  0
LINE
  5
1783
  8
0
 10
107.75
 20
50.400000000000027
 30
0.0
 11
107.5568811254055959
 21
55.9302010065950412
 31
0.0
  0
LINE
  5
1784
  8
0
 10
92.4431188745943047
 20
55.9302010065950412
 30
0.0
 11
92.2500000000000142
 21
50.400000000000027
 31
0.0
  0
LINE
  5
1785
  8
0
 10
96.0000000000000142
 20
50.400000000000027
 30
0.0
 11
96.0000000000000142
 21
50.0
 31
0.0
  0
LINE
  5
1786
  8
0
 10
104.0
 20
50.0
 30
0.0
 11
104.0
 21
50.400000000000027
 31
0.0
  0
ARC
  5
1787
  8
0
 10
112.370207060550797
 20
76.0
 30
0.0
 40
2.000000000000004
 50
1.9999999999971281
 51
90.0000000000016058
  0
ARC
  5
1788
  8
0
 10
87.6297929394491035
 20
76.0
 30
0.0
 40
2.000000000000004
 50
89.9999999999975557
 51
177.9999999999996021
  0
LINE
  5
1789
  8
0
 10
85.0000000000000142
 20
58.0
 30
0.0
 11
115.0
 21
58.0
 31
0.0
  0
LINE
  5
178A
  8
0
 10
86.0487032095493447
 20
76.0697989934050156
 30
0.0
 11
85.5368825402724866
 21
61.5000000000000497
 31
0.0
  0
LINE
  5
178B
  8
0
 10
85.5368825402724866
 20
61.5000000000000497
 30
0.0
 11
114.4631174597274992
 21
61.5000000000000497
 31
0.0
  0
LINE
  5
178C
  8
0
 10
113.9512967904506979
 20
76.0697989934050156
 30
0.0
 11
114.4631174597274992
 21
61.5000000000000497
 31
0.0
  0
LINE
  5
178D
  8
0
 10
92.2500000000000142
 20
50.400000000000027
 30
0.0
 11
107.75
 21
50.400000000000027
 31
0.0
  0
LINE
  5
1791
  8
0
 10
87.6297929394495583
 20
78.0
 30
0.0
 11
88.068304070702041
 21
78.0000000000000568
 31
0.0
  0
LINE
  5
1792
  8
0
 10
111.9316959292980016
 20
78.0000000000000568
 30
0.0
 11
112.3702070605509959
 21
78.0
 31
0.0
  0
LINE
  5
1793
  8
1
 10
100.0
 20
32.0
 30
0.0
 11
99.9999999999999574
 21
80.0
 31
0.0
  0
CIRCLE
  5
1794
  8
0
 10
50.0
 20
110.0
 30
0.0
 40
14.9999999999999698
  0
ARC
  5
1795
  8
0
 10
50.0
 20
110.0
 30
0.0
 40
14.8777773067788797
 50
283.5590254934301129
 51
76.440974506570754
  0
ARC
  5
1796
  8
0
 10
50.0
 20
110.0
 30
0.0
 40
14.8777773067788903
 50
103.5590254934308945
 51
256.4409745065698871
  0
ARC
  5
1797
  8
0
 10
202.7891489693766971
 20
110.0000000000005969
 30
0.0
 40
150.0000000000021032
 50
174.4668998720580078
 51
185.533100127941907
  0
ARC
  5
1798
  8
0
 10
-102.7891489693698048
 20
110.0000000000005969
 30
0.0
 40
149.9999999999949125
 50
354.466899872058093
 51
5.533100127941962
  0
LINE
  5
1799
  8
1
 10
66.9999999999999716
 20
110.0
 30
0.0
 11
33.0000000000000284
 21
110.0
 31
0.0
  0
LINE
  5
179A
  8
1
 10
50.0
 20
93.0000000000000142
 30
0.0
 11
50.0
 21
127.0
 31
0.0
  0
LINE
  5
179B
  8
3
 10
47.6135000000000375
 20
34.0
 30
0.0
 11
47.6135000000000375
 21
49.0
 31
0.0
  0
LINE
  5
179C
  8
3
 10
47.0000000000000497
 20
50.0
 30
0.0
 11
47.6135000000000375
 21
49.0
 31
0.0
  0
LINE
  5
179D
  8
3
 10
47.0000000000000497
 20
49.0
 30
0.0
 11
53.0000000000000568
 21
49.0
 31
0.0
  0
LINE
  5
179E
  8
3
 10
52.386500000000062
 20
34.0
 30
0.0
 11
52.386500000000062
 21
49.0
 31
0.0
  0
LINE
  5
179F
  8
3
 10
53.0000000000000568
 20
50.0
 30
0.0
 11
52.386500000000062
 21
49.0
 31
0.0
  0
LINE
  5
17A0
  8
3
 10
97.6135000000000019
 20
34.0
 30
0.0
 11
97.6135000000000019
 21
49.0
 31
0.0
  0
LINE
  5
17A1
  8
3
 10
97.0000000000000142
 20
50.0
 30
0.0
 11
97.6135000000000019
 21
49.0
 31
0.0
  0
LINE
  5
17A2
  8
3
 10
97.0000000000000142
 20
49.0
 30
0.0
 11
103.0
 21
49.0
 31
0.0
  0
LINE
  5
17A3
  8
3
 10
102.3864999999999981
 20
34.0
 30
0.0
 11
102.3864999999999981
 21
49.0
 31
0.0
  0
LINE
  5
17A4
  8
3
 10
103.0
 20
50.0
 30
0.0
 11
102.3864999999999981
 21
49.0
 31
0.0
  0
POLYLINE
  5
17C1
  8
0
 66
     1
 10
0.0
 20
0.0
 30
0.0
  0
VERTEX
  5
1839
  8
0
 10
111.9316959292979021
 20
78.0000000000000568
 30
0.0
  0
VERTEX
  5
183A
  8
0
 10
111.9691306503003005
 20
77.9996621133107624
 30
0.0
  0
VERTEX
  5
183B
  8
0
 10
112.0064507985457993
 20
77.9986499794856201
 30
0.0
  0
VERTEX
  5
183C
  8
0
 10
112.043656767241302
 20
77.9969658878887486
 30
0.0
  0
VERTEX
  5
183D
  8
0
 10
112.0807489495940956
 20
77.9946121278842668
 30
0.0
  0
VERTEX
  5
183E
  8
0
 10
112.117727738811098
 20
77.9915909888362933
 30
0.0
  0
VERTEX
  5
183F
  8
0
 10
112.1545935280994968
 20
77.9879047601089468
 30
0.0
  0
VERTEX
  5
1840
  8
0
 10
112.1913467106662949
 20
77.9835557310663461
 30
0.0
  0
VERTEX
  5
1841
  8
0
 10
112.2279876797186944
 20
77.9785461910726099
 30
0.0
  0
VERTEX
  5
1842
  8
0
 10
112.2645168284636981
 20
77.9728784294918569
 30
0.0
  0
VERTEX
  5
1843
  8
0
 10
112.3009345501083942
 20
77.9665547356882058
 30
0.0
  0
VERTEX
  5
1844
  8
0
 10
112.3372525197124929
 20
77.9595723262872724
 30
0.0
  0
VERTEX
  5
1845
  8
0
 10
112.373503892339599
 20
77.9519152026478821
 30
0.0
  0
VERTEX
  5
1846
  8
0
 10
112.4096716923902051
 20
77.943585570902755
 30
0.0
  0
VERTEX
  5
1847
  8
0
 10
112.4457343684716051
 20
77.9345875052013639
 30
0.0
  0
VERTEX
  5
1848
  8
0
 10
112.4816703691907946
 20
77.924925079693196
 30
0.0
  0
VERTEX
  5
1849
  8
0
 10
112.5174581431550962
 20
77.9146023685277385
 30
0.0
  0
VERTEX
  5
184A
  8
0
 10
112.5530761389717043
 20
77.9036234458544499
 30
0.0
  0
VERTEX
  5
184B
  8
0
 10
112.5885028052476002
 20
77.8919923858228316
 30
0.0
  0
VERTEX
  5
184C
  8
0
 10
112.6237165905901065
 20
77.8797132625823423
 30
0.0
  0
VERTEX
  5
184D
  8
0
 10
112.658695943606304
 20
77.8667901502824975
 30
0.0
  0
VERTEX
  5
184E
  8
0
 10
112.6934175252884955
 20
77.8532283245824601
 30
0.0
  0
VERTEX
  5
184F
  8
0
 10
112.727826173704301
 20
77.8390574124323962
 30
0.0
  0
VERTEX
  5
1850
  8
0
 10
112.7619041440404999
 20
77.8242892377311932
 30
0.0
  0
VERTEX
  5
1851
  8
0
 10
112.7956518381327982
 20
77.8089244938414737
 30
0.0
  0
VERTEX
  5
1852
  8
0
 10
112.829069657816504
 20
77.79296387412586
 30
0.0
  0
VERTEX
  5
1853
  8
0
 10
112.8621580049271955
 20
77.776408071947003
 30
0.0
  0
VERTEX
  5
1854
  8
0
 10
112.8949172813003941
 20
77.7592577806675251
 30
0.0
  0
VERTEX
  5
1855
  8
0
 10
112.9273478887718056
 20
77.7415136936500346
 30
0.0
  0
VERTEX
  5
1856
  8
0
 10
112.9594502291765963
 20
77.7231765042571823
 30
0.0
  0
VERTEX
  5
1857
  8
0
 10
112.9912247043505999
 20
77.7042469058515906
 30
0.0
  0
VERTEX
  5
1858
  8
0
 10
113.0226717161290964
 20
77.6847255917958819
 30
0.0
  0
VERTEX
  5
1859
  8
0
 10
113.0538081647719935
 20
77.6645930721509359
 30
0.0
  0
VERTEX
  5
185A
  8
0
 10
113.0846448755583964
 20
77.6438289568057627
 30
0.0
  0
VERTEX
  5
185B
  8
0
 10
113.1151556249262029
 20
77.6224523283444512
 30
0.0
  0
VERTEX
  5
185C
  8
0
 10
113.1453137822137052
 20
77.6004827303442681
 30
0.0
  0
VERTEX
  5
185D
  8
0
 10
113.1750927167590959
 20
77.5779397063824803
 30
0.0
  0
VERTEX
  5
185E
  8
0
 10
113.2044657979003972
 20
77.5548428000363828
 30
0.0
  0
VERTEX
  5
185F
  8
0
 10
113.2334063949760008
 20
77.5312115548832423
 30
0.0
  0
VERTEX
  5
1860
  8
0
 10
113.2618878773239999
 20
77.5070655145003258
 30
0.0
  0
VERTEX
  5
1861
  8
0
 10
113.2898836142826013
 20
77.482424222464914
 30
0.0
  0
VERTEX
  5
1862
  8
0
 10
113.3173669751900974
 20
77.4573072223542738
 30
0.0
  0
VERTEX
  5
1863
  8
0
 10
113.3443168156529026
 20
77.4317327301073135
 30
0.0
  0
VERTEX
  5
1864
  8
0
 10
113.3707492359477982
 20
77.4057048337849523
 30
0.0
  0
VERTEX
  5
1865
  8
0
 10
113.396668170188903
 20
77.3792226090169208
 30
0.0
  0
VERTEX
  5
1866
  8
0
 10
113.4220731565919067
 20
77.3522856268839973
 30
0.0
  0
VERTEX
  5
1867
  8
0
 10
113.4469637333723995
 20
77.324893458466974
 30
0.0
  0
VERTEX
  5
1868
  8
0
 10
113.4713394387461989
 20
77.297045674846629
 30
0.0
  0
VERTEX
  5
1869
  8
0
 10
113.4951998109288951
 20
77.2687418471037404
 30
0.0
  0
VERTEX
  5
186A
  8
0
 10
113.5185443881361067
 20
77.239981546319072
 30
0.0
  0
VERTEX
  5
186B
  8
0
 10
113.5413727085835944
 20
77.2107643435734303
 30
0.0
  0
VERTEX
  5
186C
  8
0
 10
113.5636843104871048
 20
77.1810898099475651
 30
0.0
  0
VERTEX
  5
186D
  8
0
 10
113.5854786474224056
 20
77.1509573532710817
 30
0.0
  0
VERTEX
  5
186E
  8
0
 10
113.606745500620093
 20
77.1203597505131739
 30
0.0
  0
VERTEX
  5
186F
  8
0
 10
113.6274672121483036
 20
77.0893131379619803
 30
0.0
  0
VERTEX
  5
1870
  8
0
 10
113.6476283627939949
 20
77.0578452442316006
 30
0.0
  0
VERTEX
  5
1871
  8
0
 10
113.6672135333438973
 20
77.025983797936135
 30
0.0
  0
VERTEX
  5
1872
  8
0
 10
113.6862073045848973
 20
76.9937565276896834
 30
0.0
  0
VERTEX
  5
1873
  8
0
 10
113.7045942573038957
 20
76.961191162106303
 30
0.0
  0
VERTEX
  5
1874
  8
0
 10
113.7223589722876937
 20
76.9283154298001506
 30
0.0
  0
VERTEX
  5
1875
  8
0
 10
113.739486030323107
 20
76.8951570593852836
 30
0.0
  0
VERTEX
  5
1876
  8
0
 10
113.7559600121970931
 20
76.8617437794758018
 30
0.0
  0
VERTEX
  5
1877
  8
0
 10
113.7717654986963964
 20
76.8281033186857911
 30
0.0
  0
VERTEX
  5
1878
  8
0
 10
113.7869047785602987
 20
76.7942291317683754
 30
0.0
  0
VERTEX
  5
1879
  8
0
 10
113.8014113347542065
 20
76.7600572543432236
 30
0.0
  0
VERTEX
  5
187A
  8
0
 10
113.8152826039192007
 20
76.7255962663625013
 30
0.0
  0
VERTEX
  5
187B
  8
0
 10
113.8285141697602967
 20
76.6908583945066198
 30
0.0
  0
VERTEX
  5
187C
  8
0
 10
113.8411016159821969
 20
76.6558558654560471
 30
0.0
  0
VERTEX
  5
187D
  8
0
 10
113.8530405262898029
 20
76.6206009058911945
 30
0.0
  0
VERTEX
  5
187E
  8
0
 10
113.8643264843878029
 20
76.5851057424925159
 30
0.0
  0
VERTEX
  5
187F
  8
0
 10
113.8749550739810985
 20
76.5493826019404509
 30
0.0
  0
VERTEX
  5
1880
  8
0
 10
113.8849218787745059
 20
76.5134437109154391
 30
0.0
  0
VERTEX
  5
1881
  8
0
 10
113.8942224824726992
 20
76.4773012960979059
 30
0.0
  0
VERTEX
  5
1882
  8
0
 10
113.9028524687806936
 20
76.4409675841683196
 30
0.0
  0
VERTEX
  5
1883
  8
0
 10
113.9108074214031063
 20
76.4044548018070913
 30
0.0
  0
VERTEX
  5
1884
  8
0
 10
113.9180829240447963
 20
76.3677751756946606
 30
0.0
  0
VERTEX
  5
1885
  8
0
 10
113.9246745604106934
 20
76.3309409325114814
 30
0.0
  0
VERTEX
  5
1886
  8
0
 10
113.9305779142055002
 20
76.2939642989379934
 30
0.0
  0
VERTEX
  5
1887
  8
0
 10
113.935788569133905
 20
76.256857501654622
 30
0.0
  0
VERTEX
  5
1888
  8
0
 10
113.940302108900994
 20
76.219632767341821
 30
0.0
  0
VERTEX
  5
1889
  8
0
 10
113.9441141172113987
 20
76.182302322680016
 30
0.0
  0
VERTEX
  5
188A
  8
0
 10
113.947220177769907
 20
76.1448783943496608
 30
0.0
  0
VERTEX
  5
188B
  8
0
 10
113.949615874281406
 20
76.1073732090311807
 30
0.0
  0
VERTEX
  5
188C
  8
0
 10
113.9512967904505985
 20
76.0697989934050156
 30
0.0
  0
SEQEND
  5
188D
  8
0
  0
POLYLINE
  5
17C2
  8
0
 66
     1
 10
0.0
 20
0.0
 30
0.0
  0
VERTEX
  5
188E
  8
0
 10
88.0683040707020268
 20
78.0000000000000568
 30
0.0
  0
VERTEX
  5
188F
  8
0
 10
88.8140350662831537
 20
77.9012519329657778
 30
0.0
  0
VERTEX
  5
1890
  8
0
 10
89.5597660618642948
 20
77.8089805162089903
 30
0.0
  0
VERTEX
  5
1891
  8
0
 10
90.3054970574454217
 20
77.7231711502139717
 30
0.0
  0
VERTEX
  5
1892
  8
0
 10
91.0512280530265343
 20
77.6438092354649854
 30
0.0
  0
VERTEX
  5
1893
  8
0
 10
91.7969590486076754
 20
77.5708801724462944
 30
0.0
  0
VERTEX
  5
1894
  8
0
 10
92.5426900441887739
 20
77.5043693616421905
 30
0.0
  0
VERTEX
  5
1895
  8
0
 10
93.2884210397699292
 20
77.4442622035369368
 30
0.0
  0
VERTEX
  5
1896
  8
0
 10
94.0341520353510418
 20
77.3905440986148108
 30
0.0
  0
VERTEX
  5
1897
  8
0
 10
94.7798830309321545
 20
77.3432004473600756
 30
0.0
  0
VERTEX
  5
1898
  8
0
 10
95.5256140265132956
 20
77.3022166502569945
 30
0.0
  0
VERTEX
  5
1899
  8
0
 10
96.2713450220944083
 20
77.2675781077898449
 30
0.0
  0
VERTEX
  5
189A
  8
0
 10
97.0170760176755209
 20
77.2392702204429185
 30
0.0
  0
VERTEX
  5
189B
  8
0
 10
97.7628070132566762
 20
77.2172783887004357
 30
0.0
  0
VERTEX
  5
189C
  8
0
 10
98.5085380088377747
 20
77.2015880130467451
 30
0.0
  0
VERTEX
  5
189D
  8
0
 10
99.2542690044188873
 20
77.1921844939660531
 30
0.0
  0
VERTEX
  5
189E
  8
0
 10
100.0
 20
77.1890532319426512
 30
0.0
  0
VERTEX
  5
189F
  8
0
 10
100.7457309955810985
 20
77.1921844939660389
 30
0.0
  0
VERTEX
  5
18A0
  8
0
 10
101.4914619911621969
 20
77.2015880130467309
 30
0.0
  0
VERTEX
  5
18A1
  8
0
 10
102.2371929867432954
 20
77.2172783887004357
 30
0.0
  0
VERTEX
  5
18A2
  8
0
 10
102.9829239823243938
 20
77.2392702204429042
 30
0.0
  0
VERTEX
  5
18A3
  8
0
 10
103.728654977905606
 20
77.2675781077898449
 30
0.0
  0
VERTEX
  5
18A4
  8
0
 10
104.4743859734867044
 20
77.3022166502569803
 30
0.0
  0
VERTEX
  5
18A5
  8
0
 10
105.2201169690678029
 20
77.3432004473600614
 30
0.0
  0
VERTEX
  5
18A6
  8
0
 10
105.9658479646489013
 20
77.3905440986147966
 30
0.0
  0
VERTEX
  5
18A7
  8
0
 10
106.7115789602299998
 20
77.4442622035369226
 30
0.0
  0
VERTEX
  5
18A8
  8
0
 10
107.4573099558111977
 20
77.5043693616421763
 30
0.0
  0
VERTEX
  5
18A9
  8
0
 10
108.2030409513922962
 20
77.5708801724462802
 30
0.0
  0
VERTEX
  5
18AA
  8
0
 10
108.9487719469733946
 20
77.6438092354649427
 30
0.0
  0
VERTEX
  5
18AB
  8
0
 10
109.6945029425546068
 20
77.7231711502139291
 30
0.0
  0
VERTEX
  5
18AC
  8
0
 10
110.4402339381357052
 20
77.8089805162089334
 30
0.0
  0
VERTEX
  5
18AD
  8
0
 10
111.1859649337168037
 20
77.9012519329657209
 30
0.0
  0
VERTEX
  5
18AE
  8
0
 10
111.9316959292980016
 20
78.0000000000000142
 30
0.0
  0
SEQEND
  5
18AF
  8
0
  0
POLYLINE
  5
17C3
  8
0
 66
     1
 10
0.0
 20
0.0
 30
0.0
  0
VERTEX
  5
18B0
  8
0
 10
86.0487032095493305
 20
76.0697989934050156
 30
0.0
  0
VERTEX
  5
18B1
  8
0
 10
86.0507262790621468
 20
76.1136463702776354
 30
0.0
  0
VERTEX
  5
18B2
  8
0
 10
86.0537023919422666
 20
76.1572953900419378
 30
0.0
  0
VERTEX
  5
18B3
  8
0
 10
86.0576269798989983
 20
76.2007470055719835
 30
0.0
  0
VERTEX
  5
18B4
  8
0
 10
86.0624954746417075
 20
76.2440021697418331
 30
0.0
  0
VERTEX
  5
18B5
  8
0
 10
86.0683033078796882
 20
76.2870618354256038
 30
0.0
  0
VERTEX
  5
18B6
  8
0
 10
86.0750459113223485
 20
76.3299269554973137
 30
0.0
  0
VERTEX
  5
18B7
  8
0
 10
86.0827187166789543
 20
76.3725984828310516
 30
0.0
  0
VERTEX
  5
18B8
  8
0
 10
86.091317155658885
 20
76.4150773703008923
 30
0.0
  0
VERTEX
  5
18B9
  8
0
 10
86.100837030983314
 20
76.4573653029422786
 30
0.0
  0
VERTEX
  5
18BA
  8
0
 10
86.1113011229119252
 20
76.499511453210431
 30
0.0
  0
VERTEX
  5
18BB
  8
0
 10
86.1227164652670183
 20
76.5415158867165246
 30
0.0
  0
VERTEX
  5
18BC
  8
0
 10
86.1350709502138869
 20
76.5833374158655005
 30
0.0
  0
VERTEX
  5
18BD
  8
0
 10
86.1483524699177678
 20
76.6249348530622569
 30
0.0
  0
VERTEX
  5
18BE
  8
0
 10
86.1625489165439262
 20
76.6662670107117066
 30
0.0
  0
VERTEX
  5
18BF
  8
0
 10
86.1776481822576841
 20
76.7072927012187336
 30
0.0
  0
VERTEX
  5
18C0
  8
0
 10
86.1936381592242356
 20
76.7479707369882789
 30
0.0
  0
VERTEX
  5
18C1
  8
0
 10
86.2105067396088884
 20
76.7882599304252409
 30
0.0
  0
VERTEX
  5
18C2
  8
0
 10
86.2282405546223742
 20
76.828118212610363
 30
0.0
  0
VERTEX
  5
18C3
  8
0
 10
86.2468025384773966
 20
76.8674959611731907
 30
0.0
  0
VERTEX
  5
18C4
  8
0
 10
86.2661789197500042
 20
76.9063821777576635
 30
0.0
  0
VERTEX
  5
18C5
  8
0
 10
86.2863682775035556
 20
76.9447777394927783
 30
0.0
  0
VERTEX
  5
18C6
  8
0
 10
86.3073691908012108
 20
76.9826835235075038
 30
0.0
  0
VERTEX
  5
18C7
  8
0
 10
86.3291802387063001
 20
77.0201004069308084
 30
0.0
  0
VERTEX
  5
18C8
  8
0
 10
86.3518000002820827
 20
77.0570292668916892
 30
0.0
  0
VERTEX
  5
18C9
  8
0
 10
86.3752270545918464
 20
77.0934709805191005
 30
0.0
  0
VERTEX
  5
18CA
  8
0
 10
86.3994599806988504
 20
77.1294264249420394
 30
0.0
  0
VERTEX
  5
18CB
  8
0
 10
86.4245014818334312
 20
77.1648986563578347
 30
0.0
  0
VERTEX
  5
18CC
  8
0
 10
86.4503824265385248
 20
77.1998985505846349
 30
0.0
  0
VERTEX
  5
18CD
  8
0
 10
86.4770808509689175
 20
77.2343951781446094
 30
0.0
  0
VERTEX
  5
18CE
  8
0
 10
86.5045611069220257
 20
77.2683489201315012
 30
0.0
  0
VERTEX
  5
18CF
  8
0
 10
86.5327875461952942
 20
77.301720157639096
 30
0.0
  0
VERTEX
  5
18D0
  8
0
 10
86.5617245205861678
 20
77.3344692717611935
 30
0.0
  0
VERTEX
  5
18D1
  8
0
 10
86.5913363818922051
 20
77.3665566435915792
 30
0.0
  0
VERTEX
  5
18D2
  8
0
 10
86.6215874819107512
 20
77.3979426542240247
 30
0.0
  0
VERTEX
  5
18D3
  8
0
 10
86.6524421724393648
 20
77.428587684752344
 30
0.0
  0
VERTEX
  5
18D4
  8
0
 10
86.6838819808129983
 20
77.4584685747235113
 30
0.0
  0
VERTEX
  5
18D5
  8
0
 10
86.7159795614061437
 20
77.4876546277283182
 30
0.0
  0
VERTEX
  5
18D6
  8
0
 10
86.7487298565635001
 20
77.5161486778569611
 30
0.0
  0
VERTEX
  5
18D7
  8
0
 10
86.782111216353627
 20
77.5439382309439367
 30
0.0
  0
VERTEX
  5
18D8
  8
0
 10
86.8161019908450555
 20
77.571010792823742
 30
0.0
  0
VERTEX
  5
18D9
  8
0
 10
86.8506805301062457
 20
77.5973538693308882
 30
0.0
  0
VERTEX
  5
18DA
  8
0
 10
86.8858251842057712
 20
77.6229549662998721
 30
0.0
  0
VERTEX
  5
18DB
  8
0
 10
86.9215143032120636
 20
77.6478015895652049
 30
0.0
  0
VERTEX
  5
18DC
  8
0
 10
86.9577262371936683
 20
77.6718812449613552
 30
0.0
  0
VERTEX
  5
18DD
  8
0
 10
86.9944393362191022
 20
77.6951814383228907
 30
0.0
  0
VERTEX
  5
18DE
  8
0
 10
87.031631950356882
 20
77.7176896754842517
 30
0.0
  0
VERTEX
  5
18DF
  8
0
 10
87.0692824296754679
 20
77.7393934622799634
 30
0.0
  0
VERTEX
  5
18E0
  8
0
 10
87.1073691242434336
 20
77.760280304544537
 30
0.0
  0
VERTEX
  5
18E1
  8
0
 10
87.1458703841292674
 20
77.7803377081124694
 30
0.0
  0
VERTEX
  5
18E2
  8
0
 10
87.1847645594014296
 20
77.7995531788182433
 30
0.0
  0
VERTEX
  5
18E3
  8
0
 10
87.2240300001284936
 20
77.817914222496384
 30
0.0
  0
VERTEX
  5
18E4
  8
0
 10
87.2636450563789339
 20
77.8354083449814027
 30
0.0
  0
VERTEX
  5
18E5
  8
0
 10
87.3035880782213098
 20
77.8520230521077821
 30
0.0
  0
VERTEX
  5
18E6
  8
0
 10
87.3438601194298201
 20
77.8677584077093172
 30
0.0
  0
VERTEX
  5
18E7
  8
0
 10
87.3844959564841304
 20
77.8826363325182029
 30
0.0
  0
VERTEX
  5
18E8
  8
0
 10
87.4254782621692641
 20
77.8966529352283743
 30
0.0
  0
VERTEX
  5
18E9
  8
0
 10
87.466787205584609
 20
77.9098030050691932
 30
0.0
  0
VERTEX
  5
18EA
  8
0
 10
87.5084029558294958
 20
77.9220813312699931
 30
0.0
  0
VERTEX
  5
18EB
  8
0
 10
87.5503056820032839
 20
77.9334827030601787
 30
0.0
  0
VERTEX
  5
18EC
  8
0
 10
87.5924755532052757
 20
77.9440019096690833
 30
0.0
  0
VERTEX
  5
18ED
  8
0
 10
87.6348927385348304
 20
77.9536337403260688
 30
0.0
  0
VERTEX
  5
18EE
  8
0
 10
87.6775374070912932
 20
77.9623729842604831
 30
0.0
  0
VERTEX
  5
18EF
  8
0
 10
87.720389727974009
 20
77.9702144307017306
 30
0.0
  0
VERTEX
  5
18F0
  8
0
 10
87.763429870282323
 20
77.9771528688791449
 30
0.0
  0
VERTEX
  5
18F1
  8
0
 10
87.8066380031155802
 20
77.9831830880220735
 30
0.0
  0
VERTEX
  5
18F2
  8
0
 10
87.8499942955731541
 20
77.988299877359907
 30
0.0
  0
VERTEX
  5
18F3
  8
0
 10
87.8934789167543045
 20
77.9924980261219929
 30
0.0
  0
VERTEX
  5
18F4
  8
0
 10
87.9370720357584048
 20
77.995772323537679
 30
0.0
  0
VERTEX
  5
18F5
  8
0
 10
87.980753821684857
 20
77.9981175588363556
 30
0.0
  0
VERTEX
  5
18F6
  8
0
 10
88.0245044436329351
 20
77.9995285212473561
 30
0.0
  0
VERTEX
  5
18F7
  8
0
 10
88.0683040707020268
 20
78.0000000000000568
 30
0.0
  0
SEQEND
  5
18F8
  8
0
  0
POLYLINE
  5
17C4
  8
0
 66
     1
 10
0.0
 20
0.0
 30
0.0
  0
VERTEX
  5
18F9
  8
0
 10
46.560646202445632
 20
76.0697989934050156
 30
0.0
  0
VERTEX
  5
18FA
  8
0
 10
46.5608352154410383
 20
76.1136463702776354
 30
0.0
  0
VERTEX
  5
18FB
  8
0
 10
46.5611132452550578
 20
76.1572953900419236
 30
0.0
  0
VERTEX
  5
18FC
  8
0
 10
46.5614797570271435
 20
76.2007470055719551
 30
0.0
  0
VERTEX
  5
18FD
  8
0
 10
46.561934215896791
 20
76.2440021697418189
 30
0.0
  0
VERTEX
  5
18FE
  8
0
 10
46.5624760870035672
 20
76.2870618354255612
 30
0.0
  0
VERTEX
  5
18FF
  8
0
 10
46.5631048354869606
 20
76.329926955497271
 30
0.0
  0
VERTEX
  5
1900
  8
0
 10
46.5638199264864383
 20
76.3725984828309947
 30
0.0
  0
VERTEX
  5
1901
  8
0
 10
46.5646208251415317
 20
76.4150773703008355
 30
0.0
  0
VERTEX
  5
1902
  8
0
 10
46.5655070308732988
 20
76.4573653029422076
 30
0.0
  0
VERTEX
  5
1903
  8
0
 10
46.5664805045239518
 20
76.4995114532103599
 30
0.0
  0
VERTEX
  5
1904
  8
0
 10
46.5675416537929934
 20
76.5415158867164678
 30
0.0
  0
VERTEX
  5
1905
  8
0
 10
46.5686890987504967
 20
76.5833374158654436
 30
0.0
  0
VERTEX
  5
1906
  8
0
 10
46.5699214594664497
 20
76.6249348530622143
 30
0.0
  0
VERTEX
  5
1907
  8
0
 10
46.5712373560109185
 20
76.6662670107116639
 30
0.0
  0
VERTEX
  5
1908
  8
0
 10
46.5726354084539409
 20
76.7072927012187051
 30
0.0
  0
VERTEX
  5
1909
  8
0
 10
46.5741142368655119
 20
76.7479707369882505
 30
0.0
  0
VERTEX
  5
190A
  8
0
 10
46.5756724613156621
 20
76.7882599304251983
 30
0.0
  0
VERTEX
  5
190B
  8
0
 10
46.5773085855319309
 20
76.8281182126103488
 30
0.0
  0
VERTEX
  5
190C
  8
0
 10
46.5790189034883824
 20
76.8674959611731623
 30
0.0
  0
VERTEX
  5
190D
  8
0
 10
46.5808018005404207
 20
76.9063821777576351
 30
0.0
  0
VERTEX
  5
190E
  8
0
 10
46.5826567931639985
 20
76.9447777394927499
 30
0.0
  0
VERTEX
  5
190F
  8
0
 10
46.5845833978351607
 20
76.9826835235074753
 30
0.0
  0
VERTEX
  5
1910
  8
0
 10
46.5865811310298668
 20
77.0201004069307942
 30
0.0
  0
VERTEX
  5
1911
  8
0
 10
46.5886495092240907
 20
77.057029266891675
 30
0.0
  0
VERTEX
  5
1912
  8
0
 10
46.5907880488938702
 20
77.0934709805191005
 30
0.0
  0
VERTEX
  5
1913
  8
0
 10
46.592996266515172
 20
77.1294264249420394
 30
0.0
  0
VERTEX
  5
1914
  8
0
 10
46.5952740404331394
 20
77.1648986563578347
 30
0.0
  0
VERTEX
  5
1915
  8
0
 10
46.5976236783254976
 20
77.1998985505846349
 30
0.0
  0
VERTEX
  5
1916
  8
0
 10
46.6000427695710968
 20
77.2343951781446094
 30
0.0
  0
VERTEX
  5
1917
  8
0
 10
46.6025276941583328
 20
77.2683489201315012
 30
0.0
  0
VERTEX
  5
1918
  8
0
 10
46.6050748320755872
 20
77.301720157639096
 30
0.0
  0
VERTEX
  5
1919
  8
0
 10
46.6076805633112201
 20
77.3344692717611935
 30
0.0
  0
VERTEX
  5
191A
  8
0
 10
46.6103412678536131
 20
77.3665566435915792
 30
0.0
  0
VERTEX
  5
191B
  8
0
 10
46.6130533256911406
 20
77.3979426542240247
 30
0.0
  0
VERTEX
  5
191C
  8
0
 10
46.6158131168121983
 20
77.4285876847523298
 30
0.0
  0
VERTEX
  5
191D
  8
0
 10
46.6186185225664929
 20
77.4584685747234971
 30
0.0
  0
VERTEX
  5
191E
  8
0
 10
46.6214754460249878
 20
77.487654627728304
 30
0.0
  0
VERTEX
  5
191F
  8
0
 10
46.6243830844298586
 20
77.5161486778569468
 30
0.0
  0
VERTEX
  5
1920
  8
0
 10
46.627339190874693
 20
77.5439382309439083
 30
0.0
  0
VERTEX
  5
1921
  8
0
 10
46.6303415184530365
 20
77.5710107928237278
 30
0.0
  0
VERTEX
  5
1922
  8
0
 10
46.6333878202583989
 20
77.5973538693308598
 30
0.0
  0
VERTEX
  5
1923
  8
0
 10
46.6364758493844178
 20
77.6229549662998437
 30
0.0
  0
VERTEX
  5
1924
  8
0
 10
46.6396033589245675
 20
77.6478015895651765
 30
0.0
  0
VERTEX
  5
1925
  8
0
 10
46.6427681019725
 20
77.6718812449613552
 30
0.0
  0
VERTEX
  5
1926
  8
0
 10
46.6459678316216966
 20
77.6951814383228765
 30
0.0
  0
VERTEX
  5
1927
  8
0
 10
46.6492003009657594
 20
77.7176896754842375
 30
0.0
  0
VERTEX
  5
1928
  8
0
 10
46.6524632630982126
 20
77.7393934622799634
 30
0.0
  0
VERTEX
  5
1929
  8
0
 10
46.6557544711126297
 20
77.760280304544537
 30
0.0
  0
VERTEX
  5
192A
  8
0
 10
46.6590716781025492
 20
77.7803377081124694
 30
0.0
  0
VERTEX
  5
192B
  8
0
 10
46.6624126371615873
 20
77.7995531788182433
 30
0.0
  0
VERTEX
  5
192C
  8
0
 10
46.6657751013832396
 20
77.8179142224964124
 30
0.0
  0
VERTEX
  5
192D
  8
0
 10
46.6691568238611012
 20
77.8354083449814169
 30
0.0
  0
VERTEX
  5
192E
  8
0
 10
46.672555557688689
 20
77.8520230521077963
 30
0.0
  0
VERTEX
  5
192F
  8
0
 10
46.6759709751108574
 20
77.8677584077093172
 30
0.0
  0
VERTEX
  5
1930
  8
0
 10
46.6794057443812633
 20
77.8826363325182029
 30
0.0
  0
VERTEX
  5
1931
  8
0
 10
46.6828582659274502
 20
77.8966529352283743
 30
0.0
  0
VERTEX
  5
1932
  8
0
 10
46.6863267315074069
 20
77.909803005069179
 30
0.0
  0
VERTEX
  5
1933
  8
0
 10
46.689809332879058
 20
77.9220813312699931
 30
0.0
  0
VERTEX
  5
1934
  8
0
 10
46.6933042618003569
 20
77.9334827030601645
 30
0.0
  0
VERTEX
  5
1935
  8
0
 10
46.6968097100292425
 20
77.9440019096690548
 30
0.0
  0
VERTEX
  5
1936
  8
0
 10
46.7003238693236824
 20
77.9536337403260404
 30
0.0
  0
VERTEX
  5
1937
  8
0
 10
46.7038449314416084
 20
77.9623729842604689
 30
0.0
  0
VERTEX
  5
1938
  8
0
 10
46.7073710881409667
 20
77.9702144307017022
 30
0.0
  0
VERTEX
  5
1939
  8
0
 10
46.7109005311797034
 20
77.9771528688791022
 30
0.0
  0
VERTEX
  5
193A
  8
0
 10
46.7144314523157718
 20
77.9831830880220451
 30
0.0
  0
VERTEX
  5
193B
  8
0
 10
46.7179620433071179
 20
77.9882998773598644
 30
0.0
  0
VERTEX
  5
193C
  8
0
 10
46.7214904959117234
 20
77.9924980261219361
 30
0.0
  0
VERTEX
  5
193D
  8
0
 10
46.7250150018874422
 20
77.9957723235376363
 30
0.0
  0
VERTEX
  5
193E
  8
0
 10
46.7285337529923197
 20
77.9981175588362987
 30
0.0
  0
VERTEX
  5
193F
  8
0
 10
46.7320449409842524
 20
77.9995285212472993
 30
0.0
  0
VERTEX
  5
1940
  8
0
 10
46.7355467576211865
 20
78.0
 30
0.0
  0
SEQEND
  5
1941
  8
0
  0
POLYLINE
  5
17C5
  8
0
 66
     1
 10
0.0
 20
0.0
 30
0.0
  0
VERTEX
  5
1942
  8
0
 10
53.4393537975540198
 20
76.0697989934050156
 30
0.0
  0
VERTEX
  5
1943
  8
0
 10
53.4391647845585922
 20
76.1136463702776354
 30
0.0
  0
VERTEX
  5
1944
  8
0
 10
53.4388867547445727
 20
76.1572953900419378
 30
0.0
  0
VERTEX
  5
1945
  8
0
 10
53.4385202429724586
 20
76.2007470055719835
 30
0.0
  0
VERTEX
  5
1946
  8
0
 10
53.4380657841027684
 20
76.2440021697418331
 30
0.0
  0
VERTEX
  5
1947
  8
0
 10
53.4375239129959994
 20
76.2870618354256038
 30
0.0
  0
VERTEX
  5
1948
  8
0
 10
53.4368951645125989
 20
76.3299269554973137
 30
0.0
  0
VERTEX
  5
1949
  8
0
 10
53.4361800735130927
 20
76.3725984828310516
 30
0.0
  0
VERTEX
  5
194A
  8
0
 10
53.4353791748580065
 20
76.4150773703008923
 30
0.0
  0
VERTEX
  5
194B
  8
0
 10
53.4344929691262323
 20
76.4573653029422786
 30
0.0
  0
VERTEX
  5
194C
  8
0
 10
53.4335194954755934
 20
76.499511453210431
 30
0.0
  0
VERTEX
  5
194D
  8
0
 10
53.4324583462065732
 20
76.5415158867165246
 30
0.0
  0
VERTEX
  5
194E
  8
0
 10
53.431310901249077
 20
76.5833374158655005
 30
0.0
  0
VERTEX
  5
194F
  8
0
 10
53.4300785405331524
 20
76.6249348530622569
 30
0.0
  0
VERTEX
  5
1950
  8
0
 10
53.4287626439886694
 20
76.6662670107117066
 30
0.0
  0
VERTEX
  5
1951
  8
0
 10
53.4273645915457109
 20
76.7072927012187336
 30
0.0
  0
VERTEX
  5
1952
  8
0
 10
53.4258857631341399
 20
76.7479707369882789
 30
0.0
  0
VERTEX
  5
1953
  8
0
 10
53.4243275386839969
 20
76.7882599304252409
 30
0.0
  0
VERTEX
  5
1954
  8
0
 10
53.4226914144677494
 20
76.828118212610363
 30
0.0
  0
VERTEX
  5
1955
  8
0
 10
53.4209810965112908
 20
76.8674959611731907
 30
0.0
  0
VERTEX
  5
1956
  8
0
 10
53.4191981994592595
 20
76.9063821777576635
 30
0.0
  0
VERTEX
  5
1957
  8
0
 10
53.4173432068356533
 20
76.9447777394927783
 30
0.0
  0
VERTEX
  5
1958
  8
0
 10
53.4154166021644912
 20
76.9826835235075038
 30
0.0
  0
VERTEX
  5
1959
  8
0
 10
53.413418868969778
 20
77.0201004069308084
 30
0.0
  0
VERTEX
  5
195A
  8
0
 10
53.4113504907755328
 20
77.0570292668916892
 30
0.0
  0
VERTEX
  5
195B
  8
0
 10
53.4092119511057604
 20
77.0934709805191005
 30
0.0
  0
VERTEX
  5
195C
  8
0
 10
53.4070037334844585
 20
77.1294264249420394
 30
0.0
  0
VERTEX
  5
195D
  8
0
 10
53.4047259595664912
 20
77.1648986563578347
 30
0.0
  0
VERTEX
  5
195E
  8
0
 10
53.4023763216741472
 20
77.1998985505846349
 30
0.0
  0
VERTEX
  5
195F
  8
0
 10
53.3999572304285266
 20
77.2343951781446094
 30
0.0
  0
VERTEX
  5
1960
  8
0
 10
53.397472305841319
 20
77.2683489201315012
 30
0.0
  0
VERTEX
  5
1961
  8
0
 10
53.3949251679240717
 20
77.301720157639096
 30
0.0
  0
VERTEX
  5
1962
  8
0
 10
53.3923194366884388
 20
77.3344692717611935
 30
0.0
  0
VERTEX
  5
1963
  8
0
 10
53.3896587321460387
 20
77.3665566435915792
 30
0.0
  0
VERTEX
  5
1964
  8
0
 10
53.3869466743085184
 20
77.3979426542240247
 30
0.0
  0
VERTEX
  5
1965
  8
0
 10
53.3841868831874535
 20
77.428587684752344
 30
0.0
  0
VERTEX
  5
1966
  8
0
 10
53.381381477433159
 20
77.4584685747235113
 30
0.0
  0
VERTEX
  5
1967
  8
0
 10
53.3785245539746711
 20
77.4876546277283182
 30
0.0
  0
VERTEX
  5
1968
  8
0
 10
53.3756169155697933
 20
77.5161486778569611
 30
0.0
  0
VERTEX
  5
1969
  8
0
 10
53.3726608091249588
 20
77.5439382309439367
 30
0.0
  0
VERTEX
  5
196A
  8
0
 10
53.3696584815466224
 20
77.571010792823742
 30
0.0
  0
VERTEX
  5
196B
  8
0
 10
53.3666121797412174
 20
77.5973538693308882
 30
0.0
  0
VERTEX
  5
196C
  8
0
 10
53.3635241506152269
 20
77.6229549662998721
 30
0.0
  0
VERTEX
  5
196D
  8
0
 10
53.360396641075063
 20
77.6478015895652049
 30
0.0
  0
VERTEX
  5
196E
  8
0
 10
53.3572318980271234
 20
77.6718812449613552
 30
0.0
  0
VERTEX
  5
196F
  8
0
 10
53.3540321683779268
 20
77.6951814383228907
 30
0.0
  0
VERTEX
  5
1970
  8
0
 10
53.3507996990338711
 20
77.7176896754842517
 30
0.0
  0
VERTEX
  5
1971
  8
0
 10
53.3475367369014108
 20
77.7393934622799634
 30
0.0
  0
VERTEX
  5
1972
  8
0
 10
53.3442455288870008
 20
77.760280304544537
 30
0.0
  0
VERTEX
  5
1973
  8
0
 10
53.3409283218970529
 20
77.7803377081124694
 30
0.0
  0
VERTEX
  5
1974
  8
0
 10
53.3375873628380432
 20
77.7995531788182433
 30
0.0
  0
VERTEX
  5
1975
  8
0
 10
53.3342248986163625
 20
77.817914222496384
 30
0.0
  0
VERTEX
  5
1976
  8
0
 10
53.3308431761385009
 20
77.8354083449814027
 30
0.0
  0
VERTEX
  5
1977
  8
0
 10
53.3274444423108989
 20
77.8520230521077821
 30
0.0
  0
VERTEX
  5
1978
  8
0
 10
53.3240290248887376
 20
77.8677584077093172
 30
0.0
  0
VERTEX
  5
1979
  8
0
 10
53.3205942556183388
 20
77.8826363325182029
 30
0.0
  0
VERTEX
  5
197A
  8
0
 10
53.3171417340721518
 20
77.8966529352283743
 30
0.0
  0
VERTEX
  5
197B
  8
0
 10
53.313673268492181
 20
77.9098030050691932
 30
0.0
  0
VERTEX
  5
197C
  8
0
 10
53.310190667120537
 20
77.9220813312699931
 30
0.0
  0
VERTEX
  5
197D
  8
0
 10
53.3066957381992381
 20
77.9334827030601787
 30
0.0
  0
VERTEX
  5
197E
  8
0
 10
53.3031902899703312
 20
77.9440019096690833
 30
0.0
  0
VERTEX
  5
197F
  8
0
 10
53.2996761306758913
 20
77.9536337403260688
 30
0.0
  0
VERTEX
  5
1980
  8
0
 10
53.2961550685579581
 20
77.9623729842604831
 30
0.0
  0
VERTEX
  5
1981
  8
0
 10
53.2926289118585998
 20
77.9702144307017306
 30
0.0
  0
VERTEX
  5
1982
  8
0
 10
53.2890994688198703
 20
77.9771528688791449
 30
0.0
  0
VERTEX
  5
1983
  8
0
 10
53.2855685476837877
 20
77.9831830880220735
 30
0.0
  0
VERTEX
  5
1984
  8
0
 10
53.2820379566924487
 20
77.988299877359907
 30
0.0
  0
VERTEX
  5
1985
  8
0
 10
53.2785095040878716
 20
77.9924980261219929
 30
0.0
  0
VERTEX
  5
1986
  8
0
 10
53.2749849981121315
 20
77.995772323537679
 30
0.0
  0
VERTEX
  5
1987
  8
0
 10
53.2714662470072469
 20
77.9981175588363556
 30
0.0
  0
VERTEX
  5
1988
  8
0
 10
53.2679550590153497
 20
77.9995285212473561
 30
0.0
  0
VERTEX
  5
1989
  8
0
 10
53.2644532423784085
 20
78.0000000000000568
 30
0.0
  0
SEQEND
  5
198A
  8
0
  0
ENDSEC
  0
EOF
