  0
SECTION
  2
HEADER
  9
$ACADVER
  1
AC1009
  9
$INSBASE
 10
0.0
 20
0.0
 30
0.0
  9
$EXTMIN
 10
0.0
 20
-2.960436562073669
 30
0.0
  9
$EXTMAX
 10
115.0
 20
126.9999999999999005
 30
0.0
  9
$LIMMIN
 10
0.0
 20
0.0
  9
$LIMMAX
 10
187.5
 20
135.0
  9
$ORTHOMODE
 70
     1
  9
$REGENMODE
 70
     1
  9
$FILLMODE
 70
     1
  9
$QTEXTMODE
 70
     0
  9
$MIRRTEXT
 70
     0
  9
$DRAGMODE
 70
     2
  9
$LTSCALE
 40
5.0
  9
$OSMODE
 70
    37
  9
$ATTMODE
 70
     1
  9
$TEXTSIZE
 40
4.000000000000048
  9
$TRACEWID
 40
0.05
  9
$TEXTSTYLE
  7
STANDARD
  9
$CLAYER
  8
0
  9
$CELTYPE
  6
BYLAYER
  9
$CECOLOR
 62
   256
  9
$DIMSCALE
 40
0.5
  9
$DIMASZ
 40
3.0
  9
$DIMEXO
 40
2.0
  9
$DIMDLI
 40
0.38
  9
$DIMRND
 40
0.0
  9
$DIMDLE
 40
0.0
  9
$DIMEXE
 40
2.0
  9
$DIMTP
 40
0.0
  9
$DIMTM
 40
0.0
  9
$DIMTXT
 40
3.2000000000000002
  9
$DIMCEN
 40
0.0
  9
$DIMTSZ
 40
0.0
  9
$DIMTOL
 70
     0
  9
$DIMLIM
 70
     0
  9
$DIMTIH
 70
     0
  9
$DIMTOH
 70
     0
  9
$DIMSE1
 70
     0
  9
$DIMSE2
 70
     0
  9
$DIMTAD
 70
     1
  9
$DIMZIN
 70
     0
  9
$DIMBLK
  1

  9
$DIMASO
 70
     1
  9
$DIMSHO
 70
     0
  9
$DIMPOST
  1

  9
$DIMAPOST
  1

  9
$DIMALT
 70
     0
  9
$DIMALTD
 70
     2
  9
$DIMALTF
 40
25.3999999999999986
  9
$DIMLFAC
 40
1.0
  9
$DIMTOFL
 70
     1
  9
$DIMTVP
 40
1.6000000000000001
  9
$DIMTIX
 70
     1
  9
$DIMSOXD
 70
     0
  9
$DIMSAH
 70
     0
  9
$DIMBLK1
  1

  9
$DIMBLK2
  1

  9
$DIMSTYLE
  2
STANDARD
  9
$DIMCLRD
 70
     0
  9
$DIMCLRE
 70
     0
  9
$DIMCLRT
 70
     0
  9
$DIMTFAC
 40
1.0
  9
$DIMGAP
 40
0.09
  9
$LUNITS
 70
     2
  9
$LUPREC
 70
     4
  9
$SKETCHINC
 40
0.1
  9
$FILLETRAD
 40
1.0
  9
$AUNITS
 70
     1
  9
$AUPREC
 70
     4
  9
$MENU
  1
E:\r13\win\SUPPORT\ACAD
  9
$ELEVATION
 40
0.0
  9
$PELEVATION
 40
0.0
  9
$THICKNESS
 40
0.0
  9
$LIMCHECK
 70
     0
  9
$BLIPMODE
 70
     0
  9
$CHAMFERA
 40
2.0
  9
$CHAMFERB
 40
2.0
  9
$SKPOLY
 70
     0
  9
$TDCREATE
 40
2449839.7904861117713153
  9
$TDUPDATE
 40
2460580.5714004631154239
  9
$TDINDWG
 40
0.2370911343
  9
$TDUSRTIMER
 40
0.2370911343
  9
$USRTIMER
 70
     1
  9
$ANGBASE
 50
0.0
  9
$ANGDIR
 70
     0
  9
$PDMODE
 70
     0
  9
$PDSIZE
 40
0.0
  9
$PLINEWID
 40
0.0
  9
$COORDS
 70
     1
  9
$SPLFRAME
 70
     0
  9
$SPLINETYPE
 70
     6
  9
$SPLINESEGS
 70
     8
  9
$ATTDIA
 70
     1
  9
$ATTREQ
 70
     1
  9
$HANDLING
 70
     1
  9
$HANDSEED
  5
1A2B
  9
$SURFTAB1
 70
     6
  9
$SURFTAB2
 70
     6
  9
$SURFTYPE
 70
     6
  9
$SURFU
 70
     6
  9
$SURFV
 70
     6
  9
$UCSNAME
  2

  9
$UCSORG
 10
0.0
 20
0.0
 30
0.0
  9
$UCSXDIR
 10
1.0
 20
0.0
 30
0.0
  9
$UCSYDIR
 10
0.0
 20
1.0
 30
0.0
  9
$PUCSNAME
  2

  9
$PUCSORG
 10
0.0
 20
0.0
 30
0.0
  9
$PUCSXDIR
 10
1.0
 20
0.0
 30
0.0
  9
$PUCSYDIR
 10
0.0
 20
1.0
 30
0.0
  9
$USERI1
 70
     0
  9
$USERI2
 70
     1
  9
$USERI3
 70
     1
  9
$USERI4
 70
     0
  9
$USERI5
 70
     0
  9
$USERR1
 40
0.0
  9
$USERR2
 40
0.0
  9
$USERR3
 40
0.0
  9
$USERR4
 40
0.0
  9
$USERR5
 40
0.0
  9
$WORLDVIEW
 70
     1
  9
$SHADEDGE
 70
     3
  9
$SHADEDIF
 70
    70
  9
$TILEMODE
 70
     1
  9
$MAXACTVP
 70
    16
  9
$PLIMCHECK
 70
     0
  9
$PEXTMIN
 10
1.0000000000000000E+20
 20
1.0000000000000000E+20
 30
1.0000000000000000E+20
  9
$PEXTMAX
 10
-1.0000000000000000E+20
 20
-1.0000000000000000E+20
 30
-1.0000000000000000E+20
  9
$PLIMMIN
 10
0.0
 20
0.0
  9
$PLIMMAX
 10
12.0
 20
9.0
  9
$UNITMODE
 70
     0
  9
$VISRETAIN
 70
     0
  9
$PLINEGEN
 70
     0
  9
$PSLTSCALE
 70
     0
  0
ENDSEC
  0
SECTION
  2
TABLES
  0
TABLE
  2
VPORT
 70
     1
  0
VPORT
  2
*ACTIVE
 70
     0
 10
0.0
 20
0.0
 11
1.0
 21
1.0
 12
164.3965517241379075
 22
70.0
 13
0.0
 23
0.0
 14
5.0
 24
5.0
 15
5.0
 25
5.0
 16
0.0
 26
0.0
 36
1.0
 17
0.0
 27
0.0
 37
0.0
 40
140.0
 41
2.3485221674876842
 42
50.0
 43
0.0
 44
0.0
 50
0.0
 51
0.0
 71
     0
 72
   500
 73
     1
 74
     0
 75
     0
 76
     0
 77
     0
 78
     2
  0
ENDTAB
  0
TABLE
  2
LTYPE
 70
     2
  0
LTYPE
  2
CONTINUOUS
 70
     0
  3
Solid Line
 72
    65
 73
     0
 40
0.0
  0
LTYPE
  2
CENTER
 70
     0
  3
____ _ ____ _ ____ _ ____ _ ____ _ ____ _ ____
 72
    65
 73
     4
 40
2.0
 49
1.25
 49
-0.25
 49
0.25
 49
-0.25
  0
ENDTAB
  0
TABLE
  2
LAYER
 70
     4
  0
LAYER
  2
0
 70
     0
 62
     7
  6
CONTINUOUS
  0
LAYER
  2
1
 70
     0
 62
     1
  6
CENTER
  0
LAYER
  2
DEFPOINTS
 70
     0
 62
     7
  6
CONTINUOUS
  0
LAYER
  2
3
 70
     0
 62
     3
  6
CONTINUOUS
  0
ENDTAB
  0
TABLE
  2
STYLE
 70
     2
  0
STYLE
  2
STANDARD
 70
     0
 40
0.0
 41
1.0
 50
0.0
 71
     0
 42
4.000000000000048
  3
TXT
  4
BIGFONT
  0
STYLE
  2
STANDARD1
 70
     0
 40
0.0
 41
1.0
 50
0.0
 71
     0
 42
3.0
  3
txt
  4

  0
ENDTAB
  0
TABLE
  2
VIEW
 70
     1
  0
VIEW
  2
ALL
 70
     0
 40
135.0
 10
110.4957983193277045
 20
67.5
 41
0.0
 11
0.0
 21
0.0
 31
1.0
 12
0.0
 22
0.0
 32
0.0
 42
0.0
 43
0.0
 44
0.0
 50
0.0
 71
     0
  0
ENDTAB
  0
TABLE
  2
UCS
 70
     0
  0
ENDTAB
  0
TABLE
  2
APPID
 70
     5
  0
APPID
  2
ACAD
 70
     0
  0
APPID
  2
ACAD_MLEADERVER
 70
     0
  0
APPID
  2
ACAD_NAV_VCDISPLAY
 70
     0
  0
APPID
  2
ACAD_EXEMPT_FROM_CAD_STANDARDS
 70
     0
  0
APPID
  2
ACAD_TC
 70
     0
  0
ENDTAB
  0
TABLE
  2
DIMSTYLE
 70
     1
  0
DIMSTYLE
  2
STANDARD
 70
     0
  3

  4

  5

  6

  7

 40
1.0
 41
0.18
 42
0.0625
 43
0.38
 44
0.18
 45
0.0
 46
0.0
 47
0.0
 48
0.0
140
0.18
141
0.09
142
0.0
143
25.3999999999999986
144
1.0
145
0.0
146
1.0
147
0.09
 71
     0
 72
     0
 73
     1
 74
     1
 75
     0
 76
     0
 77
     0
 78
     0
170
     0
171
     2
172
     0
173
     0
174
     0
175
     0
176
     0
177
     0
178
     0
  0
ENDTAB
  0
ENDSEC
  0
SECTION
  2
BLOCKS
  0
BLOCK
  8
0
  2
$MODEL_SPACE
 70
     0
 10
0.0
 20
0.0
 30
0.0
  3
$MODEL_SPACE
  1

  0
ENDBLK
  5
13F
  8
0
  0
BLOCK
 67
     1
  8
0
  2
$PAPER_SPACE
 70
     0
 10
0.0
 20
0.0
 30
0.0
  3
$PAPER_SPACE
  1

  0
ENDBLK
  5
13D
 67
     1
  8
0
  0
ENDSEC
  0
SECTION
  2
ENTITIES
  0
TEXT
  5
13E7
  8
0
 62
     3
 10
0.0
 20
0.0
 30
0.0
 40
10.0
  1
FWN30-M8X16
  7
STANDARD1
  0
LINE
  5
17FB
  8
0
 10
46.0000000000000497
 20
34.7670000000000528
 30
0.0
 11
46.7670000000000812
 21
34.0
 31
0.0
  0
LINE
  5
17FC
  8
0
 10
53.2330000000000609
 20
34.0000000000000568
 30
0.0
 11
54.0000000000000497
 21
34.7670000000000528
 31
0.0
  0
LINE
  5
17FD
  8
0
 10
46.0000000000000284
 20
50.0
 30
0.0
 11
46.0000000000000497
 21
34.7670000000000528
 31
0.0
  0
LINE
  5
17FE
  8
0
 10
54.0000000000000497
 20
34.7670000000000528
 30
0.0
 11
54.0000000000000284
 21
50.0
 31
0.0
  0
LINE
  5
17FF
  8
0
 10
46.7670000000000812
 20
34.0
 30
0.0
 11
53.2330000000000609
 21
34.0000000000000568
 31
0.0
  0
LINE
  5
1800
  8
0
 10
46.0000000000000497
 20
34.7670000000000528
 30
0.0
 11
54.0000000000000497
 21
34.7670000000000528
 31
0.0
  0
LINE
  5
1801
  8
0
 10
96.0000000000000284
 20
49.9999999999999432
 30
0.0
 11
96.0000000000000284
 21
34.767000000000003
 31
0.0
  0
LINE
  5
1802
  8
0
 10
104.0
 20
34.767000000000003
 30
0.0
 11
104.0
 21
49.9999999999999432
 31
0.0
  0
LINE
  5
1803
  8
0
 10
96.0000000000000284
 20
34.767000000000003
 30
0.0
 11
96.7670000000000243
 21
33.9999999999999503
 31
0.0
  0
LINE
  5
1804
  8
0
 10
103.2330000000000041
 20
33.9999999999999503
 30
0.0
 11
104.0
 21
34.767000000000003
 31
0.0
  0
LINE
  5
1805
  8
0
 10
100.0
 20
34.767000000000003
 30
0.0
 11
104.0
 21
34.767000000000003
 31
0.0
  0
LINE
  5
1806
  8
0
 10
96.0000000000000284
 20
34.767000000000003
 30
0.0
 11
100.0
 21
34.767000000000003
 31
0.0
  0
LINE
  5
1807
  8
0
 10
100.0
 20
34.0
 30
0.0
 11
103.2330000000000041
 21
33.9999999999999503
 31
0.0
  0
LINE
  5
1808
  8
0
 10
96.7670000000000243
 20
33.9999999999999503
 30
0.0
 11
100.0
 21
34.0
 31
0.0
  0
LINE
  5
1809
  8
0
 10
64.9999999999999716
 20
58.0000000000000568
 30
0.0
 11
64.8777773067788246
 21
61.5000000000000497
 31
0.0
  0
LINE
  5
180A
  8
0
 10
35.122222693221083
 20
61.4999999999999503
 30
0.0
 11
34.9999999999999929
 21
57.9999999999999432
 31
0.0
  0
ARC
  5
180B
  8
0
 10
40.4443372205561502
 20
56.0
 30
0.0
 40
2.0000000000000049
 50
357.9999999999996021
 51
90.00000000000081
  0
ARC
  5
180C
  8
0
 10
59.5556627794438427
 20
56.0000000000000497
 30
0.0
 40
2.0000000000000062
 50
90.0
 51
182.0000000000003979
  0
LINE
  5
180D
  8
0
 10
57.7500000000000284
 20
50.400000000000027
 30
0.0
 11
57.5568811254056172
 21
55.9302010065950412
 31
0.0
  0
LINE
  5
180E
  8
0
 10
42.4431188745943118
 20
55.9302010065949773
 30
0.0
 11
42.2499999999999574
 21
50.3999999999999773
 31
0.0
  0
LINE
  5
180F
  8
0
 10
34.9999999999999929
 20
57.9999999999999432
 30
0.0
 11
64.9999999999999716
 21
58.0000000000000568
 31
0.0
  0
LINE
  5
1810
  8
0
 10
53.4393537975539914
 20
76.0697989934050156
 30
0.0
 11
53.4880497324764121
 21
61.5000000000000497
 31
0.0
  0
LINE
  5
1811
  8
0
 10
53.4880497324764121
 20
61.5000000000000497
 30
0.0
 11
64.8777773067788246
 21
61.5000000000000497
 31
0.0
  0
LINE
  5
1812
  8
0
 10
46.5119502675231828
 20
61.5
 30
0.0
 11
35.122222693221083
 21
61.4999999999999503
 31
0.0
  0
LINE
  5
1813
  8
0
 10
46.5606462024456604
 20
76.0697989934050156
 30
0.0
 11
46.5119502675231828
 21
61.5
 31
0.0
  0
LINE
  5
1816
  8
0
 10
46.735546757621222
 20
78.0
 30
0.0
 11
53.2644532423783801
 21
78.0000000000000568
 31
0.0
  0
LINE
  5
1817
  8
0
 10
42.2499999999999574
 20
50.3999999999999773
 30
0.0
 11
57.7500000000000284
 21
50.400000000000027
 31
0.0
  0
LINE
  5
1818
  8
1
 10
50.0000000000000284
 20
32.0
 30
0.0
 11
49.9999999999999716
 21
80.0
 31
0.0
  0
LINE
  5
1819
  8
1
 10
100.0
 20
32.0
 30
0.0
 11
100.0
 21
80.0
 31
0.0
  0
LINE
  5
181A
  8
0
 10
45.0000000000000213
 20
50.400000000000027
 30
0.0
 11
45.0000000000000213
 21
50.0
 31
0.0
  0
LINE
  5
181B
  8
0
 10
55.0000000000000284
 20
50.0
 30
0.0
 11
55.0000000000000284
 21
50.400000000000027
 31
0.0
  0
LINE
  5
181C
  8
0
 10
45.0000000000000213
 20
50.0
 30
0.0
 11
55.0000000000000284
 21
50.0
 31
0.0
  0
LINE
  5
181D
  8
0
 10
95.0000000000000284
 20
50.400000000000027
 30
0.0
 11
95.0000000000000284
 21
50.0
 31
0.0
  0
LINE
  5
181E
  8
0
 10
105.0
 20
50.0
 30
0.0
 11
105.0
 21
50.400000000000027
 31
0.0
  0
LINE
  5
181F
  8
0
 10
95.0000000000000284
 20
50.0
 30
0.0
 11
105.0
 21
50.0
 31
0.0
  0
LINE
  5
1820
  8
0
 10
115.0
 20
58.0
 30
0.0
 11
114.3914567493970935
 21
75.4263986578733352
 31
0.0
  0
LINE
  5
1821
  8
0
 10
85.6085432506028781
 20
75.4263986578733352
 30
0.0
 11
84.9999999999999858
 21
58.0
 31
0.0
  0
ARC
  5
1822
  8
0
 10
89.7539836780290869
 20
55.3333333333333073
 30
0.0
 40
2.6666666666666932
 50
357.9999999999996021
 51
90.0
  0
ARC
  5
1823
  8
0
 10
110.2460163219708988
 20
55.3333333333333073
 30
0.0
 40
2.6666666666666932
 50
90.0
 51
182.0000000000003126
  0
LINE
  5
1824
  8
0
 10
107.7499999999999005
 20
50.3999999999999773
 30
0.0
 11
107.5809741165866029
 21
55.2402680087933504
 31
0.0
  0
LINE
  5
1825
  8
0
 10
92.4190258834133544
 20
55.2402680087933504
 30
0.0
 11
92.2500000000000284
 21
50.400000000000027
 31
0.0
  0
ARC
  5
1826
  8
0
 10
111.7264145440127976
 20
75.3333333333333712
 30
0.0
 40
2.666666666666671
 50
2.000000000000385
 51
90.0000000000016058
  0
ARC
  5
1827
  8
0
 10
88.2735854559871598
 20
75.3333333333333712
 30
0.0
 40
2.666666666666671
 50
89.9999999999967457
 51
177.9999999999996021
  0
LINE
  5
1828
  8
0
 10
84.9999999999999858
 20
58.0
 30
0.0
 11
115.0
 21
58.0
 31
0.0
  0
LINE
  5
1829
  8
0
 10
86.0260842172076821
 20
75.4263986578733352
 30
0.0
 11
85.536882540272444
 21
61.5000000000000497
 31
0.0
  0
LINE
  5
182A
  8
0
 10
85.536882540272444
 20
61.5000000000000497
 30
0.0
 11
114.4631174597274992
 21
61.5000000000000497
 31
0.0
  0
LINE
  5
182B
  8
0
 10
113.9739157827923037
 20
75.4263986578733352
 30
0.0
 11
114.4631174597274992
 21
61.5000000000000497
 31
0.0
  0
LINE
  5
182C
  8
0
 10
92.2500000000000284
 20
50.3999999999999773
 30
0.0
 11
107.7499999999999005
 21
50.3999999999999773
 31
0.0
  0
LINE
  5
1830
  8
0
 10
88.2735854559872735
 20
78.0
 30
0.0
 11
88.7225438441677454
 21
78.0
 31
0.0
  0
LINE
  5
1831
  8
0
 10
111.2774561558321977
 20
78.0
 30
0.0
 11
111.7264145440126981
 21
78.0
 31
0.0
  0
CIRCLE
  5
1832
  8
0
 10
49.9999999999999716
 20
109.9999999999999005
 30
0.0
 40
15.0
  0
ARC
  5
1833
  8
0
 10
49.9999999999999716
 20
109.9999999999999005
 30
0.0
 40
14.8777773067788992
 50
283.5590254934309087
 51
76.440974506570754
  0
ARC
  5
1834
  8
0
 10
49.9999999999999716
 20
109.9999999999999005
 30
0.0
 40
14.8777773067788992
 50
103.5590254934308945
 51
256.4409745065706829
  0
ARC
  5
1835
  8
0
 10
202.7891489693498102
 20
110.0000000000016058
 30
0.0
 40
149.9999999999751026
 50
174.4668998720580078
 51
185.5331001279450902
  0
ARC
  5
1836
  8
0
 10
-102.7891489693945033
 20
109.9999999999994031
 30
0.0
 40
150.000000000019611
 50
354.4668998720579793
 51
5.5331001279419629
  0
LINE
  5
1837
  8
1
 10
66.9999999999999716
 20
109.9999999999999005
 30
0.0
 11
33.0
 21
109.9999999999999005
 31
0.0
  0
LINE
  5
1838
  8
1
 10
49.9999999999999716
 20
93.0
 30
0.0
 11
49.9999999999999716
 21
126.9999999999999005
 31
0.0
  0
LINE
  5
1839
  8
3
 10
46.7670000000000172
 20
34.0
 30
0.0
 11
46.7670000000000172
 21
49.0
 31
0.0
  0
LINE
  5
183A
  8
3
 10
46.0000000000000284
 20
50.0
 30
0.0
 11
46.7670000000000172
 21
49.0
 31
0.0
  0
LINE
  5
183B
  8
3
 10
46.0000000000000284
 20
49.0
 30
0.0
 11
54.0000000000000284
 21
49.0
 31
0.0
  0
LINE
  5
183C
  8
3
 10
53.2330000000000325
 20
34.0
 30
0.0
 11
53.2330000000000325
 21
49.0
 31
0.0
  0
LINE
  5
183D
  8
3
 10
54.0000000000000284
 20
50.0
 30
0.0
 11
53.2330000000000325
 21
49.0
 31
0.0
  0
LINE
  5
183E
  8
3
 10
96.7670000000000243
 20
34.0
 30
0.0
 11
96.7670000000000243
 21
49.0
 31
0.0
  0
LINE
  5
183F
  8
3
 10
96.0000000000000284
 20
50.0
 30
0.0
 11
96.7670000000000243
 21
49.0
 31
0.0
  0
LINE
  5
1840
  8
3
 10
96.0000000000000284
 20
49.0
 30
0.0
 11
104.0
 21
49.0
 31
0.0
  0
LINE
  5
1841
  8
3
 10
103.2330000000000041
 20
34.0
 30
0.0
 11
103.2330000000000041
 21
49.0
 31
0.0
  0
LINE
  5
1842
  8
3
 10
104.0
 20
50.0
 30
0.0
 11
103.2330000000000041
 21
49.0
 31
0.0
  0
POLYLINE
  5
185E
  8
0
 66
     1
 10
0.0
 20
0.0
 30
0.0
  0
VERTEX
  5
18CD
  8
0
 10
111.2774561558321977
 20
78.0
 30
0.0
  0
VERTEX
  5
18CE
  8
0
 10
111.3274204777287935
 20
77.9995514245455865
 30
0.0
  0
VERTEX
  5
18CF
  8
0
 10
111.3772325854191934
 20
77.9982075726821336
 30
0.0
  0
VERTEX
  5
18D0
  8
0
 10
111.4268929643485961
 20
77.9959712561593932
 30
0.0
  0
VERTEX
  5
18D1
  8
0
 10
111.4764020999618026
 20
77.9928452867270607
 30
0.0
  0
VERTEX
  5
18D2
  8
0
 10
111.5257604777038978
 20
77.9888324761348457
 30
0.0
  0
VERTEX
  5
18D3
  8
0
 10
111.5749685830200946
 20
77.9839356361325002
 30
0.0
  0
VERTEX
  5
18D4
  8
0
 10
111.6240269013552933
 20
77.9781575784697338
 30
0.0
  0
VERTEX
  5
18D5
  8
0
 10
111.6729359181544936
 20
77.9715011148962702
 30
0.0
  0
VERTEX
  5
18D6
  8
0
 10
111.7216961188627948
 20
77.9639690571618331
 30
0.0
  0
VERTEX
  5
18D7
  8
0
 10
111.7703079889253956
 20
77.9555642170161462
 30
0.0
  0
VERTEX
  5
18D8
  8
0
 10
111.8187869512904058
 20
77.946282737626035
 30
0.0
  0
VERTEX
  5
18D9
  8
0
 10
111.8671769172845956
 20
77.9361033742589058
 30
0.0
  0
VERTEX
  5
18DA
  8
0
 10
111.9154554825517067
 20
77.9250287954955496
 30
0.0
  0
VERTEX
  5
18DB
  8
0
 10
111.9635941868188951
 20
77.9130641247871125
 30
0.0
  0
VERTEX
  5
18DC
  8
0
 10
112.0115645698134017
 20
77.9002144855847263
 30
0.0
  0
VERTEX
  5
18DD
  8
0
 10
112.0593381712624961
 20
77.8864850013395227
 30
0.0
  0
VERTEX
  5
18DE
  8
0
 10
112.1068865308935045
 20
77.8718807955026477
 30
0.0
  0
VERTEX
  5
18DF
  8
0
 10
112.1541811884334976
 20
77.856406991525219
 30
0.0
  0
VERTEX
  5
18E0
  8
0
 10
112.2011936836098016
 20
77.8400687128583826
 30
0.0
  0
VERTEX
  5
18E1
  8
0
 10
112.2478955561497003
 20
77.8228710829532702
 30
0.0
  0
VERTEX
  5
18E2
  8
0
 10
112.2942558656177994
 20
77.8048208544592939
 30
0.0
  0
VERTEX
  5
18E3
  8
0
 10
112.340199134204795
 20
77.7859578869934438
 30
0.0
  0
VERTEX
  5
18E4
  8
0
 10
112.3857008403876989
 20
77.7662981172272225
 30
0.0
  0
VERTEX
  5
18E5
  8
0
 10
112.4307615006791963
 20
77.7458424208166718
 30
0.0
  0
VERTEX
  5
18E6
  8
0
 10
112.475381631592299
 20
77.7245916734178479
 30
0.0
  0
VERTEX
  5
18E7
  8
0
 10
112.5195617496398057
 20
77.702546750686821
 30
0.0
  0
VERTEX
  5
18E8
  8
0
 10
112.5633023713346006
 20
77.6797085282796331
 30
0.0
  0
VERTEX
  5
18E9
  8
0
 10
112.606604013189596
 20
77.6560778818523687
 30
0.0
  0
VERTEX
  5
18EA
  8
0
 10
112.6494671917178039
 20
77.6316556870610555
 30
0.0
  0
VERTEX
  5
18EB
  8
0
 10
112.6918924234318951
 20
77.6064428195618063
 30
0.0
  0
VERTEX
  5
18EC
  8
0
 10
112.7338802248448957
 20
77.5804401550106348
 30
0.0
  0
VERTEX
  5
18ED
  8
0
 10
112.7754536224086053
 20
77.5536213875526244
 30
0.0
  0
VERTEX
  5
18EE
  8
0
 10
112.8166278382852994
 20
77.5259587803409431
 30
0.0
  0
VERTEX
  5
18EF
  8
0
 10
112.8573678863797056
 20
77.4974776021180247
 30
0.0
  0
VERTEX
  5
18F0
  8
0
 10
112.897638227314502
 20
77.4682037414889209
 30
0.0
  0
VERTEX
  5
18F1
  8
0
 10
112.9374033217120967
 20
77.4381630870586548
 30
0.0
  0
VERTEX
  5
18F2
  8
0
 10
112.9766276301953951
 20
77.4073815274323209
 30
0.0
  0
VERTEX
  5
18F3
  8
0
 10
113.0152756133868053
 20
77.3758849512148998
 30
0.0
  0
VERTEX
  5
18F4
  8
0
 10
113.0533117319091048
 20
77.3436992470114717
 30
0.0
  0
VERTEX
  5
18F5
  8
0
 10
113.0907004463847016
 20
77.3108503034270598
 30
0.0
  0
VERTEX
  5
18F6
  8
0
 10
113.1274062174364019
 20
77.2773640090667158
 30
0.0
  0
VERTEX
  5
18F7
  8
0
 10
113.1634005176522066
 20
77.2432647832391979
 30
0.0
  0
VERTEX
  5
18F8
  8
0
 10
113.198702997000197
 20
77.2085597918866
 30
0.0
  0
VERTEX
  5
18F9
  8
0
 10
113.2333186507029978
 20
77.1732481367222647
 30
0.0
  0
VERTEX
  5
18FA
  8
0
 10
113.267246919523302
 20
77.1373292879907524
 30
0.0
  0
VERTEX
  5
18FB
  8
0
 10
113.3004872442242004
 20
77.1008027159366804
 30
0.0
  0
VERTEX
  5
18FC
  8
0
 10
113.3330390655685989
 20
77.0636678908046378
 30
0.0
  0
VERTEX
  5
18FD
  8
0
 10
113.3649018243193041
 20
77.0259242828392274
 30
0.0
  0
VERTEX
  5
18FE
  8
0
 10
113.3960749612392931
 20
76.9875713622849958
 30
0.0
  0
VERTEX
  5
18FF
  8
0
 10
113.4265579170915004
 20
76.9486085993866169
 30
0.0
  0
VERTEX
  5
1900
  8
0
 10
113.4563501326388035
 20
76.9090354643885945
 30
0.0
  0
VERTEX
  5
1901
  8
0
 10
113.4854509517572012
 20
76.8688511833574921
 30
0.0
  0
VERTEX
  5
1902
  8
0
 10
113.5138479849628936
 20
76.8280441655155641
 30
0.0
  0
VERTEX
  5
1903
  8
0
 10
113.5415182529768998
 20
76.7866349402334976
 30
0.0
  0
VERTEX
  5
1904
  8
0
 10
113.5684409390301965
 20
76.7446608319654757
 30
0.0
  0
VERTEX
  5
1905
  8
0
 10
113.5945952263539027
 20
76.7021591651656394
 30
0.0
  0
VERTEX
  5
1906
  8
0
 10
113.6199602981789951
 20
76.6591672642881434
 30
0.0
  0
VERTEX
  5
1907
  8
0
 10
113.6445153377364932
 20
76.6157224537871997
 30
0.0
  0
VERTEX
  5
1908
  8
0
 10
113.6682395282574021
 20
76.5718620581169205
 30
0.0
  0
VERTEX
  5
1909
  8
0
 10
113.6911120529726986
 20
76.5276234017315033
 30
0.0
  0
VERTEX
  5
190A
  8
0
 10
113.7131120951134022
 20
76.4830438090850748
 30
0.0
  0
VERTEX
  5
190B
  8
0
 10
113.7342188379106034
 20
76.4381606046318325
 30
0.0
  0
VERTEX
  5
190C
  8
0
 10
113.7544352521603059
 20
76.3929653962335351
 30
0.0
  0
VERTEX
  5
190D
  8
0
 10
113.7738063026068005
 20
76.3473730204809016
 30
0.0
  0
VERTEX
  5
190E
  8
0
 10
113.7923286164122061
 20
76.3013949071381603
 30
0.0
  0
VERTEX
  5
190F
  8
0
 10
113.8099963334743023
 20
76.255047346485
 30
0.0
  0
VERTEX
  5
1910
  8
0
 10
113.8268035936907978
 20
76.2083466288010527
 30
0.0
  0
VERTEX
  5
1911
  8
0
 10
113.8427445369596995
 20
76.1613090443659928
 30
0.0
  0
VERTEX
  5
1912
  8
0
 10
113.8578133031787019
 20
76.1139508834594807
 30
0.0
  0
VERTEX
  5
1913
  8
0
 10
113.8720040322456981
 20
76.0662884363611482
 30
0.0
  0
VERTEX
  5
1914
  8
0
 10
113.8853108640584963
 20
76.0183379933506842
 30
0.0
  0
VERTEX
  5
1915
  8
0
 10
113.8977279385149046
 20
75.9701158447077347
 30
0.0
  0
VERTEX
  5
1916
  8
0
 10
113.9092493955127026
 20
75.9216382807119601
 30
0.0
  0
VERTEX
  5
1917
  8
0
 10
113.9198693749498972
 20
75.8729215916430064
 30
0.0
  0
VERTEX
  5
1918
  8
0
 10
113.9295820167240976
 20
75.8239820677805341
 30
0.0
  0
VERTEX
  5
1919
  8
0
 10
113.9383814607331971
 20
75.7748359994042033
 30
0.0
  0
VERTEX
  5
191A
  8
0
 10
113.9462618468751032
 20
75.725499676793703
 30
0.0
  0
VERTEX
  5
191B
  8
0
 10
113.9532173150475955
 20
75.6759893902286507
 30
0.0
  0
VERTEX
  5
191C
  8
0
 10
113.959242005148397
 20
75.626321429988721
 30
0.0
  0
VERTEX
  5
191D
  8
0
 10
113.9643300570755002
 20
75.5765120863535458
 30
0.0
  0
VERTEX
  5
191E
  8
0
 10
113.9684756107265997
 20
75.526577649602828
 30
0.0
  0
VERTEX
  5
191F
  8
0
 10
113.9716728059996029
 20
75.4765344100161997
 30
0.0
  0
VERTEX
  5
1920
  8
0
 10
113.9739157827923037
 20
75.426398657873321
 30
0.0
  0
SEQEND
  5
1921
  8
0
  0
POLYLINE
  5
185F
  8
0
 66
     1
 10
0.0
 20
0.0
 30
0.0
  0
VERTEX
  5
1922
  8
0
 10
88.7225438441677454
 20
78.0
 30
0.0
  0
VERTEX
  5
1923
  8
0
 10
89.427384853907256
 20
77.9118946933819814
 30
0.0
  0
VERTEX
  5
1924
  8
0
 10
90.1322258636467666
 20
77.8295578617910451
 30
0.0
  0
VERTEX
  5
1925
  8
0
 10
90.8370668733862772
 20
77.7529778786132511
 30
0.0
  0
VERTEX
  5
1926
  8
0
 10
91.5419078831258162
 20
77.6821431172346166
 30
0.0
  0
VERTEX
  5
1927
  8
0
 10
92.2467488928653268
 20
77.6170419510411733
 30
0.0
  0
VERTEX
  5
1928
  8
0
 10
92.9515899026048373
 20
77.5576627534189811
 30
0.0
  0
VERTEX
  5
1929
  8
0
 10
93.6564309123443479
 20
77.5039938977540714
 30
0.0
  0
VERTEX
  5
192A
  8
0
 10
94.3612719220838585
 20
77.4560237574324617
 30
0.0
  0
VERTEX
  5
192B
  8
0
 10
95.0661129318233549
 20
77.4137407058402118
 30
0.0
  0
VERTEX
  5
192C
  8
0
 10
95.7709539415628655
 20
77.3771331163633249
 30
0.0
  0
VERTEX
  5
192D
  8
0
 10
96.4757949513023902
 20
77.3461893623878751
 30
0.0
  0
VERTEX
  5
192E
  8
0
 10
97.1806359610419008
 20
77.3208978172999082
 30
0.0
  0
VERTEX
  5
192F
  8
0
 10
97.8854769707814256
 20
77.301246854485413
 30
0.0
  0
VERTEX
  5
1930
  8
0
 10
98.5903179805209504
 20
77.2872248473304637
 30
0.0
  0
VERTEX
  5
1931
  8
0
 10
99.295158990260461
 20
77.2788201692210777
 30
0.0
  0
VERTEX
  5
1932
  8
0
 10
100.0
 20
77.2760211935432864
 30
0.0
  0
VERTEX
  5
1933
  8
0
 10
100.7048410097394964
 20
77.2788201692211345
 30
0.0
  0
VERTEX
  5
1934
  8
0
 10
101.409682019479007
 20
77.2872248473305916
 30
0.0
  0
VERTEX
  5
1935
  8
0
 10
102.1145230292185033
 20
77.3012468544856119
 30
0.0
  0
VERTEX
  5
1936
  8
0
 10
102.8193640389580992
 20
77.320897817300164
 30
0.0
  0
VERTEX
  5
1937
  8
0
 10
103.5242050486975955
 20
77.3461893623882162
 30
0.0
  0
VERTEX
  5
1938
  8
0
 10
104.2290460584371061
 20
77.3771331163637228
 30
0.0
  0
VERTEX
  5
1939
  8
0
 10
104.9338870681766025
 20
77.4137407058406524
 30
0.0
  0
VERTEX
  5
193A
  8
0
 10
105.6387280779160989
 20
77.4560237574329449
 30
0.0
  0
VERTEX
  5
193B
  8
0
 10
106.3435690876556947
 20
77.5039938977546115
 30
0.0
  0
VERTEX
  5
193C
  8
0
 10
107.0484100973952053
 20
77.5576627534195779
 30
0.0
  0
VERTEX
  5
193D
  8
0
 10
107.7532511071347017
 20
77.6170419510418128
 30
0.0
  0
VERTEX
  5
193E
  8
0
 10
108.458092116874198
 20
77.6821431172352703
 30
0.0
  0
VERTEX
  5
193F
  8
0
 10
109.1629331266137939
 20
77.7529778786139332
 30
0.0
  0
VERTEX
  5
1940
  8
0
 10
109.8677741363533045
 20
77.8295578617917556
 30
0.0
  0
VERTEX
  5
1941
  8
0
 10
110.5726151460928008
 20
77.9118946933827061
 30
0.0
  0
VERTEX
  5
1942
  8
0
 10
111.2774561558322972
 20
78.000000000000739
 30
0.0
  0
SEQEND
  5
1943
  8
0
  0
POLYLINE
  5
1860
  8
0
 66
     1
 10
0.0
 20
0.0
 30
0.0
  0
VERTEX
  5
1944
  8
0
 10
86.0260842172076821
 20
75.4263986578733352
 30
0.0
  0
VERTEX
  5
1945
  8
0
 10
86.0283146876890612
 20
75.476461395254816
 30
0.0
  0
VERTEX
  5
1946
  8
0
 10
86.0314769054352553
 20
75.5263302343331446
 30
0.0
  0
VERTEX
  5
1947
  8
0
 10
86.0355670688975636
 20
75.5760059685306658
 30
0.0
  0
VERTEX
  5
1948
  8
0
 10
86.0405813765271859
 20
75.6254893912696389
 30
0.0
  0
VERTEX
  5
1949
  8
0
 10
86.0465160267754925
 20
75.6747812959723944
 30
0.0
  0
VERTEX
  5
194A
  8
0
 10
86.0533672180936833
 20
75.7238824760612346
 30
0.0
  0
VERTEX
  5
194B
  8
0
 10
86.0611311489330859
 20
75.7727937249584329
 30
0.0
  0
VERTEX
  5
194C
  8
0
 10
86.069804017744957
 20
75.8215158360863768
 30
0.0
  0
VERTEX
  5
194D
  8
0
 10
86.0793820229805817
 20
75.8700496028672973
 30
0.0
  0
VERTEX
  5
194E
  8
0
 10
86.0898613630912166
 20
75.9183958187235248
 30
0.0
  0
VERTEX
  5
194F
  8
0
 10
86.1012471350961448
 20
75.9665720935589235
 30
0.0
  0
VERTEX
  5
1950
  8
0
 10
86.1135661989091687
 20
76.0146268919696269
 30
0.0
  0
VERTEX
  5
1951
  8
0
 10
86.1268117497656078
 20
76.0625325373540733
 30
0.0
  0
VERTEX
  5
1952
  8
0
 10
86.140973630455477
 20
76.1102544706023565
 30
0.0
  0
VERTEX
  5
1953
  8
0
 10
86.1560416837688052
 20
76.1577581326045987
 30
0.0
  0
VERTEX
  5
1954
  8
0
 10
86.1720057524955934
 20
76.2050089642509079
 30
0.0
  0
VERTEX
  5
1955
  8
0
 10
86.1888556794258704
 20
76.2519724064313777
 30
0.0
  0
VERTEX
  5
1956
  8
0
 10
86.2065813073496656
 20
76.2986139000361021
 30
0.0
  0
VERTEX
  5
1957
  8
0
 10
86.2251724790569938
 20
76.3448988859552031
 30
0.0
  0
VERTEX
  5
1958
  8
0
 10
86.2446190373378272
 20
76.3907928050787746
 30
0.0
  0
VERTEX
  5
1959
  8
0
 10
86.264909600674315
 20
76.4362602565733624
 30
0.0
  0
VERTEX
  5
195A
  8
0
 10
86.2860094240305244
 20
76.4812573487516119
 30
0.0
  0
VERTEX
  5
195B
  8
0
 10
86.3079054988050558
 20
76.5257739119800391
 30
0.0
  0
VERTEX
  5
195C
  8
0
 10
86.330596680069263
 20
76.5698106588603906
 30
0.0
  0
VERTEX
  5
195D
  8
0
 10
86.3540818228944289
 20
76.6133683019944129
 30
0.0
  0
VERTEX
  5
195E
  8
0
 10
86.3783597823518221
 20
76.6564475539839236
 30
0.0
  0
VERTEX
  5
195F
  8
0
 10
86.4034294135127823
 20
76.6990491274306549
 30
0.0
  0
VERTEX
  5
1960
  8
0
 10
86.4292895714485496
 20
76.7411737349363818
 30
0.0
  0
VERTEX
  5
1961
  8
0
 10
86.4559391112304638
 20
76.7828220891028508
 30
0.0
  0
VERTEX
  5
1962
  8
0
 10
86.4833768879298361
 20
76.8239949025318367
 30
0.0
  0
VERTEX
  5
1963
  8
0
 10
86.5116017566178925
 20
76.8646928878251003
 30
0.0
  0
VERTEX
  5
1964
  8
0
 10
86.5406326816309672
 20
76.9049260943505573
 30
0.0
  0
VERTEX
  5
1965
  8
0
 10
86.5704837262475735
 20
76.9446903031816873
 30
0.0
  0
VERTEX
  5
1966
  8
0
 10
86.6011255544123486
 20
76.983952723448823
 30
0.0
  0
VERTEX
  5
1967
  8
0
 10
86.6325283449993151
 20
77.0226802857621635
 30
0.0
  0
VERTEX
  5
1968
  8
0
 10
86.6646622768822965
 20
77.0608399207319081
 30
0.0
  0
VERTEX
  5
1969
  8
0
 10
86.6974975289352301
 20
77.0983985589682135
 30
0.0
  0
VERTEX
  5
196A
  8
0
 10
86.7310042800320673
 20
77.135323131081293
 30
0.0
  0
VERTEX
  5
196B
  8
0
 10
86.7651527090466743
 20
77.1715805676813318
 30
0.0
  0
VERTEX
  5
196C
  8
0
 10
86.7999129948529884
 20
77.2071377993785006
 30
0.0
  0
VERTEX
  5
196D
  8
0
 10
86.8352553163249468
 20
77.241961756783013
 30
0.0
  0
VERTEX
  5
196E
  8
0
 10
86.8711560516893257
 20
77.2760304109661007
 30
0.0
  0
VERTEX
  5
196F
  8
0
 10
86.9076340007632382
 20
77.3093890629075418
 30
0.0
  0
VERTEX
  5
1970
  8
0
 10
86.9446947385504956
 20
77.3420466764423509
 30
0.0
  0
VERTEX
  5
1971
  8
0
 10
86.9823389101271687
 20
77.3740025224559531
 30
0.0
  0
VERTEX
  5
1972
  8
0
 10
87.0205671605692856
 20
77.4052558718337593
 30
0.0
  0
VERTEX
  5
1973
  8
0
 10
87.0593801349528462
 20
77.4358059954611804
 30
0.0
  0
VERTEX
  5
1974
  8
0
 10
87.098778478353907
 20
77.4656521642236271
 30
0.0
  0
VERTEX
  5
1975
  8
0
 10
87.1387628358485529
 20
77.4947936490065246
 30
0.0
  0
VERTEX
  5
1976
  8
0
 10
87.179333852512741
 20
77.5232297206952694
 30
0.0
  0
VERTEX
  5
1977
  8
0
 10
87.2204921734225422
 20
77.5509596501753009
 30
0.0
  0
VERTEX
  5
1978
  8
0
 10
87.2622378356470279
 20
77.577982154793375
 30
0.0
  0
VERTEX
  5
1979
  8
0
 10
87.3045184683556243
 20
77.6042514075151786
 30
0.0
  0
VERTEX
  5
197A
  8
0
 10
87.3472817995109665
 20
77.6297316072040076
 30
0.0
  0
VERTEX
  5
197B
  8
0
 10
87.3905019669877845
 20
77.6544129134801295
 30
0.0
  0
VERTEX
  5
197C
  8
0
 10
87.4341531086609649
 20
77.6782854859638263
 30
0.0
  0
VERTEX
  5
197D
  8
0
 10
87.4782093624053374
 20
77.7013394842753371
 30
0.0
  0
VERTEX
  5
197E
  8
0
 10
87.5226448660957601
 20
77.7235650680349437
 30
0.0
  0
VERTEX
  5
197F
  8
0
 10
87.5674337576070059
 20
77.7449523968628995
 30
0.0
  0
VERTEX
  5
1980
  8
0
 10
87.612550174813947
 20
77.7654916303794863
 30
0.0
  0
VERTEX
  5
1981
  8
0
 10
87.6579682555913848
 20
77.7851729282049433
 30
0.0
  0
VERTEX
  5
1982
  8
0
 10
87.7036621378141774
 20
77.8039864499595666
 30
0.0
  0
VERTEX
  5
1983
  8
0
 10
87.749642602889665
 20
77.821936218625595
 30
0.0
  0
VERTEX
  5
1984
  8
0
 10
87.7959781107252439
 20
77.8390491988340756
 30
0.0
  0
VERTEX
  5
1985
  8
0
 10
87.8426560778536611
 20
77.8553227455849566
 30
0.0
  0
VERTEX
  5
1986
  8
0
 10
87.8896599462212862
 20
77.8707527330310114
 30
0.0
  0
VERTEX
  5
1987
  8
0
 10
87.9369731577745455
 20
77.8853350353249994
 30
0.0
  0
VERTEX
  5
1988
  8
0
 10
87.9845791544599365
 20
77.8990655266196654
 30
0.0
  0
VERTEX
  5
1989
  8
0
 10
88.0324613782238146
 20
77.9119400810677831
 30
0.0
  0
VERTEX
  5
198A
  8
0
 10
88.0806032710126772
 20
77.9239545728221117
 30
0.0
  0
VERTEX
  5
198B
  8
0
 10
88.1289882747729223
 20
77.9351048760354246
 30
0.0
  0
VERTEX
  5
198C
  8
0
 10
88.1775998314510048
 20
77.9453868648604669
 30
0.0
  0
VERTEX
  5
198D
  8
0
 10
88.2264213829933368
 20
77.9547964134499978
 30
0.0
  0
VERTEX
  5
198E
  8
0
 10
88.2754363713464159
 20
77.9633293959567766
 30
0.0
  0
VERTEX
  5
198F
  8
0
 10
88.3246282384566257
 20
77.970981686533591
 30
0.0
  0
VERTEX
  5
1990
  8
0
 10
88.373980426270407
 20
77.977749159333186
 30
0.0
  0
VERTEX
  5
1991
  8
0
 10
88.423476376734186
 20
77.9836276885083066
 30
0.0
  0
VERTEX
  5
1992
  8
0
 10
88.4730995317944462
 20
77.9886131482117406
 30
0.0
  0
VERTEX
  5
1993
  8
0
 10
88.5228333333975854
 20
77.992701412596233
 30
0.0
  0
VERTEX
  5
1994
  8
0
 10
88.5726612234900585
 20
77.995888355814543
 30
0.0
  0
VERTEX
  5
1995
  8
0
 10
88.6225666440182636
 20
77.9981698520194442
 30
0.0
  0
VERTEX
  5
1996
  8
0
 10
88.6725330369286837
 20
77.9995417753636957
 30
0.0
  0
VERTEX
  5
1997
  8
0
 10
88.7225438441677454
 20
78.0000000000000568
 30
0.0
  0
SEQEND
  5
1998
  8
0
  0
POLYLINE
  5
1861
  8
0
 66
     1
 10
0.0
 20
0.0
 30
0.0
  0
VERTEX
  5
1999
  8
0
 10
46.5606462024456604
 20
76.0697989934050156
 30
0.0
  0
VERTEX
  5
199A
  8
0
 10
46.5608352154410667
 20
76.1136463702776354
 30
0.0
  0
VERTEX
  5
199B
  8
0
 10
46.5611132452550791
 20
76.1572953900419236
 30
0.0
  0
VERTEX
  5
199C
  8
0
 10
46.5614797570271435
 20
76.2007470055719551
 30
0.0
  0
VERTEX
  5
199D
  8
0
 10
46.5619342158968266
 20
76.2440021697418189
 30
0.0
  0
VERTEX
  5
199E
  8
0
 10
46.5624760870035672
 20
76.2870618354255612
 30
0.0
  0
VERTEX
  5
199F
  8
0
 10
46.5631048354869321
 20
76.329926955497271
 30
0.0
  0
VERTEX
  5
19A0
  8
0
 10
46.563819926486417
 20
76.3725984828309947
 30
0.0
  0
VERTEX
  5
19A1
  8
0
 10
46.5646208251415032
 20
76.4150773703008355
 30
0.0
  0
VERTEX
  5
19A2
  8
0
 10
46.5655070308732775
 20
76.4573653029422076
 30
0.0
  0
VERTEX
  5
19A3
  8
0
 10
46.5664805045239234
 20
76.4995114532103599
 30
0.0
  0
VERTEX
  5
19A4
  8
0
 10
46.5675416537929721
 20
76.5415158867164678
 30
0.0
  0
VERTEX
  5
19A5
  8
0
 10
46.5686890987504611
 20
76.5833374158654436
 30
0.0
  0
VERTEX
  5
19A6
  8
0
 10
46.5699214594664284
 20
76.6249348530622143
 30
0.0
  0
VERTEX
  5
19A7
  8
0
 10
46.5712373560108901
 20
76.6662670107116639
 30
0.0
  0
VERTEX
  5
19A8
  8
0
 10
46.5726354084539125
 20
76.7072927012187051
 30
0.0
  0
VERTEX
  5
19A9
  8
0
 10
46.5741142368654835
 20
76.7479707369882505
 30
0.0
  0
VERTEX
  5
19AA
  8
0
 10
46.5756724613156265
 20
76.7882599304251983
 30
0.0
  0
VERTEX
  5
19AB
  8
0
 10
46.5773085855319096
 20
76.8281182126103488
 30
0.0
  0
VERTEX
  5
19AC
  8
0
 10
46.579018903488361
 20
76.8674959611731623
 30
0.0
  0
VERTEX
  5
19AD
  8
0
 10
46.5808018005403994
 20
76.9063821777576351
 30
0.0
  0
VERTEX
  5
19AE
  8
0
 10
46.5826567931639701
 20
76.9447777394927499
 30
0.0
  0
VERTEX
  5
19AF
  8
0
 10
46.5845833978351322
 20
76.9826835235074753
 30
0.0
  0
VERTEX
  5
19B0
  8
0
 10
46.5865811310298383
 20
77.0201004069307942
 30
0.0
  0
VERTEX
  5
19B1
  8
0
 10
46.5886495092240622
 20
77.057029266891675
 30
0.0
  0
VERTEX
  5
19B2
  8
0
 10
46.5907880488938417
 20
77.0934709805191005
 30
0.0
  0
VERTEX
  5
19B3
  8
0
 10
46.5929962665151365
 20
77.1294264249420394
 30
0.0
  0
VERTEX
  5
19B4
  8
0
 10
46.5952740404331109
 20
77.1648986563578347
 30
0.0
  0
VERTEX
  5
19B5
  8
0
 10
46.5976236783254834
 20
77.1998985505846349
 30
0.0
  0
VERTEX
  5
19B6
  8
0
 10
46.6000427695710684
 20
77.2343951781446094
 30
0.0
  0
VERTEX
  5
19B7
  8
0
 10
46.6025276941583115
 20
77.2683489201315012
 30
0.0
  0
VERTEX
  5
19B8
  8
0
 10
46.6050748320755517
 20
77.301720157639096
 30
0.0
  0
VERTEX
  5
19B9
  8
0
 10
46.6076805633111917
 20
77.3344692717611935
 30
0.0
  0
VERTEX
  5
19BA
  8
0
 10
46.6103412678535776
 20
77.3665566435915792
 30
0.0
  0
VERTEX
  5
19BB
  8
0
 10
46.6130533256911121
 20
77.3979426542240247
 30
0.0
  0
VERTEX
  5
19BC
  8
0
 10
46.6158131168121699
 20
77.4285876847523298
 30
0.0
  0
VERTEX
  5
19BD
  8
0
 10
46.6186185225664573
 20
77.4584685747234971
 30
0.0
  0
VERTEX
  5
19BE
  8
0
 10
46.6214754460249594
 20
77.487654627728304
 30
0.0
  0
VERTEX
  5
19BF
  8
0
 10
46.6243830844298301
 20
77.5161486778569468
 30
0.0
  0
VERTEX
  5
19C0
  8
0
 10
46.6273391908746575
 20
77.5439382309439083
 30
0.0
  0
VERTEX
  5
19C1
  8
0
 10
46.6303415184530081
 20
77.5710107928237278
 30
0.0
  0
VERTEX
  5
19C2
  8
0
 10
46.6333878202583776
 20
77.5973538693308598
 30
0.0
  0
VERTEX
  5
19C3
  8
0
 10
46.6364758493843965
 20
77.6229549662998437
 30
0.0
  0
VERTEX
  5
19C4
  8
0
 10
46.6396033589245391
 20
77.6478015895651765
 30
0.0
  0
VERTEX
  5
19C5
  8
0
 10
46.6427681019724787
 20
77.6718812449613552
 30
0.0
  0
VERTEX
  5
19C6
  8
0
 10
46.6459678316216682
 20
77.6951814383228765
 30
0.0
  0
VERTEX
  5
19C7
  8
0
 10
46.649200300965731
 20
77.7176896754842375
 30
0.0
  0
VERTEX
  5
19C8
  8
0
 10
46.652463263098177
 20
77.7393934622799634
 30
0.0
  0
VERTEX
  5
19C9
  8
0
 10
46.6557544711126013
 20
77.760280304544537
 30
0.0
  0
VERTEX
  5
19CA
  8
0
 10
46.6590716781025208
 20
77.7803377081124694
 30
0.0
  0
VERTEX
  5
19CB
  8
0
 10
46.6624126371615588
 20
77.7995531788182433
 30
0.0
  0
VERTEX
  5
19CC
  8
0
 10
46.6657751013832183
 20
77.8179142224964124
 30
0.0
  0
VERTEX
  5
19CD
  8
0
 10
46.6691568238610728
 20
77.8354083449814169
 30
0.0
  0
VERTEX
  5
19CE
  8
0
 10
46.6725555576886677
 20
77.8520230521077963
 30
0.0
  0
VERTEX
  5
19CF
  8
0
 10
46.6759709751108289
 20
77.8677584077093172
 30
0.0
  0
VERTEX
  5
19D0
  8
0
 10
46.6794057443812207
 20
77.8826363325182029
 30
0.0
  0
VERTEX
  5
19D1
  8
0
 10
46.6828582659274218
 20
77.8966529352283743
 30
0.0
  0
VERTEX
  5
19D2
  8
0
 10
46.6863267315073927
 20
77.909803005069179
 30
0.0
  0
VERTEX
  5
19D3
  8
0
 10
46.6898093328790367
 20
77.9220813312699931
 30
0.0
  0
VERTEX
  5
19D4
  8
0
 10
46.6933042618003284
 20
77.9334827030601645
 30
0.0
  0
VERTEX
  5
19D5
  8
0
 10
46.6968097100292425
 20
77.9440019096690548
 30
0.0
  0
VERTEX
  5
19D6
  8
0
 10
46.7003238693236824
 20
77.9536337403260404
 30
0.0
  0
VERTEX
  5
19D7
  8
0
 10
46.7038449314416084
 20
77.9623729842604689
 30
0.0
  0
VERTEX
  5
19D8
  8
0
 10
46.7073710881409667
 20
77.9702144307017022
 30
0.0
  0
VERTEX
  5
19D9
  8
0
 10
46.7109005311797034
 20
77.9771528688791022
 30
0.0
  0
VERTEX
  5
19DA
  8
0
 10
46.7144314523157718
 20
77.9831830880220451
 30
0.0
  0
VERTEX
  5
19DB
  8
0
 10
46.7179620433071179
 20
77.9882998773598644
 30
0.0
  0
VERTEX
  5
19DC
  8
0
 10
46.7214904959116879
 20
77.9924980261219361
 30
0.0
  0
VERTEX
  5
19DD
  8
0
 10
46.7250150018874422
 20
77.9957723235376363
 30
0.0
  0
VERTEX
  5
19DE
  8
0
 10
46.7285337529923197
 20
77.9981175588362987
 30
0.0
  0
VERTEX
  5
19DF
  8
0
 10
46.7320449409842169
 20
77.9995285212472993
 30
0.0
  0
VERTEX
  5
19E0
  8
0
 10
46.7355467576211581
 20
78.0
 30
0.0
  0
SEQEND
  5
19E1
  8
0
  0
POLYLINE
  5
1862
  8
0
 66
     1
 10
0.0
 20
0.0
 30
0.0
  0
VERTEX
  5
19E2
  8
0
 10
53.4393537975539914
 20
76.0697989934050156
 30
0.0
  0
VERTEX
  5
19E3
  8
0
 10
53.4391647845585567
 20
76.1136463702776354
 30
0.0
  0
VERTEX
  5
19E4
  8
0
 10
53.4388867547445727
 20
76.1572953900419378
 30
0.0
  0
VERTEX
  5
19E5
  8
0
 10
53.4385202429724799
 20
76.2007470055719835
 30
0.0
  0
VERTEX
  5
19E6
  8
0
 10
53.4380657841027968
 20
76.2440021697418331
 30
0.0
  0
VERTEX
  5
19E7
  8
0
 10
53.4375239129960207
 20
76.2870618354256038
 30
0.0
  0
VERTEX
  5
19E8
  8
0
 10
53.4368951645126273
 20
76.3299269554973137
 30
0.0
  0
VERTEX
  5
19E9
  8
0
 10
53.4361800735131283
 20
76.3725984828310516
 30
0.0
  0
VERTEX
  5
19EA
  8
0
 10
53.435379174858042
 20
76.4150773703008923
 30
0.0
  0
VERTEX
  5
19EB
  8
0
 10
53.4344929691262678
 20
76.4573653029422786
 30
0.0
  0
VERTEX
  5
19EC
  8
0
 10
53.4335194954756219
 20
76.499511453210431
 30
0.0
  0
VERTEX
  5
19ED
  8
0
 10
53.4324583462065732
 20
76.5415158867165246
 30
0.0
  0
VERTEX
  5
19EE
  8
0
 10
53.4313109012490983
 20
76.5833374158655005
 30
0.0
  0
VERTEX
  5
19EF
  8
0
 10
53.4300785405331524
 20
76.6249348530622569
 30
0.0
  0
VERTEX
  5
19F0
  8
0
 10
53.4287626439886694
 20
76.6662670107117066
 30
0.0
  0
VERTEX
  5
19F1
  8
0
 10
53.4273645915456825
 20
76.7072927012187336
 30
0.0
  0
VERTEX
  5
19F2
  8
0
 10
53.4258857631341399
 20
76.7479707369882789
 30
0.0
  0
VERTEX
  5
19F3
  8
0
 10
53.4243275386839684
 20
76.7882599304252409
 30
0.0
  0
VERTEX
  5
19F4
  8
0
 10
53.422691414467721
 20
76.828118212610363
 30
0.0
  0
VERTEX
  5
19F5
  8
0
 10
53.4209810965112695
 20
76.8674959611731907
 30
0.0
  0
VERTEX
  5
19F6
  8
0
 10
53.4191981994592311
 20
76.9063821777576635
 30
0.0
  0
VERTEX
  5
19F7
  8
0
 10
53.4173432068356533
 20
76.9447777394927783
 30
0.0
  0
VERTEX
  5
19F8
  8
0
 10
53.4154166021644912
 20
76.9826835235075038
 30
0.0
  0
VERTEX
  5
19F9
  8
0
 10
53.413418868969778
 20
77.0201004069308084
 30
0.0
  0
VERTEX
  5
19FA
  8
0
 10
53.4113504907755328
 20
77.0570292668916892
 30
0.0
  0
VERTEX
  5
19FB
  8
0
 10
53.4092119511057604
 20
77.0934709805191005
 30
0.0
  0
VERTEX
  5
19FC
  8
0
 10
53.4070037334844585
 20
77.1294264249420394
 30
0.0
  0
VERTEX
  5
19FD
  8
0
 10
53.4047259595664912
 20
77.1648986563578347
 30
0.0
  0
VERTEX
  5
19FE
  8
0
 10
53.4023763216741187
 20
77.1998985505846349
 30
0.0
  0
VERTEX
  5
19FF
  8
0
 10
53.3999572304285266
 20
77.2343951781446094
 30
0.0
  0
VERTEX
  5
1A00
  8
0
 10
53.397472305841319
 20
77.2683489201315012
 30
0.0
  0
VERTEX
  5
1A01
  8
0
 10
53.3949251679240717
 20
77.301720157639096
 30
0.0
  0
VERTEX
  5
1A02
  8
0
 10
53.3923194366884388
 20
77.3344692717611935
 30
0.0
  0
VERTEX
  5
1A03
  8
0
 10
53.3896587321460814
 20
77.3665566435915792
 30
0.0
  0
VERTEX
  5
1A04
  8
0
 10
53.3869466743085184
 20
77.3979426542240247
 30
0.0
  0
VERTEX
  5
1A05
  8
0
 10
53.384186883187482
 20
77.428587684752344
 30
0.0
  0
VERTEX
  5
1A06
  8
0
 10
53.381381477433159
 20
77.4584685747235113
 30
0.0
  0
VERTEX
  5
1A07
  8
0
 10
53.3785245539746711
 20
77.4876546277283182
 30
0.0
  0
VERTEX
  5
1A08
  8
0
 10
53.3756169155697719
 20
77.5161486778569611
 30
0.0
  0
VERTEX
  5
1A09
  8
0
 10
53.3726608091249375
 20
77.5439382309439367
 30
0.0
  0
VERTEX
  5
1A0A
  8
0
 10
53.3696584815465869
 20
77.571010792823742
 30
0.0
  0
VERTEX
  5
1A0B
  8
0
 10
53.3666121797412174
 20
77.5973538693308882
 30
0.0
  0
VERTEX
  5
1A0C
  8
0
 10
53.3635241506151985
 20
77.6229549662998721
 30
0.0
  0
VERTEX
  5
1A0D
  8
0
 10
53.3603966410750203
 20
77.6478015895652049
 30
0.0
  0
VERTEX
  5
1A0E
  8
0
 10
53.3572318980271021
 20
77.6718812449613552
 30
0.0
  0
VERTEX
  5
1A0F
  8
0
 10
53.3540321683778913
 20
77.6951814383228907
 30
0.0
  0
VERTEX
  5
1A10
  8
0
 10
53.3507996990338427
 20
77.7176896754842517
 30
0.0
  0
VERTEX
  5
1A11
  8
0
 10
53.3475367369013895
 20
77.7393934622799634
 30
0.0
  0
VERTEX
  5
1A12
  8
0
 10
53.3442455288869724
 20
77.760280304544537
 30
0.0
  0
VERTEX
  5
1A13
  8
0
 10
53.3409283218970174
 20
77.7803377081124694
 30
0.0
  0
VERTEX
  5
1A14
  8
0
 10
53.3375873628380077
 20
77.7995531788182433
 30
0.0
  0
VERTEX
  5
1A15
  8
0
 10
53.3342248986163625
 20
77.817914222496384
 30
0.0
  0
VERTEX
  5
1A16
  8
0
 10
53.3308431761385009
 20
77.8354083449814027
 30
0.0
  0
VERTEX
  5
1A17
  8
0
 10
53.3274444423108989
 20
77.8520230521077821
 30
0.0
  0
VERTEX
  5
1A18
  8
0
 10
53.3240290248887376
 20
77.8677584077093172
 30
0.0
  0
VERTEX
  5
1A19
  8
0
 10
53.3205942556183388
 20
77.8826363325182029
 30
0.0
  0
VERTEX
  5
1A1A
  8
0
 10
53.3171417340721518
 20
77.8966529352283743
 30
0.0
  0
VERTEX
  5
1A1B
  8
0
 10
53.3136732684922094
 20
77.9098030050691932
 30
0.0
  0
VERTEX
  5
1A1C
  8
0
 10
53.310190667120537
 20
77.9220813312699931
 30
0.0
  0
VERTEX
  5
1A1D
  8
0
 10
53.3066957381992381
 20
77.9334827030601787
 30
0.0
  0
VERTEX
  5
1A1E
  8
0
 10
53.3031902899703596
 20
77.9440019096690833
 30
0.0
  0
VERTEX
  5
1A1F
  8
0
 10
53.2996761306759197
 20
77.9536337403260688
 30
0.0
  0
VERTEX
  5
1A20
  8
0
 10
53.2961550685579866
 20
77.9623729842604831
 30
0.0
  0
VERTEX
  5
1A21
  8
0
 10
53.2926289118586212
 20
77.9702144307017306
 30
0.0
  0
VERTEX
  5
1A22
  8
0
 10
53.2890994688198987
 20
77.9771528688791449
 30
0.0
  0
VERTEX
  5
1A23
  8
0
 10
53.2855685476838303
 20
77.9831830880220735
 30
0.0
  0
VERTEX
  5
1A24
  8
0
 10
53.2820379566924771
 20
77.988299877359907
 30
0.0
  0
VERTEX
  5
1A25
  8
0
 10
53.2785095040879071
 20
77.9924980261219929
 30
0.0
  0
VERTEX
  5
1A26
  8
0
 10
53.2749849981121599
 20
77.995772323537679
 30
0.0
  0
VERTEX
  5
1A27
  8
0
 10
53.2714662470072824
 20
77.9981175588363556
 30
0.0
  0
VERTEX
  5
1A28
  8
0
 10
53.2679550590153781
 20
77.9995285212473561
 30
0.0
  0
VERTEX
  5
1A29
  8
0
 10
53.2644532423784369
 20
78.0000000000000568
 30
0.0
  0
SEQEND
  5
1A2A
  8
0
  0
ENDSEC
  0
EOF
