  0
SECTION
  2
HEADER
  9
$ACADVER
  1
AC1009
  9
$INSBASE
 10
0.0
 20
0.0
 30
0.0
  9
$EXTMIN
 10
0.0
 20
-1.4802182810368341
 30
0.0
  9
$EXTMAX
 10
310.79028553575807
 20
273.1283753360002
 30
0.0
  9
$LIMMIN
 10
0.0
 20
0.0
  9
$LIMMAX
 10
187.5
 20
135.0
  9
$ORTHOMODE
 70
     1
  9
$REGENMODE
 70
     1
  9
$FILLMODE
 70
     1
  9
$QTEXTMODE
 70
     0
  9
$MIRRTEXT
 70
     0
  9
$DRAGMODE
 70
     2
  9
$LTSCALE
 40
10.0
  9
$OSMODE
 70
  3071
  9
$ATTMODE
 70
     1
  9
$TEXTSIZE
 40
4.0
  9
$TRACEWID
 40
0.05
  9
$TEXTSTYLE
  7
STANDARD
  9
$CLAYER
  8
0
  9
$CELTYPE
  6
BYLAYER
  9
$CECOLOR
 62
   256
  9
$DIMSCALE
 40
0.5
  9
$DIMASZ
 40
3.0
  9
$DIMEXO
 40
2.0
  9
$DIMDLI
 40
0.38
  9
$DIMRND
 40
0.0
  9
$DIMDLE
 40
0.0
  9
$DIMEXE
 40
2.0
  9
$DIMTP
 40
0.0
  9
$DIMTM
 40
0.0
  9
$DIMTXT
 40
3.0
  9
$DIMCEN
 40
0.0
  9
$DIMTSZ
 40
0.0
  9
$DIMTOL
 70
     0
  9
$DIMLIM
 70
     0
  9
$DIMTIH
 70
     0
  9
$DIMTOH
 70
     0
  9
$DIMSE1
 70
     0
  9
$DIMSE2
 70
     0
  9
$DIMTAD
 70
     1
  9
$DIMZIN
 70
     0
  9
$DIMBLK
  1

  9
$DIMASO
 70
     0
  9
$DIMSHO
 70
     0
  9
$DIMPOST
  1

  9
$DIMAPOST
  1

  9
$DIMALT
 70
     0
  9
$DIMALTD
 70
     2
  9
$DIMALTF
 40
25.399999999999999
  9
$DIMLFAC
 40
1.0
  9
$DIMTOFL
 70
     0
  9
$DIMTVP
 40
1.6000000000000001
  9
$DIMTIX
 70
     1
  9
$DIMSOXD
 70
     0
  9
$DIMSAH
 70
     0
  9
$DIMBLK1
  1

  9
$DIMBLK2
  1

  9
$DIMSTYLE
  2
STANDARD
  9
$DIMCLRD
 70
     0
  9
$DIMCLRE
 70
     0
  9
$DIMCLRT
 70
     0
  9
$DIMTFAC
 40
1.0
  9
$DIMGAP
 40
0.09
  9
$LUNITS
 70
     2
  9
$LUPREC
 70
     4
  9
$SKETCHINC
 40
0.1
  9
$FILLETRAD
 40
1.5
  9
$AUNITS
 70
     0
  9
$AUPREC
 70
     0
  9
$MENU
  1
E:\r13\win\SUPPORT\ACAD
  9
$ELEVATION
 40
0.0
  9
$PELEVATION
 40
0.0
  9
$THICKNESS
 40
0.0
  9
$LIMCHECK
 70
     0
  9
$BLIPMODE
 70
     0
  9
$CHAMFERA
 40
0.0
  9
$CHAMFERB
 40
0.0
  9
$SKPOLY
 70
     0
  9
$TDCREATE
 40
2449840.6143865739
  9
$TDUPDATE
 40
2456598.6850222801
  9
$TDINDWG
 40
0.465765162
  9
$TDUSRTIMER
 40
0.465765162
  9
$USRTIMER
 70
     1
  9
$ANGBASE
 50
0.0
  9
$ANGDIR
 70
     0
  9
$PDMODE
 70
     0
  9
$PDSIZE
 40
0.0
  9
$PLINEWID
 40
0.0
  9
$COORDS
 70
     1
  9
$SPLFRAME
 70
     0
  9
$SPLINETYPE
 70
     6
  9
$SPLINESEGS
 70
     8
  9
$ATTDIA
 70
     0
  9
$ATTREQ
 70
     1
  9
$HANDLING
 70
     1
  9
$HANDSEED
  5
20C7
  9
$SURFTAB1
 70
     6
  9
$SURFTAB2
 70
     6
  9
$SURFTYPE
 70
     6
  9
$SURFU
 70
     6
  9
$SURFV
 70
     6
  9
$UCSNAME
  2

  9
$UCSORG
 10
0.0
 20
0.0
 30
0.0
  9
$UCSXDIR
 10
1.0
 20
0.0
 30
0.0
  9
$UCSYDIR
 10
0.0
 20
1.0
 30
0.0
  9
$PUCSNAME
  2

  9
$PUCSORG
 10
0.0
 20
0.0
 30
0.0
  9
$PUCSXDIR
 10
1.0
 20
0.0
 30
0.0
  9
$PUCSYDIR
 10
0.0
 20
1.0
 30
0.0
  9
$USERI1
 70
     0
  9
$USERI2
 70
     1
  9
$USERI3
 70
     1
  9
$USERI4
 70
     0
  9
$USERI5
 70
     0
  9
$USERR1
 40
0.0
  9
$USERR2
 40
0.0
  9
$USERR3
 40
0.0
  9
$USERR4
 40
0.0
  9
$USERR5
 40
0.0
  9
$WORLDVIEW
 70
     1
  9
$SHADEDGE
 70
     3
  9
$SHADEDIF
 70
    70
  9
$TILEMODE
 70
     1
  9
$MAXACTVP
 70
    16
  9
$PLIMCHECK
 70
     0
  9
$PEXTMIN
 10
1.0000000000000000E+020
 20
1.0000000000000000E+020
 30
1.0000000000000000E+020
  9
$PEXTMAX
 10
-1.0000000000000000E+020
 20
-1.0000000000000000E+020
 30
-1.0000000000000000E+020
  9
$PLIMMIN
 10
0.0
 20
0.0
  9
$PLIMMAX
 10
12.0
 20
9.0
  9
$UNITMODE
 70
     0
  9
$VISRETAIN
 70
     0
  9
$PLINEGEN
 70
     0
  9
$PSLTSCALE
 70
     0
  0
ENDSEC
  0
SECTION
  2
TABLES
  0
TABLE
  2
VPORT
 70
     1
  0
VPORT
  2
*ACTIVE
 70
     0
 10
0.0
 20
0.0
 11
1.0
 21
1.0
 12
155.39514349149411
 22
136.41894655908979
 13
0.0
 23
0.0
 14
5.0
 24
5.0
 15
5.0
 25
5.0
 16
0.0
 26
0.0
 36
1.0
 17
0.0
 27
0.0
 37
0.0
 40
278.97016813700128
 41
2.304913294797688
 42
50.0
 43
0.0
 44
0.0
 50
0.0
 51
0.0
 71
     0
 72
   100
 73
     1
 74
     0
 75
     0
 76
     0
 77
     0
 78
     0
  0
ENDTAB
  0
TABLE
  2
LTYPE
 70
     3
  0
LTYPE
  2
CONTINUOUS
 70
     0
  3
Solid Line
 72
    65
 73
     0
 40
0.0
  0
LTYPE
  2
CENTER
 70
     0
  3
____ _ ____ _ ____ _ ____ _ ____ _ ____ _ ____
 72
    65
 73
     4
 40
2.0
 49
1.25
 49
-0.25
 49
0.25
 49
-0.25
  0
LTYPE
  2
PHANTOM2
 70
     0
  3
___ _ _ ___ _ _ ___ _ _ ___ _ _
 72
    65
 73
     6
 40
1.25
 49
0.625
 49
-0.125
 49
0.125
 49
-0.125
 49
0.125
 49
-0.125
  0
ENDTAB
  0
TABLE
  2
LAYER
 70
     4
  0
LAYER
  2
0
 70
     0
 62
     7
  6
CONTINUOUS
  0
LAYER
  2
1
 70
     0
 62
     1
  6
CENTER
  0
LAYER
  2
3
 70
     0
 62
     3
  6
CONTINUOUS
  0
LAYER
  2
ITTEN
 70
     0
 62
     1
  6
CENTER
  0
ENDTAB
  0
TABLE
  2
STYLE
 70
     2
  0
STYLE
  2
STANDARD
 70
     0
 40
0.0
 41
1.0
 50
0.0
 71
     0
 42
4.0
  3
TXT
  4
BIGFONT
  0
STYLE
  2
STANDARD1
 70
     0
 40
0.0
 41
1.0
 50
0.0
 71
     0
 42
3.0
  3
txt
  4

  0
ENDTAB
  0
TABLE
  2
VIEW
 70
     1
  0
VIEW
  2
ALL
 70
     0
 40
179.66152299999999
 10
141.903918
 20
89.830760999999995
 41
0.0
 11
0.0
 21
0.0
 31
1.0
 12
0.0
 22
0.0
 32
0.0
 42
0.0
 43
0.0
 44
0.0
 50
0.0
 71
     0
  0
ENDTAB
  0
TABLE
  2
UCS
 70
     0
  0
ENDTAB
  0
TABLE
  2
APPID
 70
     4
  0
APPID
  2
ACAD
 70
     0
  0
APPID
  2
DCO15
 70
     0
  0
APPID
  2
ACAD_MLEADERVER
 70
     0
  0
APPID
  2
ACAD_NAV_VCDISPLAY
 70
     0
  0
ENDTAB
  0
TABLE
  2
DIMSTYLE
 70
     1
  0
DIMSTYLE
  2
STANDARD
 70
     0
  3

  4

  5

  6

  7

 40
1.0
 41
0.18
 42
0.0625
 43
0.38
 44
0.18
 45
0.0
 46
0.0
 47
0.0
 48
0.0
140
0.18
141
0.09
142
0.0
143
25.399999999999999
144
1.0
145
0.0
146
1.0
147
0.09
 71
     0
 72
     0
 73
     1
 74
     1
 75
     0
 76
     0
 77
     0
 78
     0
170
     0
171
     2
172
     0
173
     0
174
     0
175
     0
176
     0
177
     0
178
     0
  0
ENDTAB
  0
ENDSEC
  0
SECTION
  2
BLOCKS
  0
BLOCK
  8
0
  2
$MODEL_SPACE
 70
     0
 10
0.0
 20
0.0
 30
0.0
  3
$MODEL_SPACE
  1

  0
ENDBLK
  5
1BD
  8
0
  0
BLOCK
 67
     1
  8
0
  2
$PAPER_SPACE
 70
     0
 10
0.0
 20
0.0
 30
0.0
  3
$PAPER_SPACE
  1

  0
ENDBLK
  5
1BB
 67
     1
  8
0
  0
BLOCK
  8
0
  2
BATU
 70
     0
 10
0.0
 20
0.0
 30
0.0
  3
BATU
  1

  0
LINE
  5
1C8
  8
ITTEN
 10
0.5
 20
0.0
 30
0.0
 11
-0.5
 21
0.0
 31
0.0
  0
LINE
  5
1C9
  8
ITTEN
 10
0.0
 20
0.5
 30
0.0
 11
0.0
 21
-0.5
 31
0.0
  0
ENDBLK
  5
1CB
  8
0
  0
BLOCK
  8
0
  2
STDGX5
 70
     0
 10
0.0
 20
0.0
 30
0.0
  3
STDGX5
  1

  0
ENDBLK
  5
13A4
  8
0
  0
ENDSEC
  0
SECTION
  2
ENTITIES
  0
INSERT
  5
15B2
  8
0
  2
STDGX5
 10
385.14305829161941
 20
49.94871211462101
 30
0.0
 41
0.25
 42
0.25
 43
0.25
  0
INSERT
  5
15B3
  8
0
  2
STDGX5
 10
385.14305829161941
 20
49.94871211462101
 30
0.0
 41
0.25
 42
0.25
 43
0.25
  0
INSERT
  5
15B4
  8
0
  2
STDGX5
 10
453.8930582916193
 20
49.94871211462101
 30
0.0
 41
0.25
 42
0.25
 43
0.25
  0
INSERT
  5
15B5
  8
0
  2
STDGX5
 10
453.8930582916193
 20
49.94871211462101
 30
0.0
 41
0.25
 42
0.25
 43
0.25
  0
INSERT
  5
15B6
  8
0
  2
STDGX5
 10
385.14305829161941
 20
49.94871211462101
 30
0.0
 41
0.5
 42
0.5
 43
0.5
  0
INSERT
  5
15B7
  8
0
  2
STDGX5
 10
385.14305829161941
 20
49.94871211462101
 30
0.0
 41
0.5
 42
0.5
 43
0.5
  0
INSERT
  5
15B8
  8
0
  2
STDGX5
 10
522.64305829161935
 20
49.94871211462101
 30
0.0
 41
0.5
 42
0.5
 43
0.5
  0
INSERT
  5
15B9
  8
0
  2
STDGX5
 10
522.64305829161935
 20
49.94871211462101
 30
0.0
 41
0.5
 42
0.5
 43
0.5
  0
INSERT
  5
15BB
  8
0
  2
STDGX5
 10
350.14305829161941
 20
-50.05128788537899
 30
0.0
 41
0.3333333333333144
 42
0.3333333333333144
 43
0.3333333333333144
  0
INSERT
  5
15BC
  8
0
  2
STDGX5
 10
350.14305829161941
 20
-50.05128788537899
 30
0.0
 41
0.3333333333333144
 42
0.3333333333333144
 43
0.3333333333333144
  0
INSERT
  5
15BD
  8
0
  2
STDGX5
 10
441.80972495828593
 20
-50.05128788537899
 30
0.0
 41
0.3333333333333144
 42
0.3333333333333144
 43
0.3333333333333144
  0
INSERT
  5
15BE
  8
0
  2
STDGX5
 10
441.80972495828593
 20
-50.05128788537899
 30
0.0
 41
0.3333333333333144
 42
0.3333333333333144
 43
0.3333333333333144
  0
INSERT
  5
15C0
  8
0
  2
STDGX5
 10
350.14305829161941
 20
-50.05128788537899
 30
0.0
 41
0.3333333333333144
 42
0.3333333333333144
 43
0.3333333333333144
  0
INSERT
  5
15C1
  8
0
  2
STDGX5
 10
350.14305829161941
 20
-50.05128788537899
 30
0.0
 41
0.3333333333333144
 42
0.3333333333333144
 43
0.3333333333333144
  0
INSERT
  5
15C2
  8
0
  2
STDGX5
 10
441.80972495828593
 20
-50.05128788537899
 30
0.0
 41
0.3333333333333144
 42
0.3333333333333144
 43
0.3333333333333144
  0
INSERT
  5
15C3
  8
0
  2
STDGX5
 10
441.80972495828593
 20
-50.05128788537899
 30
0.0
 41
0.3333333333333144
 42
0.3333333333333144
 43
0.3333333333333144
  0
INSERT
  5
15C4
  8
0
  2
STDGX5
 10
385.14305829161941
 20
49.94871211462101
 30
0.0
  0
INSERT
  5
15C5
  8
0
  2
STDGX5
 10
385.14305829161941
 20
49.94871211462101
 30
0.0
  0
INSERT
  5
15C6
  8
0
  2
STDGX5
 10
660.14305829161935
 20
49.94871211462101
 30
0.0
  0
INSERT
  5
15C7
  8
0
  2
STDGX5
 10
660.14305829161935
 20
49.94871211462101
 30
0.0
  0
LINE
  5
1BA9
  8
0
 10
197.08263731286249
 20
132.96488951399149
 30
0.0
 11
197.08263731286249
 21
166.68735329133429
 31
0.0
  0
LINE
  5
1BAA
  8
0
 10
177.08263731286249
 20
185.6386742763014
 30
0.0
 11
177.08263731286249
 21
132.96488951399149
 31
0.0
  0
LINE
  5
1BAB
  8
0
 10
195.54913731286251
 20
131.43138951399149
 30
0.0
 11
197.08263731286249
 21
132.96488951399149
 31
0.0
  0
LINE
  5
1BAC
  8
0
 10
177.08263731286249
 20
132.96488951399149
 30
0.0
 11
178.61613731286249
 21
131.43138951399149
 31
0.0
  0
ARC
  5
1BAD
  8
0
 10
187.0826373128624
 20
166.43138951399129
 30
0.0
 40
23.000000000000291
 50
72.281068126593965
 51
107.71893187340601
  0
LINE
  5
1BAE
  8
0
 10
194.08263731286249
 20
187.93138951399149
 30
0.0
 11
194.08263731286249
 21
188.3402918141982
 31
0.0
  0
LINE
  5
1BAF
  8
0
 10
194.08263731286249
 20
171.88568606102911
 30
0.0
 11
194.08263731286249
 21
172.63138951399151
 31
0.0
  0
LINE
  5
1BB0
  8
0
 10
180.08263731286249
 20
188.3402918141982
 30
0.0
 11
180.08263731286249
 21
180.44034150660659
 31
0.0
  0
LINE
  5
1BB5
  8
0
 10
177.08263731286249
 20
132.96488951399149
 30
0.0
 11
197.08263731286249
 21
132.96488951399149
 31
0.0
  0
LINE
  5
1BB6
  8
0
 10
178.61613731286249
 20
131.43138951399149
 30
0.0
 11
195.54913731286251
 21
131.43138951399149
 31
0.0
  0
LINE
  5
1BBA
  8
0
 10
193.40719263319929
 20
172.63138951399151
 30
0.0
 11
193.40719263319929
 21
187.93138951399149
 31
0.0
  0
ARC
  5
1BBB
  8
0
 10
228.08263731286249
 20
178.93138951399149
 30
0.0
 40
9.0
 50
270.0
 51
90.0
  0
LINE
  5
1BBD
  8
0
 10
212.72379158605051
 20
169.93138951399149
 30
0.0
 11
228.08263731286249
 21
169.93138951399149
 31
0.0
  0
ARC
  5
1BBE
  8
0
 10
212.72379158605051
 20
173.53138951399151
 30
0.0
 40
3.599999999999973
 50
239.9999999999998
 51
270.0
  0
LINE
  5
1BBF
  8
0
 10
207.91802022011041
 20
172.1490809676155
 30
0.0
 11
210.9237915860505
 21
170.41369806036749
 31
0.0
  0
ARC
  5
1BC0
  8
0
 10
206.1180202201104
 20
169.03138951399151
 30
0.0
 40
3.599999999999957
 50
59.999999999999858
 51
90.0
  0
LINE
  5
1BC1
  8
0
 10
193.40719263319929
 20
172.63138951399151
 30
0.0
 11
206.1180202201104
 21
172.63138951399151
 31
0.0
  0
LINE
  5
1BC2
  8
0
 10
228.08263731286249
 20
187.93138951399149
 30
0.0
 11
193.40719263319929
 21
187.93138951399149
 31
0.0
  0
ARC
  5
1BC3
  8
0
 10
215.80573750338419
 20
178.93138951399149
 30
0.0
 40
5.3999999999999977
 50
90.0
 51
270.0
  0
LINE
  5
1BC4
  8
0
 10
215.80573750338419
 20
184.3313895139915
 30
0.0
 11
228.30573750338419
 21
184.3313895139915
 31
0.0
  0
ARC
  5
1BC5
  8
0
 10
228.30573750338419
 20
178.93138951399149
 30
0.0
 40
5.3999999999999977
 50
270.0
 51
90.0
  0
LINE
  5
1BC6
  8
0
 10
228.30573750338419
 20
173.53138951399151
 30
0.0
 11
215.80573750338419
 21
173.53138951399151
 31
0.0
  0
LINE
  5
1BC7
  8
0
 10
215.80573750338419
 20
173.53138951399151
 30
0.0
 11
215.75416964314451
 21
173.53138951399151
 31
0.0
  0
LINE
  5
1BC8
  8
0
 10
215.75416964314451
 20
184.3313895139915
 30
0.0
 11
215.80573750338419
 21
184.3313895139915
 31
0.0
  0
LINE
  5
1BC9
  8
0
 10
177.08263731286249
 20
166.43138951399149
 30
0.0
 11
197.08263731286249
 21
166.43138951399149
 31
0.0
  0
LINE
  5
1BCA
  8
3
 10
195.54913731286251
 20
166.43138951399149
 30
0.0
 11
195.54913731286251
 21
131.43138951399149
 31
0.0
  0
LINE
  5
1BCB
  8
3
 10
195.54913731286251
 20
166.43138951399149
 30
0.0
 11
196.78116544542669
 21
168.56532483594691
 31
0.0
  0
LINE
  5
1BCC
  8
3
 10
178.61613731286249
 20
166.43138951399149
 30
0.0
 11
178.61613731286249
 21
131.43138951399149
 31
0.0
  0
LINE
  5
1BCD
  8
3
 10
178.61613731286249
 20
166.43138951399149
 30
0.0
 11
177.08263731286249
 21
169.0874894273984
 31
0.0
  0
LINE
  5
1BCE
  8
1
 10
187.08263731286249
 20
194.43138951399149
 30
0.0
 11
187.08263731286249
 21
114.4313895139915
 31
0.0
  0
LINE
  5
1BCF
  8
0
 10
118.0863943606434
 20
132.96488951399149
 30
0.0
 11
118.0863943606433
 21
176.04072561521639
 31
0.0
  0
LINE
  5
1BD0
  8
0
 10
98.086394360643567
 20
176.04072561521639
 30
0.0
 11
98.086394360643453
 21
132.96488951399149
 31
0.0
  0
LINE
  5
1BD1
  8
0
 10
116.55289436064341
 20
131.43138951399149
 30
0.0
 11
118.0863943606434
 21
132.96488951399149
 31
0.0
  0
LINE
  5
1BD2
  8
0
 10
98.086394360643453
 20
132.96488951399149
 30
0.0
 11
99.619894360643457
 21
131.43138951399149
 31
0.0
  0
ARC
  5
1BD5
  8
0
 10
108.0863943606434
 20
166.43138951399129
 30
0.0
 40
23.000000000000242
 50
72.281068126593965
 51
107.71893187340601
  0
LINE
  5
1BD7
  8
0
 10
115.0863943606434
 20
180.51888807476959
 30
0.0
 11
115.0863943606434
 21
188.34029181419811
 31
0.0
  0
LINE
  5
1BD8
  8
0
 10
101.0863943606434
 20
188.34029181419811
 30
0.0
 11
101.0863943606434
 21
180.51888807476979
 31
0.0
  0
LINE
  5
1BDE
  8
0
 10
98.086394360643453
 20
132.96488951399149
 30
0.0
 11
118.0863943606434
 21
132.96488951399149
 31
0.0
  0
LINE
  5
1BDF
  8
0
 10
99.619894360643457
 20
131.43138951399149
 30
0.0
 11
116.55289436064341
 21
131.43138951399149
 31
0.0
  0
LINE
  5
1C11
  8
0
 10
98.086394360643567
 20
166.43138951399149
 30
0.0
 11
118.0863943606433
 21
166.43138951399141
 31
0.0
  0
LINE
  5
1C12
  8
3
 10
116.55289436064341
 20
166.43138951399149
 30
0.0
 11
116.55289436064341
 21
131.43138951399149
 31
0.0
  0
LINE
  5
1C13
  8
3
 10
116.55289436064341
 20
166.43138951399149
 30
0.0
 11
118.0863943606434
 21
169.08748942739831
 31
0.0
  0
LINE
  5
1C14
  8
3
 10
99.619894360643457
 20
166.43138951399149
 30
0.0
 11
99.619894360643457
 21
131.43138951399149
 31
0.0
  0
LINE
  5
1C15
  8
3
 10
99.619894360643457
 20
166.43138951399149
 30
0.0
 11
98.086394360643453
 21
169.08748942739831
 31
0.0
  0
LINE
  5
1C16
  8
1
 10
108.0863943606434
 20
194.43188951399151
 30
0.0
 11
108.0863943606434
 21
114.43188951399151
 31
0.0
  0
LINE
  5
1C17
  8
0
 10
237.08263731286249
 20
256.62837533600032
 30
0.0
 11
237.08263731286249
 21
259.6283753360002
 31
0.0
  0
LINE
  5
1C2E
  8
0
 10
235.58263731286249
 20
255.12837533600029
 30
0.0
 11
193.40719263319929
 21
255.12837533600029
 31
0.0
  0
LINE
  5
1C2F
  8
0
 10
235.58263731286249
 20
261.12837533600032
 30
0.0
 11
193.40719263319929
 21
261.12837533600032
 31
0.0
  0
LINE
  5
1C31
  8
0
 10
179.9541769268281
 20
180.518836816673
 30
0.0
 11
194.21109769889691
 21
171.80719075096269
 31
0.0
  0
ARC
  5
1C32
  8
0
 10
191.08263731286249
 20
166.68735329133429
 30
0.0
 40
6.0
 50
0.0
 51
58.573116563159168
  0
ARC
  5
1C33
  8
0
 10
183.08263731286249
 20
185.6386742763014
 30
0.0
 40
6.0
 50
180.0
 51
238.5731165631592
  0
ARC
  5
1C5E
  8
0
 10
187.08263731286249
 20
258.1283753360002
 30
0.0
 40
10.0
 50
17.457603123722279
 51
342.54239687627808
  0
ARC
  5
1C5F
  8
0
 10
187.08263731286249
 20
258.12837533600032
 30
0.0
 40
6.9999999999997149
 50
25.376933525153358
 51
334.62306647484672
  0
LINE
  5
1C64
  8
0
 10
180.31802350274759
 20
259.92837533600027
 30
0.0
 11
177.24597121097611
 21
259.92837533600027
 31
0.0
  0
LINE
  5
1C65
  8
0
 10
180.31802350274759
 20
256.32837533600031
 30
0.0
 11
177.24597121097611
 21
256.32837533600031
 31
0.0
  0
LINE
  5
1C68
  8
1
 10
187.08263731286249
 20
273.1283753360002
 30
0.0
 11
187.08263731286249
 21
243.1283753360002
 31
0.0
  0
LINE
  5
1C69
  8
1
 10
242.08263731286249
 20
258.1283753360002
 30
0.0
 11
172.08263731286249
 21
258.1283753360002
 31
0.0
  0
ARC
  5
1C6B
  8
0
 10
235.58263731286249
 20
259.6283753360002
 30
0.0
 40
1.5
 50
0.0
 51
90.0
  0
ARC
  5
1C6C
  8
0
 10
235.58263731286249
 20
256.62837533600032
 30
0.0
 40
1.5
 50
270.0
 51
0.0
  0
LINE
  5
1C6D
  8
1
 10
242.08263731286249
 20
61.930664946144503
 30
0.0
 11
172.08263731286249
 21
61.930664946144503
 31
0.0
  0
LINE
  5
1C72
  8
0
 10
235.58263731286249
 20
58.930664946144532
 30
0.0
 11
196.6220293270319
 21
58.930664946144532
 31
0.0
  0
LINE
  5
1C73
  8
0
 10
235.58263731286249
 20
64.930664946144532
 30
0.0
 11
196.6220293270319
 21
64.930664946144532
 31
0.0
  0
LINE
  5
1C74
  8
1
 10
187.08263731286249
 20
76.930664946144503
 30
0.0
 11
187.08263731286249
 21
46.930664946144503
 31
0.0
  0
LINE
  5
1C75
  8
0
 10
237.08263731286249
 20
60.430664946144532
 30
0.0
 11
237.08263731286249
 21
63.430664946144532
 31
0.0
  0
ARC
  5
1C76
  8
0
 10
235.58263731286249
 20
60.430664946144532
 30
0.0
 40
1.5
 50
270.0
 51
0.0
  0
ARC
  5
1C77
  8
0
 10
235.58263731286249
 20
63.430664946144532
 30
0.0
 40
1.5
 50
0.0
 51
90.0
  0
CIRCLE
  5
1C7E
  8
3
 10
187.08263731286249
 20
61.930664946144503
 30
0.0
 40
8.4664999999999964
  0
CIRCLE
  5
1C7F
  8
0
 10
187.08263731286249
 20
61.930664946144503
 30
0.0
 40
9.9999999999999432
  0
LINE
  5
1C80
  8
0
 10
207.04976878247939
 20
64.930664946144532
 30
0.0
 11
207.04976878247939
 21
58.930664946144532
 31
0.0
  0
LINE
  5
1C81
  8
0
 10
211.7920430236814
 20
64.930664946144532
 30
0.0
 11
211.7920430236814
 21
58.930664946144532
 31
0.0
  0
ARC
  5
1C82
  8
0
 10
300.79028553575807
 20
166.43188951399131
 30
0.0
 40
23.000000000000242
 50
72.281068126593965
 51
107.71893187340601
  0
LINE
  5
1C83
  8
0
 10
290.79028553575807
 20
132.96538951399151
 30
0.0
 11
310.79028553575807
 21
132.96538951399151
 31
0.0
  0
LINE
  5
1C84
  8
0
 10
292.32378553575819
 20
131.43188951399151
 30
0.0
 11
309.25678553575813
 21
131.43188951399151
 31
0.0
  0
LINE
  5
1C8D
  8
0
 10
299.29028553575807
 20
169.93188951399151
 30
0.0
 11
302.29028553575819
 21
169.93188951399151
 31
0.0
  0
LINE
  5
1C91
  8
0
 10
299.29028553575807
 20
187.93188951399151
 30
0.0
 11
302.29028553575819
 21
187.93188951399151
 31
0.0
  0
LINE
  5
1C94
  8
0
 10
290.79028553575807
 20
166.43188951399151
 30
0.0
 11
310.79028553575807
 21
166.43188951399151
 31
0.0
  0
LINE
  5
1C96
  8
1
 10
300.79028553575807
 20
194.4323895139915
 30
0.0
 11
300.79028553575807
 21
114.4323895139915
 31
0.0
  0
LINE
  5
1C97
  8
0
 10
290.79028553575807
 20
176.16351378381779
 30
0.0
 11
290.79028553575807
 21
132.96538951399151
 31
0.0
  0
LINE
  5
1C98
  8
3
 10
292.32378553575819
 20
166.43188951399151
 30
0.0
 11
292.32378553575819
 21
131.43188951399151
 31
0.0
  0
LINE
  5
1C9A
  8
0
 10
290.79028553575807
 20
132.96538951399151
 30
0.0
 11
292.32378553575819
 21
131.43188951399151
 31
0.0
  0
LINE
  5
1C9D
  8
0
 10
293.79028553575807
 20
188.3407918141981
 30
0.0
 11
293.79028553575807
 21
173.80642295242819
 31
0.0
  0
LINE
  5
1C9F
  8
0
 10
297.79028553575819
 20
171.43188951399151
 30
0.0
 11
297.79028553575819
 21
186.43188951399151
 31
0.0
  0
LINE
  5
1CA7
  8
3
 10
292.32378553575819
 20
166.43188951399151
 30
0.0
 11
290.79028553575807
 21
169.0879894273983
 31
0.0
  0
POLYLINE
  5
1CAF
  8
0
 66
     1
 10
0.0
 20
0.0
 30
0.0
  0
VERTEX
  5
1F7F
  8
0
 10
293.7738970098286
 20
180.50952896033709
 30
0.0
  0
VERTEX
  5
1F80
  8
0
 10
293.77649136326443
 20
180.51108747092599
 30
0.0
  0
VERTEX
  5
1F81
  8
0
 10
293.78168161731003
 20
180.5142072582814
 30
0.0
  0
VERTEX
  5
1F82
  8
0
 10
293.78687392433682
 20
180.51733072367381
 30
0.0
  0
VERTEX
  5
1F83
  8
0
 10
293.78947084399522
 20
180.51889383180639
 30
0.0
  0
SEQEND
  5
1F84
  8
0
  0
LINE
  5
1CB0
  8
0
 10
293.7738970098286
 20
180.50952896033709
 30
0.0
 11
293.79028553575807
 21
180.50952896033709
 31
0.0
  0
LINE
  5
1CB7
  8
0
 10
310.79028553575807
 20
132.96538951399151
 30
0.0
 11
310.79028553575807
 21
176.16351378381779
 31
0.0
  0
LINE
  5
1CB8
  8
3
 10
309.25678553575813
 20
166.43188951399151
 30
0.0
 11
309.25678553575813
 21
131.43188951399151
 31
0.0
  0
LINE
  5
1CBA
  8
0
 10
309.25678553575813
 20
131.43188951399151
 30
0.0
 11
310.79028553575807
 21
132.96538951399151
 31
0.0
  0
LINE
  5
1CBB
  8
0
 10
307.79028553575819
 20
173.80642295242819
 30
0.0
 11
307.79028553575819
 21
188.3407918141981
 31
0.0
  0
LINE
  5
1CBC
  8
0
 10
303.79028553575819
 20
171.43188951399151
 30
0.0
 11
303.79028553575819
 21
186.43188951399151
 31
0.0
  0
LINE
  5
1CC0
  8
3
 10
309.25678553575813
 20
166.43188951399151
 30
0.0
 11
310.79028553575807
 21
169.0879894273983
 31
0.0
  0
POLYLINE
  5
1CCA
  8
0
 66
     1
 10
0.0
 20
0.0
 30
0.0
  0
VERTEX
  5
1F85
  8
0
 10
307.79110022752099
 20
180.51889383180639
 30
0.0
  0
VERTEX
  5
1F86
  8
0
 10
307.7936971471795
 20
180.51733072367381
 30
0.0
  0
VERTEX
  5
1F87
  8
0
 10
307.79888945420629
 20
180.5142072582814
 30
0.0
  0
VERTEX
  5
1F88
  8
0
 10
307.80407970825178
 20
180.51108747092599
 30
0.0
  0
VERTEX
  5
1F89
  8
0
 10
307.8066740616876
 20
180.50952896033709
 30
0.0
  0
SEQEND
  5
1F8A
  8
0
  0
LINE
  5
1CCB
  8
0
 10
307.79028553575819
 20
180.50952896033709
 30
0.0
 11
307.8066740616876
 21
180.50952896033709
 31
0.0
  0
LINE
  5
1CD1
  8
0
 10
116.24312663551071
 20
179.67277374535971
 30
0.0
 11
108.2044713506376
 21
185.5528045645035
 31
0.0
  0
LINE
  5
1CD2
  8
0
 10
99.929662085776158
 20
179.6727737453599
 30
0.0
 11
107.9683173706494
 21
185.5528045645035
 31
0.0
  0
ARC
  5
1CD3
  8
0
 10
108.0863943606436
 20
185.39138020316369
 30
0.0
 40
0.2
 50
53.815669821935487
 51
126.1843301780645
  0
ARC
  5
1CD8
  8
0
 10
113.5863943606433
 20
176.04072561521639
 30
0.0
 40
4.5
 50
0.0000000000001527
 51
53.815669821934549
  0
ARC
  5
1CD9
  8
0
 10
102.5863943606435
 20
176.04072561521639
 30
0.0
 40
4.5
 50
126.18433017806539
 51
179.9999999999998
  0
LINE
  5
1D25
  8
0
 10
308.94701781062543
 20
179.67327374535969
 30
0.0
 11
307.79028553575819
 21
180.51938807476961
 31
0.0
  0
LINE
  5
1D26
  8
0
 10
292.63355326089078
 20
179.67327374535989
 30
0.0
 11
293.79028553575802
 21
180.51938807476961
 31
0.0
  0
ARC
  5
1D27
  8
0
 10
295.29028553575819
 20
176.0412256152164
 30
0.0
 40
4.5
 50
180.00000000000011
 51
233.81566982193459
  0
ARC
  5
1D28
  8
0
 10
295.29028553575819
 20
176.0412256152164
 30
0.0
 40
4.5
 50
126.18433017806539
 51
179.9999999999998
  0
ARC
  5
1D29
  8
0
 10
306.29028553575802
 20
176.0412256152164
 30
0.0
 40
4.5
 50
306.18433017806541
 51
359.99999999999977
  0
ARC
  5
1D2A
  8
0
 10
306.29028553575802
 20
176.0412256152164
 30
0.0
 40
4.5
 50
0.0000000000001527
 51
53.815669821934549
  0
LINE
  5
1D2B
  8
0
 10
308.94701781062543
 20
172.409177485073
 30
0.0
 11
300.9083625257523
 21
166.5291466659292
 31
0.0
  0
LINE
  5
1D2C
  8
0
 10
292.63355326089078
 20
172.4091774850728
 30
0.0
 11
300.67220854576408
 21
166.5291466659292
 31
0.0
  0
ARC
  5
1D2D
  8
0
 10
300.7902855357583
 20
166.69057102726899
 30
0.0
 40
0.2
 50
233.8156698219355
 51
306.1843301780645
  0
POLYLINE
  5
1D32
  8
0
 10
293.79028553575807
 20
178.58187504888778
 30
0.0
 66
     1
 70
     8
  0
VERTEX
  8
0
  5
1FC3
 10
293.790
 20
178.582
 30
0.000000
  70
    32
  0
VERTEX
  8
0
  5
1FC4
 10
293.740
 20
178.524
 30
0.000000
  70
    32
  0
VERTEX
  8
0
  5
1FC5
 10
293.690
 20
178.466
 30
0.000000
  70
    32
  0
VERTEX
  8
0
  5
1FC6
 10
293.642
 20
178.407
 30
0.000000
  70
    32
  0
VERTEX
  8
0
  5
1FC7
 10
293.595
 20
178.348
 30
0.000000
  70
    32
  0
VERTEX
  8
0
  5
1FC8
 10
293.550
 20
178.288
 30
0.000000
  70
    32
  0
VERTEX
  8
0
  5
1FC9
 10
293.505
 20
178.228
 30
0.000000
  70
    32
  0
VERTEX
  8
0
  5
1FCA
 10
293.462
 20
178.168
 30
0.000000
  70
    32
  0
VERTEX
  8
0
  5
1FCB
 10
293.421
 20
178.107
 30
0.000000
  70
    32
  0
VERTEX
  8
0
  5
1FCC
 10
293.380
 20
178.046
 30
0.000000
  70
    32
  0
VERTEX
  8
0
  5
1FCD
 10
293.341
 20
177.985
 30
0.000000
  70
    32
  0
VERTEX
  8
0
  5
1FCE
 10
293.303
 20
177.923
 30
0.000000
  70
    32
  0
VERTEX
  8
0
  5
1FCF
 10
293.266
 20
177.861
 30
0.000000
  70
    32
  0
VERTEX
  8
0
  5
1FD0
 10
293.231
 20
177.799
 30
0.000000
  70
    32
  0
VERTEX
  8
0
  5
1FD1
 10
293.197
 20
177.736
 30
0.000000
  70
    32
  0
VERTEX
  8
0
  5
1FD2
 10
293.165
 20
177.674
 30
0.000000
  70
    32
  0
VERTEX
  8
0
  5
1FD3
 10
293.133
 20
177.611
 30
0.000000
  70
    32
  0
VERTEX
  8
0
  5
1FD4
 10
293.103
 20
177.547
 30
0.000000
  70
    32
  0
VERTEX
  8
0
  5
1FD5
 10
293.075
 20
177.484
 30
0.000000
  70
    32
  0
VERTEX
  8
0
  5
1FD6
 10
293.047
 20
177.420
 30
0.000000
  70
    32
  0
VERTEX
  8
0
  5
1FD7
 10
293.022
 20
177.356
 30
0.000000
  70
    32
  0
VERTEX
  8
0
  5
1FD8
 10
292.997
 20
177.292
 30
0.000000
  70
    32
  0
VERTEX
  8
0
  5
1FD9
 10
292.974
 20
177.227
 30
0.000000
  70
    32
  0
VERTEX
  8
0
  5
1FDA
 10
292.952
 20
177.163
 30
0.000000
  70
    32
  0
VERTEX
  8
0
  5
1FDB
 10
292.931
 20
177.098
 30
0.000000
  70
    32
  0
VERTEX
  8
0
  5
1FDC
 10
292.912
 20
177.033
 30
0.000000
  70
    32
  0
VERTEX
  8
0
  5
1FDD
 10
292.895
 20
176.968
 30
0.000000
  70
    32
  0
VERTEX
  8
0
  5
1FDE
 10
292.878
 20
176.903
 30
0.000000
  70
    32
  0
VERTEX
  8
0
  5
1FDF
 10
292.863
 20
176.837
 30
0.000000
  70
    32
  0
VERTEX
  8
0
  5
1FE0
 10
292.850
 20
176.772
 30
0.000000
  70
    32
  0
VERTEX
  8
0
  5
1FE1
 10
292.838
 20
176.706
 30
0.000000
  70
    32
  0
VERTEX
  8
0
  5
1FE2
 10
292.827
 20
176.641
 30
0.000000
  70
    32
  0
VERTEX
  8
0
  5
1FE3
 10
292.817
 20
176.575
 30
0.000000
  70
    32
  0
VERTEX
  8
0
  5
1FE4
 10
292.809
 20
176.509
 30
0.000000
  70
    32
  0
VERTEX
  8
0
  5
1FE5
 10
292.803
 20
176.443
 30
0.000000
  70
    32
  0
VERTEX
  8
0
  5
1FE6
 10
292.798
 20
176.377
 30
0.000000
  70
    32
  0
VERTEX
  8
0
  5
1FE7
 10
292.794
 20
176.311
 30
0.000000
  70
    32
  0
VERTEX
  8
0
  5
1FE8
 10
292.791
 20
176.245
 30
0.000000
  70
    32
  0
VERTEX
  8
0
  5
1FE9
 10
292.790
 20
176.179
 30
0.000000
  70
    32
  0
VERTEX
  8
0
  5
1FEA
 10
292.791
 20
176.113
 30
0.000000
  70
    32
  0
VERTEX
  8
0
  5
1FEB
 10
292.792
 20
176.047
 30
0.000000
  70
    32
  0
VERTEX
  8
0
  5
1FEC
 10
292.796
 20
175.981
 30
0.000000
  70
    32
  0
VERTEX
  8
0
  5
1FED
 10
292.800
 20
175.915
 30
0.000000
  70
    32
  0
VERTEX
  8
0
  5
1FEE
 10
292.806
 20
175.849
 30
0.000000
  70
    32
  0
VERTEX
  8
0
  5
1FEF
 10
292.813
 20
175.783
 30
0.000000
  70
    32
  0
VERTEX
  8
0
  5
1FF0
 10
292.822
 20
175.718
 30
0.000000
  70
    32
  0
VERTEX
  8
0
  5
1FF1
 10
292.832
 20
175.652
 30
0.000000
  70
    32
  0
VERTEX
  8
0
  5
1FF2
 10
292.844
 20
175.586
 30
0.000000
  70
    32
  0
VERTEX
  8
0
  5
1FF3
 10
292.857
 20
175.521
 30
0.000000
  70
    32
  0
VERTEX
  8
0
  5
1FF4
 10
292.871
 20
175.455
 30
0.000000
  70
    32
  0
VERTEX
  8
0
  5
1FF5
 10
292.887
 20
175.390
 30
0.000000
  70
    32
  0
VERTEX
  8
0
  5
1FF6
 10
292.904
 20
175.325
 30
0.000000
  70
    32
  0
VERTEX
  8
0
  5
1FF7
 10
292.922
 20
175.260
 30
0.000000
  70
    32
  0
VERTEX
  8
0
  5
1FF8
 10
292.942
 20
175.195
 30
0.000000
  70
    32
  0
VERTEX
  8
0
  5
1FF9
 10
292.963
 20
175.130
 30
0.000000
  70
    32
  0
VERTEX
  8
0
  5
1FFA
 10
292.986
 20
175.066
 30
0.000000
  70
    32
  0
VERTEX
  8
0
  5
1FFB
 10
293.010
 20
175.001
 30
0.000000
  70
    32
  0
VERTEX
  8
0
  5
1FFC
 10
293.035
 20
174.937
 30
0.000000
  70
    32
  0
VERTEX
  8
0
  5
1FFD
 10
293.062
 20
174.873
 30
0.000000
  70
    32
  0
VERTEX
  8
0
  5
1FFE
 10
293.090
 20
174.810
 30
0.000000
  70
    32
  0
VERTEX
  8
0
  5
1FFF
 10
293.119
 20
174.746
 30
0.000000
  70
    32
  0
VERTEX
  8
0
  5
2000
 10
293.150
 20
174.683
 30
0.000000
  70
    32
  0
VERTEX
  8
0
  5
2001
 10
293.182
 20
174.620
 30
0.000000
  70
    32
  0
VERTEX
  8
0
  5
2002
 10
293.215
 20
174.558
 30
0.000000
  70
    32
  0
VERTEX
  8
0
  5
2003
 10
293.250
 20
174.495
 30
0.000000
  70
    32
  0
VERTEX
  8
0
  5
2004
 10
293.286
 20
174.433
 30
0.000000
  70
    32
  0
VERTEX
  8
0
  5
2005
 10
293.323
 20
174.371
 30
0.000000
  70
    32
  0
VERTEX
  8
0
  5
2006
 10
293.361
 20
174.310
 30
0.000000
  70
    32
  0
VERTEX
  8
0
  5
2007
 10
293.401
 20
174.249
 30
0.000000
  70
    32
  0
VERTEX
  8
0
  5
2008
 10
293.443
 20
174.188
 30
0.000000
  70
    32
  0
VERTEX
  8
0
  5
2009
 10
293.485
 20
174.127
 30
0.000000
  70
    32
  0
VERTEX
  8
0
  5
200A
 10
293.529
 20
174.067
 30
0.000000
  70
    32
  0
VERTEX
  8
0
  5
200B
 10
293.574
 20
174.008
 30
0.000000
  70
    32
  0
VERTEX
  8
0
  5
200C
 10
293.620
 20
173.948
 30
0.000000
  70
    32
  0
VERTEX
  8
0
  5
200D
 10
293.668
 20
173.889
 30
0.000000
  70
    32
  0
VERTEX
  8
0
  5
200E
 10
293.716
 20
173.831
 30
0.000000
  70
    32
  0
VERTEX
  8
0
  5
200F
 10
293.766
 20
173.772
 30
0.000000
  70
    32
  0
VERTEX
  8
0
  5
2010
 10
293.817
 20
173.715
 30
0.000000
  70
    32
  0
VERTEX
  8
0
  5
2011
 10
293.870
 20
173.657
 30
0.000000
  70
    32
  0
VERTEX
  8
0
  5
2012
 10
293.924
 20
173.600
 30
0.000000
  70
    32
  0
VERTEX
  8
0
  5
2013
 10
293.978
 20
173.544
 30
0.000000
  70
    32
  0
VERTEX
  8
0
  5
2014
 10
294.034
 20
173.488
 30
0.000000
  70
    32
  0
VERTEX
  8
0
  5
2015
 10
294.092
 20
173.433
 30
0.000000
  70
    32
  0
VERTEX
  8
0
  5
2016
 10
294.150
 20
173.377
 30
0.000000
  70
    32
  0
VERTEX
  8
0
  5
2017
 10
294.210
 20
173.323
 30
0.000000
  70
    32
  0
VERTEX
  8
0
  5
2018
 10
294.270
 20
173.269
 30
0.000000
  70
    32
  0
VERTEX
  8
0
  5
2019
 10
294.332
 20
173.215
 30
0.000000
  70
    32
  0
VERTEX
  8
0
  5
201A
 10
294.395
 20
173.162
 30
0.000000
  70
    32
  0
VERTEX
  8
0
  5
201B
 10
294.459
 20
173.110
 30
0.000000
  70
    32
  0
VERTEX
  8
0
  5
201C
 10
294.524
 20
173.058
 30
0.000000
  70
    32
  0
VERTEX
  8
0
  5
201D
 10
294.591
 20
173.006
 30
0.000000
  70
    32
  0
VERTEX
  8
0
  5
201E
 10
294.658
 20
172.955
 30
0.000000
  70
    32
  0
VERTEX
  8
0
  5
201F
 10
294.726
 20
172.905
 30
0.000000
  70
    32
  0
VERTEX
  8
0
  5
2020
 10
294.796
 20
172.855
 30
0.000000
  70
    32
  0
VERTEX
  8
0
  5
2021
 10
294.867
 20
172.806
 30
0.000000
  70
    32
  0
VERTEX
  8
0
  5
2022
 10
294.938
 20
172.758
 30
0.000000
  70
    32
  0
VERTEX
  8
0
  5
2023
 10
295.011
 20
172.710
 30
0.000000
  70
    32
  0
VERTEX
  8
0
  5
2024
 10
295.084
 20
172.662
 30
0.000000
  70
    32
  0
VERTEX
  8
0
  5
2025
 10
295.159
 20
172.615
 30
0.000000
  70
    32
  0
VERTEX
  8
0
  5
2026
 10
295.235
 20
172.569
 30
0.000000
  70
    32
  0
VERTEX
  8
0
  5
2027
 10
295.311
 20
172.524
 30
0.000000
  70
    32
  0
VERTEX
  8
0
  5
2028
 10
295.389
 20
172.479
 30
0.000000
  70
    32
  0
VERTEX
  8
0
  5
2029
 10
295.467
 20
172.435
 30
0.000000
  70
    32
  0
VERTEX
  8
0
  5
202A
 10
295.546
 20
172.391
 30
0.000000
  70
    32
  0
VERTEX
  8
0
  5
202B
 10
295.627
 20
172.348
 30
0.000000
  70
    32
  0
VERTEX
  8
0
  5
202C
 10
295.708
 20
172.306
 30
0.000000
  70
    32
  0
VERTEX
  8
0
  5
202D
 10
295.790
 20
172.264
 30
0.000000
  70
    32
  0
VERTEX
  8
0
  5
202E
 10
295.873
 20
172.223
 30
0.000000
  70
    32
  0
VERTEX
  8
0
  5
202F
 10
295.957
 20
172.183
 30
0.000000
  70
    32
  0
VERTEX
  8
0
  5
2030
 10
296.042
 20
172.143
 30
0.000000
  70
    32
  0
VERTEX
  8
0
  5
2031
 10
296.127
 20
172.105
 30
0.000000
  70
    32
  0
VERTEX
  8
0
  5
2032
 10
296.213
 20
172.066
 30
0.000000
  70
    32
  0
VERTEX
  8
0
  5
2033
 10
296.300
 20
172.029
 30
0.000000
  70
    32
  0
VERTEX
  8
0
  5
2034
 10
296.388
 20
171.992
 30
0.000000
  70
    32
  0
VERTEX
  8
0
  5
2035
 10
296.477
 20
171.956
 30
0.000000
  70
    32
  0
VERTEX
  8
0
  5
2036
 10
296.566
 20
171.921
 30
0.000000
  70
    32
  0
VERTEX
  8
0
  5
2037
 10
296.657
 20
171.887
 30
0.000000
  70
    32
  0
VERTEX
  8
0
  5
2038
 10
296.748
 20
171.853
 30
0.000000
  70
    32
  0
VERTEX
  8
0
  5
2039
 10
296.839
 20
171.820
 30
0.000000
  70
    32
  0
VERTEX
  8
0
  5
203A
 10
296.931
 20
171.788
 30
0.000000
  70
    32
  0
VERTEX
  8
0
  5
203B
 10
297.024
 20
171.756
 30
0.000000
  70
    32
  0
VERTEX
  8
0
  5
203C
 10
297.118
 20
171.726
 30
0.000000
  70
    32
  0
VERTEX
  8
0
  5
203D
 10
297.212
 20
171.696
 30
0.000000
  70
    32
  0
VERTEX
  8
0
  5
203E
 10
297.307
 20
171.667
 30
0.000000
  70
    32
  0
VERTEX
  8
0
  5
203F
 10
297.403
 20
171.638
 30
0.000000
  70
    32
  0
VERTEX
  8
0
  5
2040
 10
297.499
 20
171.611
 30
0.000000
  70
    32
  0
VERTEX
  8
0
  5
2041
 10
297.595
 20
171.584
 30
0.000000
  70
    32
  0
VERTEX
  8
0
  5
2042
 10
297.693
 20
171.558
 30
0.000000
  70
    32
  0
VERTEX
  8
0
  5
2043
 10
297.790
 20
171.533
 30
0.000000
  70
    32
  0
SEQEND
  8
0
  5
2044
  0
POLYLINE
  5
1D33
  8
0
 10
303.79028553575807
 20
171.53270452076589
 30
0.0
 66
     1
 70
     8
  0
VERTEX
  8
0
  5
2045
 10
303.790
 20
171.533
 30
0.000000
  70
    32
  0
VERTEX
  8
0
  5
2046
 10
303.888
 20
171.558
 30
0.000000
  70
    32
  0
VERTEX
  8
0
  5
2047
 10
303.985
 20
171.584
 30
0.000000
  70
    32
  0
VERTEX
  8
0
  5
2048
 10
304.082
 20
171.611
 30
0.000000
  70
    32
  0
VERTEX
  8
0
  5
2049
 10
304.178
 20
171.638
 30
0.000000
  70
    32
  0
VERTEX
  8
0
  5
204A
 10
304.273
 20
171.667
 30
0.000000
  70
    32
  0
VERTEX
  8
0
  5
204B
 10
304.368
 20
171.696
 30
0.000000
  70
    32
  0
VERTEX
  8
0
  5
204C
 10
304.463
 20
171.726
 30
0.000000
  70
    32
  0
VERTEX
  8
0
  5
204D
 10
304.556
 20
171.756
 30
0.000000
  70
    32
  0
VERTEX
  8
0
  5
204E
 10
304.649
 20
171.788
 30
0.000000
  70
    32
  0
VERTEX
  8
0
  5
204F
 10
304.741
 20
171.820
 30
0.000000
  70
    32
  0
VERTEX
  8
0
  5
2050
 10
304.833
 20
171.853
 30
0.000000
  70
    32
  0
VERTEX
  8
0
  5
2051
 10
304.924
 20
171.887
 30
0.000000
  70
    32
  0
VERTEX
  8
0
  5
2052
 10
305.014
 20
171.921
 30
0.000000
  70
    32
  0
VERTEX
  8
0
  5
2053
 10
305.104
 20
171.956
 30
0.000000
  70
    32
  0
VERTEX
  8
0
  5
2054
 10
305.192
 20
171.992
 30
0.000000
  70
    32
  0
VERTEX
  8
0
  5
2055
 10
305.280
 20
172.029
 30
0.000000
  70
    32
  0
VERTEX
  8
0
  5
2056
 10
305.367
 20
172.066
 30
0.000000
  70
    32
  0
VERTEX
  8
0
  5
2057
 10
305.454
 20
172.105
 30
0.000000
  70
    32
  0
VERTEX
  8
0
  5
2058
 10
305.539
 20
172.143
 30
0.000000
  70
    32
  0
VERTEX
  8
0
  5
2059
 10
305.624
 20
172.183
 30
0.000000
  70
    32
  0
VERTEX
  8
0
  5
205A
 10
305.708
 20
172.223
 30
0.000000
  70
    32
  0
VERTEX
  8
0
  5
205B
 10
305.791
 20
172.264
 30
0.000000
  70
    32
  0
VERTEX
  8
0
  5
205C
 10
305.873
 20
172.306
 30
0.000000
  70
    32
  0
VERTEX
  8
0
  5
205D
 10
305.954
 20
172.348
 30
0.000000
  70
    32
  0
VERTEX
  8
0
  5
205E
 10
306.034
 20
172.391
 30
0.000000
  70
    32
  0
VERTEX
  8
0
  5
205F
 10
306.114
 20
172.435
 30
0.000000
  70
    32
  0
VERTEX
  8
0
  5
2060
 10
306.192
 20
172.479
 30
0.000000
  70
    32
  0
VERTEX
  8
0
  5
2061
 10
306.270
 20
172.524
 30
0.000000
  70
    32
  0
VERTEX
  8
0
  5
2062
 10
306.346
 20
172.569
 30
0.000000
  70
    32
  0
VERTEX
  8
0
  5
2063
 10
306.422
 20
172.615
 30
0.000000
  70
    32
  0
VERTEX
  8
0
  5
2064
 10
306.496
 20
172.662
 30
0.000000
  70
    32
  0
VERTEX
  8
0
  5
2065
 10
306.570
 20
172.710
 30
0.000000
  70
    32
  0
VERTEX
  8
0
  5
2066
 10
306.642
 20
172.758
 30
0.000000
  70
    32
  0
VERTEX
  8
0
  5
2067
 10
306.714
 20
172.806
 30
0.000000
  70
    32
  0
VERTEX
  8
0
  5
2068
 10
306.785
 20
172.855
 30
0.000000
  70
    32
  0
VERTEX
  8
0
  5
2069
 10
306.854
 20
172.905
 30
0.000000
  70
    32
  0
VERTEX
  8
0
  5
206A
 10
306.923
 20
172.955
 30
0.000000
  70
    32
  0
VERTEX
  8
0
  5
206B
 10
306.990
 20
173.006
 30
0.000000
  70
    32
  0
VERTEX
  8
0
  5
206C
 10
307.056
 20
173.058
 30
0.000000
  70
    32
  0
VERTEX
  8
0
  5
206D
 10
307.121
 20
173.110
 30
0.000000
  70
    32
  0
VERTEX
  8
0
  5
206E
 10
307.185
 20
173.162
 30
0.000000
  70
    32
  0
VERTEX
  8
0
  5
206F
 10
307.248
 20
173.215
 30
0.000000
  70
    32
  0
VERTEX
  8
0
  5
2070
 10
307.310
 20
173.269
 30
0.000000
  70
    32
  0
VERTEX
  8
0
  5
2071
 10
307.371
 20
173.323
 30
0.000000
  70
    32
  0
VERTEX
  8
0
  5
2072
 10
307.431
 20
173.377
 30
0.000000
  70
    32
  0
VERTEX
  8
0
  5
2073
 10
307.489
 20
173.433
 30
0.000000
  70
    32
  0
VERTEX
  8
0
  5
2074
 10
307.546
 20
173.488
 30
0.000000
  70
    32
  0
VERTEX
  8
0
  5
2075
 10
307.602
 20
173.544
 30
0.000000
  70
    32
  0
VERTEX
  8
0
  5
2076
 10
307.657
 20
173.600
 30
0.000000
  70
    32
  0
VERTEX
  8
0
  5
2077
 10
307.711
 20
173.657
 30
0.000000
  70
    32
  0
VERTEX
  8
0
  5
2078
 10
307.763
 20
173.715
 30
0.000000
  70
    32
  0
VERTEX
  8
0
  5
2079
 10
307.814
 20
173.772
 30
0.000000
  70
    32
  0
VERTEX
  8
0
  5
207A
 10
307.864
 20
173.831
 30
0.000000
  70
    32
  0
VERTEX
  8
0
  5
207B
 10
307.913
 20
173.889
 30
0.000000
  70
    32
  0
VERTEX
  8
0
  5
207C
 10
307.961
 20
173.948
 30
0.000000
  70
    32
  0
VERTEX
  8
0
  5
207D
 10
308.007
 20
174.008
 30
0.000000
  70
    32
  0
VERTEX
  8
0
  5
207E
 10
308.052
 20
174.067
 30
0.000000
  70
    32
  0
VERTEX
  8
0
  5
207F
 10
308.096
 20
174.127
 30
0.000000
  70
    32
  0
VERTEX
  8
0
  5
2080
 10
308.138
 20
174.188
 30
0.000000
  70
    32
  0
VERTEX
  8
0
  5
2081
 10
308.179
 20
174.249
 30
0.000000
  70
    32
  0
VERTEX
  8
0
  5
2082
 10
308.219
 20
174.310
 30
0.000000
  70
    32
  0
VERTEX
  8
0
  5
2083
 10
308.258
 20
174.371
 30
0.000000
  70
    32
  0
VERTEX
  8
0
  5
2084
 10
308.295
 20
174.433
 30
0.000000
  70
    32
  0
VERTEX
  8
0
  5
2085
 10
308.331
 20
174.495
 30
0.000000
  70
    32
  0
VERTEX
  8
0
  5
2086
 10
308.366
 20
174.558
 30
0.000000
  70
    32
  0
VERTEX
  8
0
  5
2087
 10
308.399
 20
174.620
 30
0.000000
  70
    32
  0
VERTEX
  8
0
  5
2088
 10
308.431
 20
174.683
 30
0.000000
  70
    32
  0
VERTEX
  8
0
  5
2089
 10
308.462
 20
174.746
 30
0.000000
  70
    32
  0
VERTEX
  8
0
  5
208A
 10
308.491
 20
174.810
 30
0.000000
  70
    32
  0
VERTEX
  8
0
  5
208B
 10
308.519
 20
174.873
 30
0.000000
  70
    32
  0
VERTEX
  8
0
  5
208C
 10
308.546
 20
174.937
 30
0.000000
  70
    32
  0
VERTEX
  8
0
  5
208D
 10
308.571
 20
175.001
 30
0.000000
  70
    32
  0
VERTEX
  8
0
  5
208E
 10
308.595
 20
175.066
 30
0.000000
  70
    32
  0
VERTEX
  8
0
  5
208F
 10
308.617
 20
175.130
 30
0.000000
  70
    32
  0
VERTEX
  8
0
  5
2090
 10
308.638
 20
175.195
 30
0.000000
  70
    32
  0
VERTEX
  8
0
  5
2091
 10
308.658
 20
175.260
 30
0.000000
  70
    32
  0
VERTEX
  8
0
  5
2092
 10
308.677
 20
175.325
 30
0.000000
  70
    32
  0
VERTEX
  8
0
  5
2093
 10
308.694
 20
175.390
 30
0.000000
  70
    32
  0
VERTEX
  8
0
  5
2094
 10
308.709
 20
175.455
 30
0.000000
  70
    32
  0
VERTEX
  8
0
  5
2095
 10
308.724
 20
175.521
 30
0.000000
  70
    32
  0
VERTEX
  8
0
  5
2096
 10
308.737
 20
175.586
 30
0.000000
  70
    32
  0
VERTEX
  8
0
  5
2097
 10
308.748
 20
175.652
 30
0.000000
  70
    32
  0
VERTEX
  8
0
  5
2098
 10
308.758
 20
175.718
 30
0.000000
  70
    32
  0
VERTEX
  8
0
  5
2099
 10
308.767
 20
175.783
 30
0.000000
  70
    32
  0
VERTEX
  8
0
  5
209A
 10
308.774
 20
175.849
 30
0.000000
  70
    32
  0
VERTEX
  8
0
  5
209B
 10
308.780
 20
175.915
 30
0.000000
  70
    32
  0
VERTEX
  8
0
  5
209C
 10
308.785
 20
175.981
 30
0.000000
  70
    32
  0
VERTEX
  8
0
  5
209D
 10
308.788
 20
176.047
 30
0.000000
  70
    32
  0
VERTEX
  8
0
  5
209E
 10
308.790
 20
176.113
 30
0.000000
  70
    32
  0
VERTEX
  8
0
  5
209F
 10
308.790
 20
176.179
 30
0.000000
  70
    32
  0
VERTEX
  8
0
  5
20A0
 10
308.789
 20
176.245
 30
0.000000
  70
    32
  0
VERTEX
  8
0
  5
20A1
 10
308.787
 20
176.311
 30
0.000000
  70
    32
  0
VERTEX
  8
0
  5
20A2
 10
308.783
 20
176.377
 30
0.000000
  70
    32
  0
VERTEX
  8
0
  5
20A3
 10
308.778
 20
176.443
 30
0.000000
  70
    32
  0
VERTEX
  8
0
  5
20A4
 10
308.771
 20
176.509
 30
0.000000
  70
    32
  0
VERTEX
  8
0
  5
20A5
 10
308.763
 20
176.575
 30
0.000000
  70
    32
  0
VERTEX
  8
0
  5
20A6
 10
308.754
 20
176.641
 30
0.000000
  70
    32
  0
VERTEX
  8
0
  5
20A7
 10
308.743
 20
176.706
 30
0.000000
  70
    32
  0
VERTEX
  8
0
  5
20A8
 10
308.731
 20
176.772
 30
0.000000
  70
    32
  0
VERTEX
  8
0
  5
20A9
 10
308.717
 20
176.837
 30
0.000000
  70
    32
  0
VERTEX
  8
0
  5
20AA
 10
308.702
 20
176.903
 30
0.000000
  70
    32
  0
VERTEX
  8
0
  5
20AB
 10
308.686
 20
176.968
 30
0.000000
  70
    32
  0
VERTEX
  8
0
  5
20AC
 10
308.668
 20
177.033
 30
0.000000
  70
    32
  0
VERTEX
  8
0
  5
20AD
 10
308.649
 20
177.098
 30
0.000000
  70
    32
  0
VERTEX
  8
0
  5
20AE
 10
308.629
 20
177.163
 30
0.000000
  70
    32
  0
VERTEX
  8
0
  5
20AF
 10
308.607
 20
177.227
 30
0.000000
  70
    32
  0
VERTEX
  8
0
  5
20B0
 10
308.584
 20
177.292
 30
0.000000
  70
    32
  0
VERTEX
  8
0
  5
20B1
 10
308.559
 20
177.356
 30
0.000000
  70
    32
  0
VERTEX
  8
0
  5
20B2
 10
308.533
 20
177.420
 30
0.000000
  70
    32
  0
VERTEX
  8
0
  5
20B3
 10
308.506
 20
177.484
 30
0.000000
  70
    32
  0
VERTEX
  8
0
  5
20B4
 10
308.477
 20
177.547
 30
0.000000
  70
    32
  0
VERTEX
  8
0
  5
20B5
 10
308.447
 20
177.611
 30
0.000000
  70
    32
  0
VERTEX
  8
0
  5
20B6
 10
308.416
 20
177.674
 30
0.000000
  70
    32
  0
VERTEX
  8
0
  5
20B7
 10
308.383
 20
177.736
 30
0.000000
  70
    32
  0
VERTEX
  8
0
  5
20B8
 10
308.349
 20
177.799
 30
0.000000
  70
    32
  0
VERTEX
  8
0
  5
20B9
 10
308.314
 20
177.861
 30
0.000000
  70
    32
  0
VERTEX
  8
0
  5
20BA
 10
308.278
 20
177.923
 30
0.000000
  70
    32
  0
VERTEX
  8
0
  5
20BB
 10
308.240
 20
177.985
 30
0.000000
  70
    32
  0
VERTEX
  8
0
  5
20BC
 10
308.200
 20
178.046
 30
0.000000
  70
    32
  0
VERTEX
  8
0
  5
20BD
 10
308.160
 20
178.107
 30
0.000000
  70
    32
  0
VERTEX
  8
0
  5
20BE
 10
308.118
 20
178.168
 30
0.000000
  70
    32
  0
VERTEX
  8
0
  5
20BF
 10
308.075
 20
178.228
 30
0.000000
  70
    32
  0
VERTEX
  8
0
  5
20C0
 10
308.031
 20
178.288
 30
0.000000
  70
    32
  0
VERTEX
  8
0
  5
20C1
 10
307.985
 20
178.348
 30
0.000000
  70
    32
  0
VERTEX
  8
0
  5
20C2
 10
307.938
 20
178.407
 30
0.000000
  70
    32
  0
VERTEX
  8
0
  5
20C3
 10
307.890
 20
178.466
 30
0.000000
  70
    32
  0
VERTEX
  8
0
  5
20C4
 10
307.841
 20
178.524
 30
0.000000
  70
    32
  0
VERTEX
  8
0
  5
20C5
 10
307.790
 20
178.582
 30
0.000000
  70
    32
  0
SEQEND
  8
0
  5
20C6
  0
ARC
  5
1D34
  8
0
 10
299.29028553575807
 20
186.43188951399151
 30
0.0
 40
1.5
 50
90.0
 51
180.0
  0
ARC
  5
1D35
  8
0
 10
302.29028553575819
 20
186.43188951399151
 30
0.0
 40
1.5
 50
0.0
 51
90.0
  0
ARC
  5
1D36
  8
0
 10
302.29028553575819
 20
171.43188951399151
 30
0.0
 40
1.5
 50
270.0
 51
359.99999999999977
  0
ARC
  5
1D37
  8
0
 10
299.29028553575807
 20
171.43188951399151
 30
0.0
 40
1.5
 50
180.0
 51
270.0
  0
LINE
  5
1E4F
  8
0
 10
295.79028553575807
 20
121.7318895139915
 30
0.0
 11
305.79028553575807
 21
121.7318895139915
 31
0.0
  0
LINE
  5
1E50
  8
0
 10
304.46237991662201
 20
119.43188951399151
 30
0.0
 11
305.79028553575807
 21
121.7318895139915
 31
0.0
  0
LINE
  5
1E51
  8
0
 10
295.79028553575807
 20
121.7318895139915
 30
0.0
 11
297.11819115489419
 21
119.43188951399151
 31
0.0
  0
LINE
  5
1E52
  8
0
 10
297.11819115489419
 20
119.43188951399151
 30
0.0
 11
304.46237991662201
 21
119.43188951399151
 31
0.0
  0
LINE
  5
1E53
  8
0
 10
295.79028553575807
 20
131.43188951399151
 30
0.0
 11
295.79028553575807
 21
121.7318895139915
 31
0.0
  0
INSERT
  5
1E54
  8
0
  2
BATU
 10
300.78978553575809
 20
131.43188951399151
 30
0.0
 41
0.0009999999999764
 42
0.0009999999999764
 43
0.0009999999999764
  0
LINE
  5
1E55
  8
0
 10
305.79028553575807
 20
121.7318895139915
 30
0.0
 11
305.79028553575807
 21
131.43188951399151
 31
0.0
  0
LINE
  5
1E5D
  8
0
 10
183.41154293199861
 20
119.4313895139915
 30
0.0
 11
190.75573169372629
 21
119.4313895139915
 31
0.0
  0
LINE
  5
1E5E
  8
0
 10
182.08363731286249
 20
121.7313895139915
 30
0.0
 11
192.08363731286249
 21
121.7313895139915
 31
0.0
  0
LINE
  5
1E5F
  8
0
 10
182.08363731286249
 20
121.7313895139915
 30
0.0
 11
183.41154293199861
 21
119.4313895139915
 31
0.0
  0
LINE
  5
1E60
  8
0
 10
190.75573169372629
 20
119.4313895139915
 30
0.0
 11
192.08363731286249
 21
121.7313895139915
 31
0.0
  0
LINE
  5
1E61
  8
0
 10
192.08363731286249
 20
121.7313895139915
 30
0.0
 11
192.08363731286249
 21
131.43138951399149
 31
0.0
  0
LINE
  5
1E62
  8
0
 10
182.08363731286249
 20
131.43138951399149
 30
0.0
 11
182.08363731286249
 21
121.7313895139915
 31
0.0
  0
LINE
  5
1E63
  8
0
 10
113.0873943606434
 20
121.7313895139915
 30
0.0
 11
113.0873943606434
 21
131.43138951399149
 31
0.0
  0
LINE
  5
1E64
  8
0
 10
103.0873943606434
 20
121.7313895139915
 30
0.0
 11
113.0873943606434
 21
121.7313895139915
 31
0.0
  0
LINE
  5
1E65
  8
0
 10
104.4152999797795
 20
119.4313895139915
 30
0.0
 11
111.7594887415073
 21
119.4313895139915
 31
0.0
  0
LINE
  5
1E66
  8
0
 10
111.7594887415073
 20
119.4313895139915
 30
0.0
 11
113.0873943606434
 21
121.7313895139915
 31
0.0
  0
LINE
  5
1E67
  8
0
 10
103.0873943606434
 20
131.43138951399149
 30
0.0
 11
103.0873943606434
 21
121.7313895139915
 31
0.0
  0
LINE
  5
1E68
  8
0
 10
103.0873943606434
 20
121.7313895139915
 30
0.0
 11
104.4152999797795
 21
119.4313895139915
 31
0.0
  0
CIRCLE
  5
1E6B
  8
0
 10
187.08263731286249
 20
61.930664946144503
 30
0.0
 40
3.6730943808638581
  0
CIRCLE
  5
1E6C
  8
0
 10
187.08263731286249
 20
61.930664946144503
 30
0.0
 40
5.0009999999999764
  0
TEXT
  5
1F1E
  8
0
 62
     3
 10
0.0
 20
0.0
 30
0.0
 40
5.0
  1
GDX20L-10
  7
STANDARD1
  0
ENDSEC
  0
EOF
