  0
SECTION
  2
HEADER
  9
$ACADVER
  1
AC1009
  9
$INSBASE
 10
0.0
 20
0.0
 30
0.0
  9
$EXTMIN
 10
0.0
 20
-2.960436562073669
 30
0.0
  9
$EXTMAX
 10
260.66708285833943
 20
237.63765929595601
 30
0.0
  9
$LIMMIN
 10
0.0
 20
0.0
  9
$LIMMAX
 10
385.0
 20
270.0
  9
$ORTHOMODE
 70
     1
  9
$REGENMODE
 70
     1
  9
$FILLMODE
 70
     1
  9
$QTEXTMODE
 70
     0
  9
$MIRRTEXT
 70
     0
  9
$DRAGMODE
 70
     2
  9
$LTSCALE
 40
10.0
  9
$OSMODE
 70
  3071
  9
$ATTMODE
 70
     1
  9
$TEXTSIZE
 40
0.2
  9
$TRACEWID
 40
0.05
  9
$TEXTSTYLE
  7
STANDARD
  9
$CLAYER
  8
0
  9
$CELTYPE
  6
BYLAYER
  9
$CECOLOR
 62
   256
  9
$DIMSCALE
 40
1.0
  9
$DIMASZ
 40
3.0
  9
$DIMEXO
 40
1.0
  9
$DIMDLI
 40
6.0
  9
$DIMRND
 40
0.0
  9
$DIMDLE
 40
0.0
  9
$DIMEXE
 40
1.0
  9
$DIMTP
 40
495.0
  9
$DIMTM
 40
0.0
  9
$DIMTXT
 40
3.0
  9
$DIMCEN
 40
0.0
  9
$DIMTSZ
 40
0.0
  9
$DIMTOL
 70
     0
  9
$DIMLIM
 70
     0
  9
$DIMTIH
 70
     0
  9
$DIMTOH
 70
     0
  9
$DIMSE1
 70
     0
  9
$DIMSE2
 70
     0
  9
$DIMTAD
 70
     1
  9
$DIMZIN
 70
     0
  9
$DIMBLK
  1

  9
$DIMASO
 70
     0
  9
$DIMSHO
 70
     0
  9
$DIMPOST
  1

  9
$DIMAPOST
  1

  9
$DIMALT
 70
     0
  9
$DIMALTD
 70
     2
  9
$DIMALTF
 40
25.399999999999999
  9
$DIMLFAC
 40
1.0
  9
$DIMTOFL
 70
     1
  9
$DIMTVP
 40
0.0
  9
$DIMTIX
 70
     1
  9
$DIMSOXD
 70
     0
  9
$DIMSAH
 70
     0
  9
$DIMBLK1
  1

  9
$DIMBLK2
  1

  9
$DIMSTYLE
  2
STANDARD
  9
$DIMCLRD
 70
     0
  9
$DIMCLRE
 70
     0
  9
$DIMCLRT
 70
     4
  9
$DIMTFAC
 40
1.0
  9
$DIMGAP
 40
1.0
  9
$LUNITS
 70
     2
  9
$LUPREC
 70
     4
  9
$SKETCHINC
 40
0.1
  9
$FILLETRAD
 40
0.0
  9
$AUNITS
 70
     0
  9
$AUPREC
 70
     0
  9
$MENU
  1
E:\r13\win\SUPPORT\ACAD
  9
$ELEVATION
 40
0.0
  9
$PELEVATION
 40
0.0
  9
$THICKNESS
 40
0.0
  9
$LIMCHECK
 70
     0
  9
$BLIPMODE
 70
     0
  9
$CHAMFERA
 40
0.0
  9
$CHAMFERB
 40
0.0
  9
$SKPOLY
 70
     0
  9
$TDCREATE
 40
2450539.3769769678
  9
$TDUPDATE
 40
2456598.6855040281
  9
$TDINDWG
 40
0.0678790278
  9
$TDUSRTIMER
 40
0.0678790278
  9
$USRTIMER
 70
     1
  9
$ANGBASE
 50
0.0
  9
$ANGDIR
 70
     0
  9
$PDMODE
 70
     0
  9
$PDSIZE
 40
0.0
  9
$PLINEWID
 40
0.0
  9
$COORDS
 70
     1
  9
$SPLFRAME
 70
     0
  9
$SPLINETYPE
 70
     6
  9
$SPLINESEGS
 70
     8
  9
$ATTDIA
 70
     0
  9
$ATTREQ
 70
     1
  9
$HANDLING
 70
     1
  9
$HANDSEED
  5
2485
  9
$SURFTAB1
 70
     6
  9
$SURFTAB2
 70
     6
  9
$SURFTYPE
 70
     6
  9
$SURFU
 70
     6
  9
$SURFV
 70
     6
  9
$UCSNAME
  2

  9
$UCSORG
 10
0.0
 20
0.0
 30
0.0
  9
$UCSXDIR
 10
1.0
 20
0.0
 30
0.0
  9
$UCSYDIR
 10
0.0
 20
1.0
 30
0.0
  9
$PUCSNAME
  2

  9
$PUCSORG
 10
0.0
 20
0.0
 30
0.0
  9
$PUCSXDIR
 10
1.0
 20
0.0
 30
0.0
  9
$PUCSYDIR
 10
0.0
 20
1.0
 30
0.0
  9
$USERI1
 70
     3
  9
$USERI2
 70
     1
  9
$USERI3
 70
     0
  9
$USERI4
 70
     0
  9
$USERI5
 70
     0
  9
$USERR1
 40
1.0
  9
$USERR2
 40
3.0
  9
$USERR3
 40
3.0
  9
$USERR4
 40
3.0
  9
$USERR5
 40
10.0
  9
$WORLDVIEW
 70
     1
  9
$SHADEDGE
 70
     3
  9
$SHADEDIF
 70
    70
  9
$TILEMODE
 70
     1
  9
$MAXACTVP
 70
    16
  9
$PLIMCHECK
 70
     0
  9
$PEXTMIN
 10
1.0000000000000000E+020
 20
1.0000000000000000E+020
 30
1.0000000000000000E+020
  9
$PEXTMAX
 10
-1.0000000000000000E+020
 20
-1.0000000000000000E+020
 30
-1.0000000000000000E+020
  9
$PLIMMIN
 10
0.0
 20
0.0
  9
$PLIMMAX
 10
12.0
 20
9.0
  9
$UNITMODE
 70
     0
  9
$VISRETAIN
 70
     0
  9
$PLINEGEN
 70
     0
  9
$PSLTSCALE
 70
     0
  0
ENDSEC
  0
SECTION
  2
TABLES
  0
TABLE
  2
VPORT
 70
     1
  0
VPORT
  2
*ACTIVE
 70
     0
 10
0.0
 20
0.0
 11
1.0
 21
1.0
 12
192.49412581440311
 22
134.10366293909439
 13
0.0
 23
0.0
 14
5.0
 24
5.0
 15
10.0
 25
10.0
 16
0.0
 26
0.0
 36
1.0
 17
0.0
 27
0.0
 37
0.0
 40
277.29405978699532
 41
2.304913294797688
 42
50.0
 43
0.0
 44
0.0
 50
0.0
 51
0.0
 71
     0
 72
   100
 73
     1
 74
     0
 75
     0
 76
     0
 77
     0
 78
     0
  0
ENDTAB
  0
TABLE
  2
LTYPE
 70
     4
  0
LTYPE
  2
CONTINUOUS
 70
     0
  3
Solid Line
 72
    65
 73
     0
 40
0.0
  0
LTYPE
  2
CENTER
 70
     0
  3
____ _ ____ _ ____ _ ____ _ ____ _ ____ _ ____
 72
    65
 73
     4
 40
2.0
 49
1.25
 49
-0.25
 49
0.25
 49
-0.25
  0
LTYPE
  2
HIDDEN
 70
     0
  3
_ _ _ _ _ _ _ _ _ _ _ _ _ _ _ _ _ _ _ _ _ _ _
 72
    65
 73
     2
 40
0.375
 49
0.25
 49
-0.125
  0
LTYPE
  2
PHANTOM2
 70
     0
  3
___ _ _ ___ _ _ ___ _ _ ___ _ _
 72
    65
 73
     6
 40
1.25
 49
0.625
 49
-0.125
 49
0.125
 49
-0.125
 49
0.125
 49
-0.125
  0
ENDTAB
  0
TABLE
  2
LAYER
 70
     4
  0
LAYER
  2
0
 70
     0
 62
     7
  6
CONTINUOUS
  0
LAYER
  2
1
 70
     0
 62
     1
  6
CENTER
  0
LAYER
  2
11
 70
     0
 62
     3
  6
CONTINUOUS
  0
LAYER
  2
2
 70
     0
 62
     2
  6
HIDDEN
  0
ENDTAB
  0
TABLE
  2
STYLE
 70
     2
  0
STYLE
  2
STANDARD
 70
     0
 40
0.0
 41
1.0
 50
0.0
 71
     0
 42
0.2
  3
simplex
  4
bigfont
  0
STYLE
  2
STANDARD1
 70
     0
 40
0.0
 41
1.0
 50
0.0
 71
     0
 42
3.0
  3
txt
  4

  0
ENDTAB
  0
TABLE
  2
VIEW
 70
     0
  0
ENDTAB
  0
TABLE
  2
UCS
 70
     0
  0
ENDTAB
  0
TABLE
  2
APPID
 70
     3
  0
APPID
  2
ACAD
 70
     0
  0
APPID
  2
ACAD_MLEADERVER
 70
     0
  0
APPID
  2
ACAD_NAV_VCDISPLAY
 70
     0
  0
ENDTAB
  0
TABLE
  2
DIMSTYLE
 70
     1
  0
DIMSTYLE
  2
STANDARD
 70
     0
  3

  4

  5

  6

  7

 40
1.0
 41
0.18
 42
0.0625
 43
0.38
 44
0.18
 45
0.0
 46
0.0
 47
0.0
 48
0.0
140
0.18
141
0.09
142
0.0
143
25.399999999999999
144
1.0
145
0.0
146
1.0
147
0.09
 71
     0
 72
     0
 73
     1
 74
     1
 75
     0
 76
     0
 77
     0
 78
     0
170
     0
171
     2
172
     0
173
     0
174
     0
175
     0
176
     0
177
     0
178
     0
  0
ENDTAB
  0
ENDSEC
  0
SECTION
  2
BLOCKS
  0
BLOCK
  8
0
  2
$MODEL_SPACE
 70
     0
 10
0.0
 20
0.0
 30
0.0
  3
$MODEL_SPACE
  1

  0
ENDBLK
  5
2342
  8
0
  0
BLOCK
 67
     1
  8
0
  2
$PAPER_SPACE
 70
     0
 10
0.0
 20
0.0
 30
0.0
  3
$PAPER_SPACE
  1

  0
ENDBLK
  5
2340
 67
     1
  8
0
  0
BLOCK
  8
0
  2
STDGX5
 70
     0
 10
0.0
 20
0.0
 30
0.0
  3
STDGX5
  1

  0
ENDBLK
  5
4F
  8
0
  0
ENDSEC
  0
SECTION
  2
ENTITIES
  0
INSERT
  5
DE
  8
0
  2
STDGX5
 10
0.0
 20
0.0
 30
0.0
  0
INSERT
  5
DF
  8
0
  2
STDGX5
 10
0.0
 20
0.0
 30
0.0
  0
INSERT
  5
15C
  8
0
  2
STDGX5
 10
275.0
 20
0.0
 30
0.0
  0
INSERT
  5
15D
  8
0
  2
STDGX5
 10
275.0
 20
0.0
 30
0.0
  0
INSERT
  5
33A
  8
11
  2
STDGX5
 10
28.965758445371989
 20
68.351351247030379
 30
0.0
  0
INSERT
  5
33B
  8
11
  2
STDGX5
 10
66.450857061588408
 20
32.351350970427461
 30
0.0
  0
INSERT
  5
33C
  8
11
  2
STDGX5
 10
0.0
 20
0.0
 30
0.0
  0
INSERT
  5
33D
  8
11
  2
STDGX5
 10
900.60215747054235
 20
246.07168527084471
 30
0.0
  0
INSERT
  5
33E
  8
11
  2
STDGX5
 10
938.08725608675866
 20
210.07168499424179
 30
0.0
  0
INSERT
  5
33F
  8
11
  2
STDGX5
 10
871.63639902517025
 20
177.7203340238143
 30
0.0
  0
INSERT
  5
340
  8
11
  2
STDGX5
 10
1685.641404080747
 20
276.22902723739588
 30
0.0
  0
INSERT
  5
341
  8
11
  2
STDGX5
 10
1723.1265026969629
 20
240.22902696079299
 30
0.0
  0
INSERT
  5
342
  8
11
  2
STDGX5
 10
1656.6756456353751
 20
207.8776759903655
 30
0.0
  0
LINE
  5
41F
  8
0
 10
155.66708285833951
 20
188.37235257602109
 30
0.0
 11
255.66708285833951
 21
188.37235257602109
 31
0.0
  0
LINE
  5
420
  8
0
 10
155.66708285833951
 20
188.37235257602109
 30
0.0
 11
155.66708285833931
 21
147.37235257602191
 31
0.0
  0
LINE
  5
421
  8
0
 10
155.66708285833931
 20
147.37235257602191
 30
0.0
 11
255.6670828583394
 21
147.37235257602191
 31
0.0
  0
LINE
  5
422
  8
0
 10
255.66708285833951
 20
188.37235257602069
 30
0.0
 11
255.6670828583394
 21
147.37235257602151
 31
0.0
  0
INSERT
  5
5C5
  8
11
  2
STDGX5
 10
226.26727972073849
 20
84.468698115756936
 30
0.0
  0
INSERT
  5
5C6
  8
11
  2
STDGX5
 10
263.75237833695491
 20
48.468697839153997
 30
0.0
  0
INSERT
  5
5C7
  8
11
  2
STDGX5
 10
197.3015212753665
 20
16.117346868726539
 30
0.0
  0
INSERT
  5
5C8
  8
11
  2
STDGX5
 10
1097.903678745909
 20
262.18903213957122
 30
0.0
  0
INSERT
  5
5C9
  8
11
  2
STDGX5
 10
1135.388777362125
 20
226.18903186296831
 30
0.0
  0
INSERT
  5
5CA
  8
11
  2
STDGX5
 10
1068.9379203005369
 20
193.83768089254079
 30
0.0
  0
INSERT
  5
5CB
  8
11
  2
STDGX5
 10
1882.9429253561129
 20
292.34637410612248
 30
0.0
  0
INSERT
  5
5CC
  8
11
  2
STDGX5
 10
1920.4280239723289
 20
256.34637382951962
 30
0.0
  0
INSERT
  5
5CD
  8
11
  2
STDGX5
 10
1853.9771669107411
 20
223.9950228590921
 30
0.0
  0
INSERT
  5
5E0
  8
11
  2
STDGX5
 10
501.26727972073837
 20
109.4687413181738
 30
0.0
  0
INSERT
  5
5E1
  8
11
  2
STDGX5
 10
538.75237833695485
 20
73.468741041570922
 30
0.0
  0
INSERT
  5
5E2
  8
11
  2
STDGX5
 10
472.30152127536638
 20
41.117390071143461
 30
0.0
  0
INSERT
  5
5E3
  8
11
  2
STDGX5
 10
1372.903678745909
 20
287.1890753419882
 30
0.0
  0
INSERT
  5
5E4
  8
11
  2
STDGX5
 10
1410.388777362125
 20
251.1890750653852
 30
0.0
  0
INSERT
  5
5E5
  8
11
  2
STDGX5
 10
1343.9379203005369
 20
218.83772409495779
 30
0.0
  0
INSERT
  5
5E6
  8
11
  2
STDGX5
 10
2157.9429253561129
 20
317.3464173085394
 30
0.0
  0
INSERT
  5
5E7
  8
11
  2
STDGX5
 10
2195.4280239723298
 20
281.34641703193648
 30
0.0
  0
INSERT
  5
5E8
  8
11
  2
STDGX5
 10
2128.9771669107422
 20
248.99506606150899
 30
0.0
  0
INSERT
  5
5F5
  8
11
  2
STDGX5
 10
501.26727972073837
 20
109.4687413181738
 30
0.0
  0
INSERT
  5
5F6
  8
11
  2
STDGX5
 10
538.75237833695485
 20
73.468741041570922
 30
0.0
  0
INSERT
  5
5F7
  8
11
  2
STDGX5
 10
472.30152127536638
 20
41.117390071143461
 30
0.0
  0
INSERT
  5
5F8
  8
11
  2
STDGX5
 10
1372.903678745909
 20
287.1890753419882
 30
0.0
  0
INSERT
  5
5F9
  8
11
  2
STDGX5
 10
1410.388777362125
 20
251.1890750653852
 30
0.0
  0
INSERT
  5
5FA
  8
11
  2
STDGX5
 10
1343.9379203005369
 20
218.83772409495779
 30
0.0
  0
INSERT
  5
5FB
  8
11
  2
STDGX5
 10
2157.9429253561129
 20
317.3464173085394
 30
0.0
  0
INSERT
  5
5FC
  8
11
  2
STDGX5
 10
2195.4280239723298
 20
281.34641703193648
 30
0.0
  0
INSERT
  5
5FD
  8
11
  2
STDGX5
 10
2128.9771669107422
 20
248.99506606150899
 30
0.0
  0
INSERT
  5
7CB
  8
11
  2
STDGX5
 10
224.06125267220659
 20
78.682983729459806
 30
0.0
  0
INSERT
  5
7CC
  8
11
  2
STDGX5
 10
261.5463512884229
 20
42.682983452856881
 30
0.0
  0
INSERT
  5
7CD
  8
11
  2
STDGX5
 10
195.09549422683449
 20
10.33163248242942
 30
0.0
  0
INSERT
  5
7CE
  8
11
  2
STDGX5
 10
1095.6976516973771
 20
256.40331775327411
 30
0.0
  0
INSERT
  5
7CF
  8
11
  2
STDGX5
 10
1133.182750313593
 20
220.40331747667119
 30
0.0
  0
INSERT
  5
7D0
  8
11
  2
STDGX5
 10
1066.7318932520041
 20
188.0519665062437
 30
0.0
  0
INSERT
  5
7D1
  8
11
  2
STDGX5
 10
1880.736898307581
 20
286.56065971982542
 30
0.0
  0
INSERT
  5
7D2
  8
11
  2
STDGX5
 10
1918.221996923797
 20
250.56065944322239
 30
0.0
  0
INSERT
  5
7D3
  8
11
  2
STDGX5
 10
1851.7711398622091
 20
218.20930847279499
 30
0.0
  0
INSERT
  5
7E6
  8
11
  2
STDGX5
 10
499.06125267220648
 20
103.6830269318767
 30
0.0
  0
INSERT
  5
7E7
  8
11
  2
STDGX5
 10
536.54635128842301
 20
67.683026655273807
 30
0.0
  0
INSERT
  5
7E8
  8
11
  2
STDGX5
 10
470.09549422683449
 20
35.331675684846353
 30
0.0
  0
INSERT
  5
7E9
  8
11
  2
STDGX5
 10
1370.6976516973771
 20
281.40336095569103
 30
0.0
  0
INSERT
  5
7EA
  8
11
  2
STDGX5
 10
1408.182750313593
 20
245.40336067908811
 30
0.0
  0
INSERT
  5
7EB
  8
11
  2
STDGX5
 10
1341.731893252005
 20
213.05200970866059
 30
0.0
  0
INSERT
  5
7EC
  8
11
  2
STDGX5
 10
2155.7368983075812
 20
311.56070292224229
 30
0.0
  0
INSERT
  5
7ED
  8
11
  2
STDGX5
 10
2193.2219969237981
 20
275.56070264563942
 30
0.0
  0
INSERT
  5
7EE
  8
11
  2
STDGX5
 10
2126.7711398622091
 20
243.20935167521191
 30
0.0
  0
INSERT
  5
7EF
  8
11
  2
STDGX5
 10
499.06125267220648
 20
103.6830269318767
 30
0.0
  0
INSERT
  5
7F0
  8
11
  2
STDGX5
 10
536.54635128842301
 20
67.683026655273807
 30
0.0
  0
INSERT
  5
7F1
  8
11
  2
STDGX5
 10
470.09549422683449
 20
35.331675684846353
 30
0.0
  0
INSERT
  5
7F2
  8
11
  2
STDGX5
 10
1370.6976516973771
 20
281.40336095569103
 30
0.0
  0
INSERT
  5
7F3
  8
11
  2
STDGX5
 10
1408.182750313593
 20
245.40336067908811
 30
0.0
  0
INSERT
  5
7F4
  8
11
  2
STDGX5
 10
1341.731893252005
 20
213.05200970866059
 30
0.0
  0
INSERT
  5
7F5
  8
11
  2
STDGX5
 10
2155.7368983075812
 20
311.56070292224229
 30
0.0
  0
INSERT
  5
7F6
  8
11
  2
STDGX5
 10
2193.2219969237981
 20
275.56070264563942
 30
0.0
  0
INSERT
  5
7F7
  8
11
  2
STDGX5
 10
2126.7711398622091
 20
243.20935167521191
 30
0.0
  0
INSERT
  5
7F8
  8
11
  2
STDGX5
 10
499.06125267220648
 20
103.6830269318767
 30
0.0
  0
INSERT
  5
7F9
  8
11
  2
STDGX5
 10
536.54635128842301
 20
67.683026655273807
 30
0.0
  0
INSERT
  5
7FA
  8
11
  2
STDGX5
 10
470.09549422683449
 20
35.331675684846353
 30
0.0
  0
INSERT
  5
7FB
  8
11
  2
STDGX5
 10
1370.6976516973771
 20
281.40336095569103
 30
0.0
  0
INSERT
  5
7FC
  8
11
  2
STDGX5
 10
1408.182750313593
 20
245.40336067908811
 30
0.0
  0
INSERT
  5
7FD
  8
11
  2
STDGX5
 10
1341.731893252005
 20
213.05200970866059
 30
0.0
  0
INSERT
  5
7FE
  8
11
  2
STDGX5
 10
2155.7368983075812
 20
311.56070292224229
 30
0.0
  0
INSERT
  5
7FF
  8
11
  2
STDGX5
 10
2193.2219969237981
 20
275.56070264563942
 30
0.0
  0
INSERT
  5
800
  8
11
  2
STDGX5
 10
2126.7711398622091
 20
243.20935167521191
 30
0.0
  0
INSERT
  5
9DA
  8
11
  2
STDGX5
 10
225.9915264088516
 20
85.846249234951813
 30
0.0
  0
INSERT
  5
9DB
  8
11
  2
STDGX5
 10
263.47662502506802
 20
49.846248958348887
 30
0.0
  0
INSERT
  5
9DC
  8
11
  2
STDGX5
 10
197.02576796347961
 20
17.49489798792143
 30
0.0
  0
INSERT
  5
9DD
  8
11
  2
STDGX5
 10
1097.6279254340211
 20
263.56658325876612
 30
0.0
  0
INSERT
  5
9DE
  8
11
  2
STDGX5
 10
1135.113024050238
 20
227.5665829821632
 30
0.0
  0
INSERT
  5
9DF
  8
11
  2
STDGX5
 10
1068.6621669886499
 20
195.21523201173571
 30
0.0
  0
INSERT
  5
9E0
  8
11
  2
STDGX5
 10
1882.6671720442259
 20
293.72392522531737
 30
0.0
  0
INSERT
  5
9E1
  8
11
  2
STDGX5
 10
1920.152270660443
 20
257.72392494871451
 30
0.0
  0
INSERT
  5
9E2
  8
11
  2
STDGX5
 10
1853.7014135988541
 20
225.37257397828699
 30
0.0
  0
INSERT
  5
9F5
  8
11
  2
STDGX5
 10
500.99152640885148
 20
110.8462924373687
 30
0.0
  0
INSERT
  5
9F6
  8
11
  2
STDGX5
 10
538.47662502506785
 20
74.846292160765813
 30
0.0
  0
INSERT
  5
9F7
  8
11
  2
STDGX5
 10
472.02576796347961
 20
42.494941190338352
 30
0.0
  0
INSERT
  5
9F8
  8
11
  2
STDGX5
 10
1372.627925434022
 20
288.56662646118298
 30
0.0
  0
INSERT
  5
9F9
  8
11
  2
STDGX5
 10
1410.113024050238
 20
252.56662618458009
 30
0.0
  0
INSERT
  5
9FA
  8
11
  2
STDGX5
 10
1343.6621669886499
 20
220.21527521415271
 30
0.0
  0
INSERT
  5
9FB
  8
11
  2
STDGX5
 10
2157.6671720442259
 20
318.72396842773429
 30
0.0
  0
INSERT
  5
9FC
  8
11
  2
STDGX5
 10
2195.1522706604428
 20
282.72396815113137
 30
0.0
  0
INSERT
  5
9FD
  8
11
  2
STDGX5
 10
2128.7014135988538
 20
250.37261718070391
 30
0.0
  0
INSERT
  5
9FE
  8
11
  2
STDGX5
 10
500.99152640885148
 20
110.8462924373687
 30
0.0
  0
INSERT
  5
9FF
  8
11
  2
STDGX5
 10
538.47662502506785
 20
74.846292160765813
 30
0.0
  0
INSERT
  5
A00
  8
11
  2
STDGX5
 10
472.02576796347961
 20
42.494941190338352
 30
0.0
  0
INSERT
  5
A01
  8
11
  2
STDGX5
 10
1372.627925434022
 20
288.56662646118298
 30
0.0
  0
INSERT
  5
A02
  8
11
  2
STDGX5
 10
1410.113024050238
 20
252.56662618458009
 30
0.0
  0
INSERT
  5
A03
  8
11
  2
STDGX5
 10
1343.6621669886499
 20
220.21527521415271
 30
0.0
  0
INSERT
  5
A04
  8
11
  2
STDGX5
 10
2157.6671720442259
 20
318.72396842773429
 30
0.0
  0
INSERT
  5
A05
  8
11
  2
STDGX5
 10
2195.1522706604428
 20
282.72396815113137
 30
0.0
  0
INSERT
  5
A06
  8
11
  2
STDGX5
 10
2128.7014135988538
 20
250.37261718070391
 30
0.0
  0
INSERT
  5
A07
  8
11
  2
STDGX5
 10
500.99152640885148
 20
110.8462924373687
 30
0.0
  0
INSERT
  5
A08
  8
11
  2
STDGX5
 10
538.47662502506785
 20
74.846292160765813
 30
0.0
  0
INSERT
  5
A09
  8
11
  2
STDGX5
 10
472.02576796347961
 20
42.494941190338352
 30
0.0
  0
INSERT
  5
A0A
  8
11
  2
STDGX5
 10
1372.627925434022
 20
288.56662646118298
 30
0.0
  0
INSERT
  5
A0B
  8
11
  2
STDGX5
 10
1410.113024050238
 20
252.56662618458009
 30
0.0
  0
INSERT
  5
A0C
  8
11
  2
STDGX5
 10
1343.6621669886499
 20
220.21527521415271
 30
0.0
  0
INSERT
  5
A0D
  8
11
  2
STDGX5
 10
2157.6671720442259
 20
318.72396842773429
 30
0.0
  0
INSERT
  5
A0E
  8
11
  2
STDGX5
 10
2195.1522706604428
 20
282.72396815113137
 30
0.0
  0
INSERT
  5
A0F
  8
11
  2
STDGX5
 10
2128.7014135988538
 20
250.37261718070391
 30
0.0
  0
INSERT
  5
A10
  8
11
  2
STDGX5
 10
500.99152640885148
 20
110.8462924373687
 30
0.0
  0
INSERT
  5
A11
  8
11
  2
STDGX5
 10
538.47662502506785
 20
74.846292160765813
 30
0.0
  0
INSERT
  5
A12
  8
11
  2
STDGX5
 10
472.02576796347961
 20
42.494941190338352
 30
0.0
  0
INSERT
  5
A13
  8
11
  2
STDGX5
 10
1372.627925434022
 20
288.56662646118298
 30
0.0
  0
INSERT
  5
A14
  8
11
  2
STDGX5
 10
1410.113024050238
 20
252.56662618458009
 30
0.0
  0
INSERT
  5
A15
  8
11
  2
STDGX5
 10
1343.6621669886499
 20
220.21527521415271
 30
0.0
  0
INSERT
  5
A16
  8
11
  2
STDGX5
 10
2157.6671720442259
 20
318.72396842773429
 30
0.0
  0
INSERT
  5
A17
  8
11
  2
STDGX5
 10
2195.1522706604428
 20
282.72396815113137
 30
0.0
  0
INSERT
  5
A18
  8
11
  2
STDGX5
 10
2128.7014135988538
 20
250.37261718070391
 30
0.0
  0
INSERT
  5
C20
  8
11
  2
STDGX5
 10
224.61275929598031
 20
80.887065520171618
 30
0.0
  0
INSERT
  5
C21
  8
11
  2
STDGX5
 10
262.09785791219667
 20
44.887065243568713
 30
0.0
  0
INSERT
  5
C22
  8
11
  2
STDGX5
 10
195.64700085060829
 20
12.535714273141251
 30
0.0
  0
INSERT
  5
C23
  8
11
  2
STDGX5
 10
1096.2491583211499
 20
258.60739954398588
 30
0.0
  0
INSERT
  5
C24
  8
11
  2
STDGX5
 10
1133.734256937367
 20
222.60739926738299
 30
0.0
  0
INSERT
  5
C25
  8
11
  2
STDGX5
 10
1067.2833998757781
 20
190.2560482969555
 30
0.0
  0
INSERT
  5
C26
  8
11
  2
STDGX5
 10
1881.288404931355
 20
288.76474151053719
 30
0.0
  0
INSERT
  5
C27
  8
11
  2
STDGX5
 10
1918.773503547571
 20
252.7647412339343
 30
0.0
  0
INSERT
  5
C28
  8
11
  2
STDGX5
 10
1852.3226464859829
 20
220.41339026350681
 30
0.0
  0
INSERT
  5
C3B
  8
11
  2
STDGX5
 10
499.61275929598031
 20
105.88710872258849
 30
0.0
  0
INSERT
  5
C3C
  8
11
  2
STDGX5
 10
537.09785791219679
 20
69.887108445985632
 30
0.0
  0
INSERT
  5
C3D
  8
11
  2
STDGX5
 10
470.64700085060832
 20
37.535757475558171
 30
0.0
  0
INSERT
  5
C3E
  8
11
  2
STDGX5
 10
1371.2491583211499
 20
283.6074427464028
 30
0.0
  0
INSERT
  5
C3F
  8
11
  2
STDGX5
 10
1408.734256937367
 20
247.60744246979991
 30
0.0
  0
INSERT
  5
C40
  8
11
  2
STDGX5
 10
1342.2833998757781
 20
215.2560914993725
 30
0.0
  0
INSERT
  5
C41
  8
11
  2
STDGX5
 10
2156.2884049313552
 20
313.76478471295411
 30
0.0
  0
INSERT
  5
C42
  8
11
  2
STDGX5
 10
2193.7735035475721
 20
277.76478443635119
 30
0.0
  0
INSERT
  5
C43
  8
11
  2
STDGX5
 10
2127.3226464859831
 20
245.4134334659237
 30
0.0
  0
INSERT
  5
C44
  8
11
  2
STDGX5
 10
499.61275929598031
 20
105.88710872258849
 30
0.0
  0
INSERT
  5
C45
  8
11
  2
STDGX5
 10
537.09785791219679
 20
69.887108445985632
 30
0.0
  0
INSERT
  5
C46
  8
11
  2
STDGX5
 10
470.64700085060832
 20
37.535757475558171
 30
0.0
  0
INSERT
  5
C47
  8
11
  2
STDGX5
 10
1371.2491583211499
 20
283.6074427464028
 30
0.0
  0
INSERT
  5
C48
  8
11
  2
STDGX5
 10
1408.734256937367
 20
247.60744246979991
 30
0.0
  0
INSERT
  5
C49
  8
11
  2
STDGX5
 10
1342.2833998757781
 20
215.2560914993725
 30
0.0
  0
INSERT
  5
C4A
  8
11
  2
STDGX5
 10
2156.2884049313552
 20
313.76478471295411
 30
0.0
  0
INSERT
  5
C4B
  8
11
  2
STDGX5
 10
2193.7735035475721
 20
277.76478443635119
 30
0.0
  0
INSERT
  5
C4C
  8
11
  2
STDGX5
 10
2127.3226464859831
 20
245.4134334659237
 30
0.0
  0
INSERT
  5
C4D
  8
11
  2
STDGX5
 10
499.61275929598031
 20
105.88710872258849
 30
0.0
  0
INSERT
  5
C4E
  8
11
  2
STDGX5
 10
537.09785791219679
 20
69.887108445985632
 30
0.0
  0
INSERT
  5
C4F
  8
11
  2
STDGX5
 10
470.64700085060832
 20
37.535757475558171
 30
0.0
  0
INSERT
  5
C50
  8
11
  2
STDGX5
 10
1371.2491583211499
 20
283.6074427464028
 30
0.0
  0
INSERT
  5
C51
  8
11
  2
STDGX5
 10
1408.734256937367
 20
247.60744246979991
 30
0.0
  0
INSERT
  5
C52
  8
11
  2
STDGX5
 10
1342.2833998757781
 20
215.2560914993725
 30
0.0
  0
INSERT
  5
C53
  8
11
  2
STDGX5
 10
2156.2884049313552
 20
313.76478471295411
 30
0.0
  0
INSERT
  5
C54
  8
11
  2
STDGX5
 10
2193.7735035475721
 20
277.76478443635119
 30
0.0
  0
INSERT
  5
C55
  8
11
  2
STDGX5
 10
2127.3226464859831
 20
245.4134334659237
 30
0.0
  0
INSERT
  5
C56
  8
11
  2
STDGX5
 10
499.61275929598031
 20
105.88710872258849
 30
0.0
  0
INSERT
  5
C57
  8
11
  2
STDGX5
 10
537.09785791219679
 20
69.887108445985632
 30
0.0
  0
INSERT
  5
C58
  8
11
  2
STDGX5
 10
470.64700085060832
 20
37.535757475558171
 30
0.0
  0
INSERT
  5
C59
  8
11
  2
STDGX5
 10
1371.2491583211499
 20
283.6074427464028
 30
0.0
  0
INSERT
  5
C5A
  8
11
  2
STDGX5
 10
1408.734256937367
 20
247.60744246979991
 30
0.0
  0
INSERT
  5
C5B
  8
11
  2
STDGX5
 10
1342.2833998757781
 20
215.2560914993725
 30
0.0
  0
INSERT
  5
C5C
  8
11
  2
STDGX5
 10
2156.2884049313552
 20
313.76478471295411
 30
0.0
  0
INSERT
  5
C5D
  8
11
  2
STDGX5
 10
2193.7735035475721
 20
277.76478443635119
 30
0.0
  0
INSERT
  5
C5E
  8
11
  2
STDGX5
 10
2127.3226464859831
 20
245.4134334659237
 30
0.0
  0
INSERT
  5
C5F
  8
11
  2
STDGX5
 10
499.61275929598031
 20
105.88710872258849
 30
0.0
  0
INSERT
  5
C60
  8
11
  2
STDGX5
 10
537.09785791219679
 20
69.887108445985632
 30
0.0
  0
INSERT
  5
C61
  8
11
  2
STDGX5
 10
470.64700085060832
 20
37.535757475558171
 30
0.0
  0
INSERT
  5
C62
  8
11
  2
STDGX5
 10
1371.2491583211499
 20
283.6074427464028
 30
0.0
  0
INSERT
  5
C63
  8
11
  2
STDGX5
 10
1408.734256937367
 20
247.60744246979991
 30
0.0
  0
INSERT
  5
C64
  8
11
  2
STDGX5
 10
1342.2833998757781
 20
215.2560914993725
 30
0.0
  0
INSERT
  5
C65
  8
11
  2
STDGX5
 10
2156.2884049313552
 20
313.76478471295411
 30
0.0
  0
INSERT
  5
C66
  8
11
  2
STDGX5
 10
2193.7735035475721
 20
277.76478443635119
 30
0.0
  0
INSERT
  5
C67
  8
11
  2
STDGX5
 10
2127.3226464859831
 20
245.4134334659237
 30
0.0
  0
INSERT
  5
E9D
  8
11
  2
STDGX5
 10
423.01729437233121
 20
90.116657107245146
 30
0.0
  0
INSERT
  5
E9E
  8
11
  2
STDGX5
 10
460.50239298854763
 20
54.116656830642228
 30
0.0
  0
INSERT
  5
E9F
  8
11
  2
STDGX5
 10
394.05153592695922
 20
21.76530586021477
 30
0.0
  0
INSERT
  5
EA0
  8
11
  2
STDGX5
 10
1294.653693397501
 20
267.83699113105939
 30
0.0
  0
INSERT
  5
EA1
  8
11
  2
STDGX5
 10
1332.1387920137181
 20
231.8369908544565
 30
0.0
  0
INSERT
  5
EA2
  8
11
  2
STDGX5
 10
1265.6879349521289
 20
199.48563988402901
 30
0.0
  0
INSERT
  5
EA3
  8
11
  2
STDGX5
 10
2079.6929400077061
 20
297.99433309761071
 30
0.0
  0
INSERT
  5
EA4
  8
11
  2
STDGX5
 10
2117.178038623922
 20
261.99433282100779
 30
0.0
  0
INSERT
  5
EA5
  8
11
  2
STDGX5
 10
2050.727181562334
 20
229.6429818505803
 30
0.0
  0
INSERT
  5
EB8
  8
11
  2
STDGX5
 10
698.01729437233121
 20
115.11670030966199
 30
0.0
  0
INSERT
  5
EB9
  8
11
  2
STDGX5
 10
735.50239298854763
 20
79.116700033059146
 30
0.0
  0
INSERT
  5
EBA
  8
11
  2
STDGX5
 10
669.05153592695922
 20
46.765349062631678
 30
0.0
  0
INSERT
  5
EBB
  8
11
  2
STDGX5
 10
1569.6536933975019
 20
292.83703433347642
 30
0.0
  0
INSERT
  5
EBC
  8
11
  2
STDGX5
 10
1607.1387920137181
 20
256.83703405687339
 30
0.0
  0
INSERT
  5
EBD
  8
11
  2
STDGX5
 10
1540.6879349521289
 20
224.48568308644599
 30
0.0
  0
INSERT
  5
EBE
  8
11
  2
STDGX5
 10
2354.6929400077061
 20
322.99437630002762
 30
0.0
  0
INSERT
  5
EBF
  8
11
  2
STDGX5
 10
2392.1780386239229
 20
286.99437602342471
 30
0.0
  0
INSERT
  5
EC0
  8
11
  2
STDGX5
 10
2325.727181562334
 20
254.64302505299719
 30
0.0
  0
INSERT
  5
EC1
  8
11
  2
STDGX5
 10
698.01729437233121
 20
115.11670030966199
 30
0.0
  0
INSERT
  5
EC2
  8
11
  2
STDGX5
 10
735.50239298854763
 20
79.116700033059146
 30
0.0
  0
INSERT
  5
EC3
  8
11
  2
STDGX5
 10
669.05153592695922
 20
46.765349062631678
 30
0.0
  0
INSERT
  5
EC4
  8
11
  2
STDGX5
 10
1569.6536933975019
 20
292.83703433347642
 30
0.0
  0
INSERT
  5
EC5
  8
11
  2
STDGX5
 10
1607.1387920137181
 20
256.83703405687339
 30
0.0
  0
INSERT
  5
EC6
  8
11
  2
STDGX5
 10
1540.6879349521289
 20
224.48568308644599
 30
0.0
  0
INSERT
  5
EC7
  8
11
  2
STDGX5
 10
2354.6929400077061
 20
322.99437630002762
 30
0.0
  0
INSERT
  5
EC8
  8
11
  2
STDGX5
 10
2392.1780386239229
 20
286.99437602342471
 30
0.0
  0
INSERT
  5
EC9
  8
11
  2
STDGX5
 10
2325.727181562334
 20
254.64302505299719
 30
0.0
  0
INSERT
  5
ECA
  8
11
  2
STDGX5
 10
698.01729437233121
 20
115.11670030966199
 30
0.0
  0
INSERT
  5
ECB
  8
11
  2
STDGX5
 10
735.50239298854763
 20
79.116700033059146
 30
0.0
  0
INSERT
  5
ECC
  8
11
  2
STDGX5
 10
669.05153592695922
 20
46.765349062631678
 30
0.0
  0
INSERT
  5
ECD
  8
11
  2
STDGX5
 10
1569.6536933975019
 20
292.83703433347642
 30
0.0
  0
INSERT
  5
ECE
  8
11
  2
STDGX5
 10
1607.1387920137181
 20
256.83703405687339
 30
0.0
  0
INSERT
  5
ECF
  8
11
  2
STDGX5
 10
1540.6879349521289
 20
224.48568308644599
 30
0.0
  0
INSERT
  5
ED0
  8
11
  2
STDGX5
 10
2354.6929400077061
 20
322.99437630002762
 30
0.0
  0
INSERT
  5
ED1
  8
11
  2
STDGX5
 10
2392.1780386239229
 20
286.99437602342471
 30
0.0
  0
INSERT
  5
ED2
  8
11
  2
STDGX5
 10
2325.727181562334
 20
254.64302505299719
 30
0.0
  0
INSERT
  5
ED3
  8
11
  2
STDGX5
 10
698.01729437233121
 20
115.11670030966199
 30
0.0
  0
INSERT
  5
ED4
  8
11
  2
STDGX5
 10
735.50239298854763
 20
79.116700033059146
 30
0.0
  0
INSERT
  5
ED5
  8
11
  2
STDGX5
 10
669.05153592695922
 20
46.765349062631678
 30
0.0
  0
INSERT
  5
ED6
  8
11
  2
STDGX5
 10
1569.6536933975019
 20
292.83703433347642
 30
0.0
  0
INSERT
  5
ED7
  8
11
  2
STDGX5
 10
1607.1387920137181
 20
256.83703405687339
 30
0.0
  0
INSERT
  5
ED8
  8
11
  2
STDGX5
 10
1540.6879349521289
 20
224.48568308644599
 30
0.0
  0
INSERT
  5
ED9
  8
11
  2
STDGX5
 10
2354.6929400077061
 20
322.99437630002762
 30
0.0
  0
INSERT
  5
EDA
  8
11
  2
STDGX5
 10
2392.1780386239229
 20
286.99437602342471
 30
0.0
  0
INSERT
  5
EDB
  8
11
  2
STDGX5
 10
2325.727181562334
 20
254.64302505299719
 30
0.0
  0
INSERT
  5
EDC
  8
11
  2
STDGX5
 10
698.01729437233121
 20
115.11670030966199
 30
0.0
  0
INSERT
  5
EDD
  8
11
  2
STDGX5
 10
735.50239298854763
 20
79.116700033059146
 30
0.0
  0
INSERT
  5
EDE
  8
11
  2
STDGX5
 10
669.05153592695922
 20
46.765349062631678
 30
0.0
  0
INSERT
  5
EDF
  8
11
  2
STDGX5
 10
1569.6536933975019
 20
292.83703433347642
 30
0.0
  0
INSERT
  5
EE0
  8
11
  2
STDGX5
 10
1607.1387920137181
 20
256.83703405687339
 30
0.0
  0
INSERT
  5
EE1
  8
11
  2
STDGX5
 10
1540.6879349521289
 20
224.48568308644599
 30
0.0
  0
INSERT
  5
EE2
  8
11
  2
STDGX5
 10
2354.6929400077061
 20
322.99437630002762
 30
0.0
  0
INSERT
  5
EE3
  8
11
  2
STDGX5
 10
2392.1780386239229
 20
286.99437602342471
 30
0.0
  0
INSERT
  5
EE4
  8
11
  2
STDGX5
 10
2325.727181562334
 20
254.64302505299719
 30
0.0
  0
INSERT
  5
F3C
  8
11
  2
STDGX5
 10
698.01729437233121
 20
115.11670030966199
 30
0.0
  0
INSERT
  5
F3D
  8
11
  2
STDGX5
 10
735.50239298854763
 20
79.116700033059146
 30
0.0
  0
INSERT
  5
F3E
  8
11
  2
STDGX5
 10
669.05153592695922
 20
46.765349062631678
 30
0.0
  0
INSERT
  5
F3F
  8
11
  2
STDGX5
 10
1569.6536933975019
 20
292.83703433347642
 30
0.0
  0
INSERT
  5
F40
  8
11
  2
STDGX5
 10
1607.1387920137181
 20
256.83703405687339
 30
0.0
  0
INSERT
  5
F41
  8
11
  2
STDGX5
 10
1540.6879349521289
 20
224.48568308644599
 30
0.0
  0
INSERT
  5
F42
  8
11
  2
STDGX5
 10
2354.6929400077061
 20
322.99437630002762
 30
0.0
  0
INSERT
  5
F43
  8
11
  2
STDGX5
 10
2392.1780386239229
 20
286.99437602342471
 30
0.0
  0
INSERT
  5
F44
  8
11
  2
STDGX5
 10
2325.727181562334
 20
254.64302505299719
 30
0.0
  0
INSERT
  5
F45
  8
11
  2
STDGX5
 10
973.01729437233121
 20
140.11674351207901
 30
0.0
  0
INSERT
  5
F46
  8
11
  2
STDGX5
 10
1010.5023929885469
 20
104.11674323547599
 30
0.0
  0
INSERT
  5
F47
  8
11
  2
STDGX5
 10
944.05153592695933
 20
71.765392265048604
 30
0.0
  0
INSERT
  5
F48
  8
11
  2
STDGX5
 10
1844.6536933975019
 20
317.83707753589329
 30
0.0
  0
INSERT
  5
F49
  8
11
  2
STDGX5
 10
1882.1387920137181
 20
281.83707725929042
 30
0.0
  0
INSERT
  5
F4A
  8
11
  2
STDGX5
 10
1815.68793495213
 20
249.48572628886291
 30
0.0
  0
INSERT
  5
F4B
  8
11
  2
STDGX5
 10
2629.6929400077061
 20
347.9944195024446
 30
0.0
  0
INSERT
  5
F4C
  8
11
  2
STDGX5
 10
2667.178038623922
 20
311.99441922584163
 30
0.0
  0
INSERT
  5
F4D
  8
11
  2
STDGX5
 10
2600.727181562334
 20
279.64306825541422
 30
0.0
  0
INSERT
  5
F4E
  8
11
  2
STDGX5
 10
973.01729437233121
 20
140.11674351207901
 30
0.0
  0
INSERT
  5
F4F
  8
11
  2
STDGX5
 10
1010.5023929885469
 20
104.11674323547599
 30
0.0
  0
INSERT
  5
F50
  8
11
  2
STDGX5
 10
944.05153592695933
 20
71.765392265048604
 30
0.0
  0
INSERT
  5
F51
  8
11
  2
STDGX5
 10
1844.6536933975019
 20
317.83707753589329
 30
0.0
  0
INSERT
  5
F52
  8
11
  2
STDGX5
 10
1882.1387920137181
 20
281.83707725929042
 30
0.0
  0
INSERT
  5
F53
  8
11
  2
STDGX5
 10
1815.68793495213
 20
249.48572628886291
 30
0.0
  0
INSERT
  5
F54
  8
11
  2
STDGX5
 10
2629.6929400077061
 20
347.9944195024446
 30
0.0
  0
INSERT
  5
F55
  8
11
  2
STDGX5
 10
2667.178038623922
 20
311.99441922584163
 30
0.0
  0
INSERT
  5
F56
  8
11
  2
STDGX5
 10
2600.727181562334
 20
279.64306825541422
 30
0.0
  0
INSERT
  5
F57
  8
11
  2
STDGX5
 10
973.01729437233121
 20
140.11674351207901
 30
0.0
  0
INSERT
  5
F58
  8
11
  2
STDGX5
 10
1010.5023929885469
 20
104.11674323547599
 30
0.0
  0
INSERT
  5
F59
  8
11
  2
STDGX5
 10
944.05153592695933
 20
71.765392265048604
 30
0.0
  0
INSERT
  5
F5A
  8
11
  2
STDGX5
 10
1844.6536933975019
 20
317.83707753589329
 30
0.0
  0
INSERT
  5
F5B
  8
11
  2
STDGX5
 10
1882.1387920137181
 20
281.83707725929042
 30
0.0
  0
INSERT
  5
F5C
  8
11
  2
STDGX5
 10
1815.68793495213
 20
249.48572628886291
 30
0.0
  0
INSERT
  5
F5D
  8
11
  2
STDGX5
 10
2629.6929400077061
 20
347.9944195024446
 30
0.0
  0
INSERT
  5
F5E
  8
11
  2
STDGX5
 10
2667.178038623922
 20
311.99441922584163
 30
0.0
  0
INSERT
  5
F5F
  8
11
  2
STDGX5
 10
2600.727181562334
 20
279.64306825541422
 30
0.0
  0
INSERT
  5
F60
  8
11
  2
STDGX5
 10
973.01729437233121
 20
140.11674351207901
 30
0.0
  0
INSERT
  5
F61
  8
11
  2
STDGX5
 10
1010.5023929885469
 20
104.11674323547599
 30
0.0
  0
INSERT
  5
F62
  8
11
  2
STDGX5
 10
944.05153592695933
 20
71.765392265048604
 30
0.0
  0
INSERT
  5
F63
  8
11
  2
STDGX5
 10
1844.6536933975019
 20
317.83707753589329
 30
0.0
  0
INSERT
  5
F64
  8
11
  2
STDGX5
 10
1882.1387920137181
 20
281.83707725929042
 30
0.0
  0
INSERT
  5
F65
  8
11
  2
STDGX5
 10
1815.68793495213
 20
249.48572628886291
 30
0.0
  0
INSERT
  5
F66
  8
11
  2
STDGX5
 10
2629.6929400077061
 20
347.9944195024446
 30
0.0
  0
INSERT
  5
F67
  8
11
  2
STDGX5
 10
2667.178038623922
 20
311.99441922584163
 30
0.0
  0
INSERT
  5
F68
  8
11
  2
STDGX5
 10
2600.727181562334
 20
279.64306825541422
 30
0.0
  0
INSERT
  5
F69
  8
11
  2
STDGX5
 10
973.01729437233121
 20
140.11674351207901
 30
0.0
  0
INSERT
  5
F6A
  8
11
  2
STDGX5
 10
1010.5023929885469
 20
104.11674323547599
 30
0.0
  0
INSERT
  5
F6B
  8
11
  2
STDGX5
 10
944.05153592695933
 20
71.765392265048604
 30
0.0
  0
INSERT
  5
F6C
  8
11
  2
STDGX5
 10
1844.6536933975019
 20
317.83707753589329
 30
0.0
  0
INSERT
  5
F6D
  8
11
  2
STDGX5
 10
1882.1387920137181
 20
281.83707725929042
 30
0.0
  0
INSERT
  5
F6E
  8
11
  2
STDGX5
 10
1815.68793495213
 20
249.48572628886291
 30
0.0
  0
INSERT
  5
F6F
  8
11
  2
STDGX5
 10
2629.6929400077061
 20
347.9944195024446
 30
0.0
  0
INSERT
  5
F70
  8
11
  2
STDGX5
 10
2667.178038623922
 20
311.99441922584163
 30
0.0
  0
INSERT
  5
F71
  8
11
  2
STDGX5
 10
2600.727181562334
 20
279.64306825541422
 30
0.0
  0
INSERT
  5
F72
  8
11
  2
STDGX5
 10
1248.017294372331
 20
165.1167867144959
 30
0.0
  0
INSERT
  5
F73
  8
11
  2
STDGX5
 10
1285.5023929885469
 20
129.11678643789301
 30
0.0
  0
INSERT
  5
F74
  8
11
  2
STDGX5
 10
1219.0515359269591
 20
96.765435467465522
 30
0.0
  0
INSERT
  5
F75
  8
11
  2
STDGX5
 10
2119.6536933975021
 20
342.8371207383102
 30
0.0
  0
INSERT
  5
F76
  8
11
  2
STDGX5
 10
2157.1387920137181
 20
306.83712046170729
 30
0.0
  0
INSERT
  5
F77
  8
11
  2
STDGX5
 10
2090.68793495213
 20
274.48576949127983
 30
0.0
  0
INSERT
  5
F78
  8
11
  2
STDGX5
 10
2904.6929400077061
 20
372.99446270486141
 30
0.0
  0
INSERT
  5
F79
  8
11
  2
STDGX5
 10
2942.178038623922
 20
336.99446242825849
 30
0.0
  0
INSERT
  5
F7A
  8
11
  2
STDGX5
 10
2875.727181562334
 20
304.64311145783108
 30
0.0
  0
INSERT
  5
F7B
  8
11
  2
STDGX5
 10
973.01729437233121
 20
140.11674351207901
 30
0.0
  0
INSERT
  5
F7C
  8
11
  2
STDGX5
 10
1010.5023929885469
 20
104.11674323547599
 30
0.0
  0
INSERT
  5
F7D
  8
11
  2
STDGX5
 10
944.05153592695933
 20
71.765392265048604
 30
0.0
  0
INSERT
  5
F7E
  8
11
  2
STDGX5
 10
1844.6536933975019
 20
317.83707753589329
 30
0.0
  0
INSERT
  5
F7F
  8
11
  2
STDGX5
 10
1882.1387920137181
 20
281.83707725929042
 30
0.0
  0
INSERT
  5
F80
  8
11
  2
STDGX5
 10
1815.68793495213
 20
249.48572628886291
 30
0.0
  0
INSERT
  5
F81
  8
11
  2
STDGX5
 10
2629.6929400077061
 20
347.9944195024446
 30
0.0
  0
INSERT
  5
F82
  8
11
  2
STDGX5
 10
2667.178038623922
 20
311.99441922584163
 30
0.0
  0
INSERT
  5
F83
  8
11
  2
STDGX5
 10
2600.727181562334
 20
279.64306825541422
 30
0.0
  0
INSERT
  5
F84
  8
11
  2
STDGX5
 10
1248.017294372331
 20
165.1167867144959
 30
0.0
  0
INSERT
  5
F85
  8
11
  2
STDGX5
 10
1285.5023929885469
 20
129.11678643789301
 30
0.0
  0
INSERT
  5
F86
  8
11
  2
STDGX5
 10
1219.0515359269591
 20
96.765435467465522
 30
0.0
  0
INSERT
  5
F87
  8
11
  2
STDGX5
 10
2119.6536933975021
 20
342.8371207383102
 30
0.0
  0
INSERT
  5
F88
  8
11
  2
STDGX5
 10
2157.1387920137181
 20
306.83712046170729
 30
0.0
  0
INSERT
  5
F89
  8
11
  2
STDGX5
 10
2090.68793495213
 20
274.48576949127983
 30
0.0
  0
INSERT
  5
F8A
  8
11
  2
STDGX5
 10
2904.6929400077061
 20
372.99446270486141
 30
0.0
  0
INSERT
  5
F8B
  8
11
  2
STDGX5
 10
2942.178038623922
 20
336.99446242825849
 30
0.0
  0
INSERT
  5
F8C
  8
11
  2
STDGX5
 10
2875.727181562334
 20
304.64311145783108
 30
0.0
  0
INSERT
  5
F8D
  8
11
  2
STDGX5
 10
1248.017294372331
 20
165.1167867144959
 30
0.0
  0
INSERT
  5
F8E
  8
11
  2
STDGX5
 10
1285.5023929885469
 20
129.11678643789301
 30
0.0
  0
INSERT
  5
F8F
  8
11
  2
STDGX5
 10
1219.0515359269591
 20
96.765435467465522
 30
0.0
  0
INSERT
  5
F90
  8
11
  2
STDGX5
 10
2119.6536933975021
 20
342.8371207383102
 30
0.0
  0
INSERT
  5
F91
  8
11
  2
STDGX5
 10
2157.1387920137181
 20
306.83712046170729
 30
0.0
  0
INSERT
  5
F92
  8
11
  2
STDGX5
 10
2090.68793495213
 20
274.48576949127983
 30
0.0
  0
INSERT
  5
F93
  8
11
  2
STDGX5
 10
2904.6929400077061
 20
372.99446270486141
 30
0.0
  0
INSERT
  5
F94
  8
11
  2
STDGX5
 10
2942.178038623922
 20
336.99446242825849
 30
0.0
  0
INSERT
  5
F95
  8
11
  2
STDGX5
 10
2875.727181562334
 20
304.64311145783108
 30
0.0
  0
INSERT
  5
F96
  8
11
  2
STDGX5
 10
1248.017294372331
 20
165.1167867144959
 30
0.0
  0
INSERT
  5
F97
  8
11
  2
STDGX5
 10
1285.5023929885469
 20
129.11678643789301
 30
0.0
  0
INSERT
  5
F98
  8
11
  2
STDGX5
 10
1219.0515359269591
 20
96.765435467465522
 30
0.0
  0
INSERT
  5
F99
  8
11
  2
STDGX5
 10
2119.6536933975021
 20
342.8371207383102
 30
0.0
  0
INSERT
  5
F9A
  8
11
  2
STDGX5
 10
2157.1387920137181
 20
306.83712046170729
 30
0.0
  0
INSERT
  5
F9B
  8
11
  2
STDGX5
 10
2090.68793495213
 20
274.48576949127983
 30
0.0
  0
INSERT
  5
F9C
  8
11
  2
STDGX5
 10
2904.6929400077061
 20
372.99446270486141
 30
0.0
  0
INSERT
  5
F9D
  8
11
  2
STDGX5
 10
2942.178038623922
 20
336.99446242825849
 30
0.0
  0
INSERT
  5
F9E
  8
11
  2
STDGX5
 10
2875.727181562334
 20
304.64311145783108
 30
0.0
  0
INSERT
  5
F9F
  8
11
  2
STDGX5
 10
1248.017294372331
 20
165.1167867144959
 30
0.0
  0
INSERT
  5
FA0
  8
11
  2
STDGX5
 10
1285.5023929885469
 20
129.11678643789301
 30
0.0
  0
INSERT
  5
FA1
  8
11
  2
STDGX5
 10
1219.0515359269591
 20
96.765435467465522
 30
0.0
  0
INSERT
  5
FA2
  8
11
  2
STDGX5
 10
2119.6536933975021
 20
342.8371207383102
 30
0.0
  0
INSERT
  5
FA3
  8
11
  2
STDGX5
 10
2157.1387920137181
 20
306.83712046170729
 30
0.0
  0
INSERT
  5
FA4
  8
11
  2
STDGX5
 10
2090.68793495213
 20
274.48576949127983
 30
0.0
  0
INSERT
  5
FA5
  8
11
  2
STDGX5
 10
2904.6929400077061
 20
372.99446270486141
 30
0.0
  0
INSERT
  5
FA6
  8
11
  2
STDGX5
 10
2942.178038623922
 20
336.99446242825849
 30
0.0
  0
INSERT
  5
FA7
  8
11
  2
STDGX5
 10
2875.727181562334
 20
304.64311145783108
 30
0.0
  0
INSERT
  5
FA8
  8
11
  2
STDGX5
 10
1523.017294372331
 20
190.11682991691279
 30
0.0
  0
INSERT
  5
FA9
  8
11
  2
STDGX5
 10
1560.5023929885481
 20
154.1168296403099
 30
0.0
  0
INSERT
  5
FAA
  8
11
  2
STDGX5
 10
1494.0515359269591
 20
121.7654786698824
 30
0.0
  0
INSERT
  5
FAB
  8
11
  2
STDGX5
 10
2394.6536933975021
 20
367.83716394072712
 30
0.0
  0
INSERT
  5
FAC
  8
11
  2
STDGX5
 10
2432.1387920137181
 20
331.8371636641242
 30
0.0
  0
INSERT
  5
FAD
  8
11
  2
STDGX5
 10
2365.68793495213
 20
299.48581269369669
 30
0.0
  0
INSERT
  5
FAE
  8
11
  2
STDGX5
 10
3179.6929400077061
 20
397.99450590727838
 30
0.0
  0
INSERT
  5
FAF
  8
11
  2
STDGX5
 10
3217.1780386239229
 20
361.99450563067552
 30
0.0
  0
INSERT
  5
FB0
  8
11
  2
STDGX5
 10
3150.727181562334
 20
329.643154660248
 30
0.0
  0
INSERT
  5
FB1
  8
11
  2
STDGX5
 10
1248.017294372331
 20
165.1167867144959
 30
0.0
  0
INSERT
  5
FB2
  8
11
  2
STDGX5
 10
1285.5023929885469
 20
129.11678643789301
 30
0.0
  0
INSERT
  5
FB3
  8
11
  2
STDGX5
 10
1219.0515359269591
 20
96.765435467465522
 30
0.0
  0
INSERT
  5
FB4
  8
11
  2
STDGX5
 10
2119.6536933975021
 20
342.8371207383102
 30
0.0
  0
INSERT
  5
FB5
  8
11
  2
STDGX5
 10
2157.1387920137181
 20
306.83712046170729
 30
0.0
  0
INSERT
  5
FB6
  8
11
  2
STDGX5
 10
2090.68793495213
 20
274.48576949127983
 30
0.0
  0
INSERT
  5
FB7
  8
11
  2
STDGX5
 10
2904.6929400077061
 20
372.99446270486141
 30
0.0
  0
INSERT
  5
FB8
  8
11
  2
STDGX5
 10
2942.178038623922
 20
336.99446242825849
 30
0.0
  0
INSERT
  5
FB9
  8
11
  2
STDGX5
 10
2875.727181562334
 20
304.64311145783108
 30
0.0
  0
INSERT
  5
FBA
  8
11
  2
STDGX5
 10
1523.017294372331
 20
190.11682991691279
 30
0.0
  0
INSERT
  5
FBB
  8
11
  2
STDGX5
 10
1560.5023929885481
 20
154.1168296403099
 30
0.0
  0
INSERT
  5
FBC
  8
11
  2
STDGX5
 10
1494.0515359269591
 20
121.7654786698824
 30
0.0
  0
INSERT
  5
FBD
  8
11
  2
STDGX5
 10
2394.6536933975021
 20
367.83716394072712
 30
0.0
  0
INSERT
  5
FBE
  8
11
  2
STDGX5
 10
2432.1387920137181
 20
331.8371636641242
 30
0.0
  0
INSERT
  5
FBF
  8
11
  2
STDGX5
 10
2365.68793495213
 20
299.48581269369669
 30
0.0
  0
INSERT
  5
FC0
  8
11
  2
STDGX5
 10
3179.6929400077061
 20
397.99450590727838
 30
0.0
  0
INSERT
  5
FC1
  8
11
  2
STDGX5
 10
3217.1780386239229
 20
361.99450563067552
 30
0.0
  0
INSERT
  5
FC2
  8
11
  2
STDGX5
 10
3150.727181562334
 20
329.643154660248
 30
0.0
  0
INSERT
  5
FC3
  8
11
  2
STDGX5
 10
1523.017294372331
 20
190.11682991691279
 30
0.0
  0
INSERT
  5
FC4
  8
11
  2
STDGX5
 10
1560.5023929885481
 20
154.1168296403099
 30
0.0
  0
INSERT
  5
FC5
  8
11
  2
STDGX5
 10
1494.0515359269591
 20
121.7654786698824
 30
0.0
  0
INSERT
  5
FC6
  8
11
  2
STDGX5
 10
2394.6536933975021
 20
367.83716394072712
 30
0.0
  0
INSERT
  5
FC7
  8
11
  2
STDGX5
 10
2432.1387920137181
 20
331.8371636641242
 30
0.0
  0
INSERT
  5
FC8
  8
11
  2
STDGX5
 10
2365.68793495213
 20
299.48581269369669
 30
0.0
  0
INSERT
  5
FC9
  8
11
  2
STDGX5
 10
3179.6929400077061
 20
397.99450590727838
 30
0.0
  0
INSERT
  5
FCA
  8
11
  2
STDGX5
 10
3217.1780386239229
 20
361.99450563067552
 30
0.0
  0
INSERT
  5
FCB
  8
11
  2
STDGX5
 10
3150.727181562334
 20
329.643154660248
 30
0.0
  0
INSERT
  5
FCC
  8
11
  2
STDGX5
 10
1523.017294372331
 20
190.11682991691279
 30
0.0
  0
INSERT
  5
FCD
  8
11
  2
STDGX5
 10
1560.5023929885481
 20
154.1168296403099
 30
0.0
  0
INSERT
  5
FCE
  8
11
  2
STDGX5
 10
1494.0515359269591
 20
121.7654786698824
 30
0.0
  0
INSERT
  5
FCF
  8
11
  2
STDGX5
 10
2394.6536933975021
 20
367.83716394072712
 30
0.0
  0
INSERT
  5
FD0
  8
11
  2
STDGX5
 10
2432.1387920137181
 20
331.8371636641242
 30
0.0
  0
INSERT
  5
FD1
  8
11
  2
STDGX5
 10
2365.68793495213
 20
299.48581269369669
 30
0.0
  0
INSERT
  5
FD2
  8
11
  2
STDGX5
 10
3179.6929400077061
 20
397.99450590727838
 30
0.0
  0
INSERT
  5
FD3
  8
11
  2
STDGX5
 10
3217.1780386239229
 20
361.99450563067552
 30
0.0
  0
INSERT
  5
FD4
  8
11
  2
STDGX5
 10
3150.727181562334
 20
329.643154660248
 30
0.0
  0
INSERT
  5
FD5
  8
11
  2
STDGX5
 10
1798.017294372331
 20
215.1168731193298
 30
0.0
  0
INSERT
  5
FD6
  8
11
  2
STDGX5
 10
1835.5023929885481
 20
179.11687284272679
 30
0.0
  0
INSERT
  5
FD7
  8
11
  2
STDGX5
 10
1769.0515359269591
 20
146.7655218722993
 30
0.0
  0
INSERT
  5
FD8
  8
11
  2
STDGX5
 10
2669.6536933975021
 20
392.83720714314398
 30
0.0
  0
INSERT
  5
FD9
  8
11
  2
STDGX5
 10
2707.1387920137181
 20
356.83720686654112
 30
0.0
  0
INSERT
  5
FDA
  8
11
  2
STDGX5
 10
2640.68793495213
 20
324.48585589611372
 30
0.0
  0
INSERT
  5
FDB
  8
11
  2
STDGX5
 10
3454.6929400077061
 20
422.9945491096953
 30
0.0
  0
INSERT
  5
FDC
  8
11
  2
STDGX5
 10
3492.1780386239229
 20
386.99454883309238
 30
0.0
  0
INSERT
  5
FDD
  8
11
  2
STDGX5
 10
3425.727181562334
 20
354.64319786266492
 30
0.0
  0
INSERT
  5
FDE
  8
11
  2
STDGX5
 10
1523.017294372331
 20
340.1167867144959
 30
0.0
  0
INSERT
  5
FDF
  8
11
  2
STDGX5
 10
1560.5023929885481
 20
304.11678643789298
 30
0.0
  0
INSERT
  5
FE0
  8
11
  2
STDGX5
 10
1494.0515359269591
 20
271.76543546746552
 30
0.0
  0
INSERT
  5
FE1
  8
11
  2
STDGX5
 10
2394.6536933975021
 20
517.8371207383102
 30
0.0
  0
INSERT
  5
FE2
  8
11
  2
STDGX5
 10
2432.1387920137181
 20
481.83712046170717
 30
0.0
  0
INSERT
  5
FE3
  8
11
  2
STDGX5
 10
2365.68793495213
 20
449.48576949127983
 30
0.0
  0
INSERT
  5
FE4
  8
11
  2
STDGX5
 10
3179.6929400077061
 20
547.99446270486135
 30
0.0
  0
INSERT
  5
FE5
  8
11
  2
STDGX5
 10
3217.1780386239229
 20
511.99446242825849
 30
0.0
  0
INSERT
  5
FE6
  8
11
  2
STDGX5
 10
3150.727181562334
 20
479.64311145783103
 30
0.0
  0
INSERT
  5
FE7
  8
11
  2
STDGX5
 10
1798.017294372331
 20
365.11682991691282
 30
0.0
  0
INSERT
  5
FE8
  8
11
  2
STDGX5
 10
1835.5023929885481
 20
329.1168296403099
 30
0.0
  0
INSERT
  5
FE9
  8
11
  2
STDGX5
 10
1769.0515359269591
 20
296.76547866988238
 30
0.0
  0
INSERT
  5
FEA
  8
11
  2
STDGX5
 10
2669.6536933975021
 20
542.83716394072712
 30
0.0
  0
INSERT
  5
FEB
  8
11
  2
STDGX5
 10
2707.1387920137181
 20
506.83716366412409
 30
0.0
  0
INSERT
  5
FEC
  8
11
  2
STDGX5
 10
2640.68793495213
 20
474.48581269369669
 30
0.0
  0
INSERT
  5
FED
  8
11
  2
STDGX5
 10
3454.6929400077061
 20
572.99450590727827
 30
0.0
  0
INSERT
  5
FEE
  8
11
  2
STDGX5
 10
3492.1780386239229
 20
536.99450563067535
 30
0.0
  0
INSERT
  5
FEF
  8
11
  2
STDGX5
 10
3425.727181562334
 20
504.64315466024789
 30
0.0
  0
INSERT
  5
FF0
  8
11
  2
STDGX5
 10
1523.017294372331
 20
190.11682991691279
 30
0.0
  0
INSERT
  5
FF1
  8
11
  2
STDGX5
 10
1560.5023929885481
 20
154.1168296403099
 30
0.0
  0
INSERT
  5
FF2
  8
11
  2
STDGX5
 10
1494.0515359269591
 20
121.7654786698824
 30
0.0
  0
INSERT
  5
FF3
  8
11
  2
STDGX5
 10
2394.6536933975021
 20
367.83716394072712
 30
0.0
  0
INSERT
  5
FF4
  8
11
  2
STDGX5
 10
2432.1387920137181
 20
331.8371636641242
 30
0.0
  0
INSERT
  5
FF5
  8
11
  2
STDGX5
 10
2365.68793495213
 20
299.48581269369669
 30
0.0
  0
INSERT
  5
FF6
  8
11
  2
STDGX5
 10
3179.6929400077061
 20
397.99450590727838
 30
0.0
  0
INSERT
  5
FF7
  8
11
  2
STDGX5
 10
3217.1780386239229
 20
361.99450563067552
 30
0.0
  0
INSERT
  5
FF8
  8
11
  2
STDGX5
 10
3150.727181562334
 20
329.643154660248
 30
0.0
  0
INSERT
  5
FF9
  8
11
  2
STDGX5
 10
1798.017294372331
 20
215.1168731193298
 30
0.0
  0
INSERT
  5
FFA
  8
11
  2
STDGX5
 10
1835.5023929885481
 20
179.11687284272679
 30
0.0
  0
INSERT
  5
FFB
  8
11
  2
STDGX5
 10
1769.0515359269591
 20
146.7655218722993
 30
0.0
  0
INSERT
  5
FFC
  8
11
  2
STDGX5
 10
2669.6536933975021
 20
392.83720714314398
 30
0.0
  0
INSERT
  5
FFD
  8
11
  2
STDGX5
 10
2707.1387920137181
 20
356.83720686654112
 30
0.0
  0
INSERT
  5
FFE
  8
11
  2
STDGX5
 10
2640.68793495213
 20
324.48585589611372
 30
0.0
  0
INSERT
  5
FFF
  8
11
  2
STDGX5
 10
3454.6929400077061
 20
422.9945491096953
 30
0.0
  0
INSERT
  5
1000
  8
11
  2
STDGX5
 10
3492.1780386239229
 20
386.99454883309238
 30
0.0
  0
INSERT
  5
1001
  8
11
  2
STDGX5
 10
3425.727181562334
 20
354.64319786266492
 30
0.0
  0
INSERT
  5
1221
  8
11
  2
STDGX5
 10
419.7082535228148
 20
90.116657107245146
 30
0.0
  0
INSERT
  5
1222
  8
11
  2
STDGX5
 10
457.19335213903122
 20
54.116656830642228
 30
0.0
  0
INSERT
  5
1223
  8
11
  2
STDGX5
 10
390.74249507744292
 20
21.76530586021477
 30
0.0
  0
INSERT
  5
1224
  8
11
  2
STDGX5
 10
1291.3446525479851
 20
267.83699113105939
 30
0.0
  0
INSERT
  5
1225
  8
11
  2
STDGX5
 10
1328.8297511642011
 20
231.8369908544565
 30
0.0
  0
INSERT
  5
1226
  8
11
  2
STDGX5
 10
1262.378894102613
 20
199.48563988402901
 30
0.0
  0
INSERT
  5
1227
  8
11
  2
STDGX5
 10
2076.3838991581902
 20
297.99433309761071
 30
0.0
  0
INSERT
  5
1228
  8
11
  2
STDGX5
 10
2113.8689977744061
 20
261.99433282100779
 30
0.0
  0
INSERT
  5
1229
  8
11
  2
STDGX5
 10
2047.4181407128181
 20
229.6429818505803
 30
0.0
  0
INSERT
  5
123C
  8
11
  2
STDGX5
 10
694.70825352281474
 20
115.11670030966199
 30
0.0
  0
INSERT
  5
123D
  8
11
  2
STDGX5
 10
732.19335213903116
 20
79.116700033059146
 30
0.0
  0
INSERT
  5
123E
  8
11
  2
STDGX5
 10
665.74249507744275
 20
46.765349062631678
 30
0.0
  0
INSERT
  5
123F
  8
11
  2
STDGX5
 10
1566.3446525479851
 20
292.83703433347642
 30
0.0
  0
INSERT
  5
1240
  8
11
  2
STDGX5
 10
1603.829751164202
 20
256.83703405687339
 30
0.0
  0
INSERT
  5
1241
  8
11
  2
STDGX5
 10
1537.378894102613
 20
224.48568308644599
 30
0.0
  0
INSERT
  5
1242
  8
11
  2
STDGX5
 10
2351.3838991581902
 20
322.99437630002762
 30
0.0
  0
INSERT
  5
1243
  8
11
  2
STDGX5
 10
2388.8689977744061
 20
286.99437602342471
 30
0.0
  0
INSERT
  5
1244
  8
11
  2
STDGX5
 10
2322.4181407128181
 20
254.64302505299719
 30
0.0
  0
INSERT
  5
1291
  8
11
  2
STDGX5
 10
694.70825352281474
 20
115.11670030966199
 30
0.0
  0
INSERT
  5
1292
  8
11
  2
STDGX5
 10
732.19335213903116
 20
79.116700033059146
 30
0.0
  0
INSERT
  5
1293
  8
11
  2
STDGX5
 10
665.74249507744275
 20
46.765349062631678
 30
0.0
  0
INSERT
  5
1294
  8
11
  2
STDGX5
 10
1566.3446525479851
 20
292.83703433347642
 30
0.0
  0
INSERT
  5
1295
  8
11
  2
STDGX5
 10
1603.829751164202
 20
256.83703405687339
 30
0.0
  0
INSERT
  5
1296
  8
11
  2
STDGX5
 10
1537.378894102613
 20
224.48568308644599
 30
0.0
  0
INSERT
  5
1297
  8
11
  2
STDGX5
 10
2351.3838991581902
 20
322.99437630002762
 30
0.0
  0
INSERT
  5
1298
  8
11
  2
STDGX5
 10
2388.8689977744061
 20
286.99437602342471
 30
0.0
  0
INSERT
  5
1299
  8
11
  2
STDGX5
 10
2322.4181407128181
 20
254.64302505299719
 30
0.0
  0
INSERT
  5
129A
  8
11
  2
STDGX5
 10
969.70825352281474
 20
140.11674351207901
 30
0.0
  0
INSERT
  5
129B
  8
11
  2
STDGX5
 10
1007.193352139031
 20
104.11674323547599
 30
0.0
  0
INSERT
  5
129C
  8
11
  2
STDGX5
 10
940.74249507744275
 20
71.765392265048604
 30
0.0
  0
INSERT
  5
129D
  8
11
  2
STDGX5
 10
1841.3446525479851
 20
317.83707753589329
 30
0.0
  0
INSERT
  5
129E
  8
11
  2
STDGX5
 10
1878.829751164202
 20
281.83707725929042
 30
0.0
  0
INSERT
  5
129F
  8
11
  2
STDGX5
 10
1812.378894102613
 20
249.48572628886291
 30
0.0
  0
INSERT
  5
12A0
  8
11
  2
STDGX5
 10
2626.3838991581902
 20
347.9944195024446
 30
0.0
  0
INSERT
  5
12A1
  8
11
  2
STDGX5
 10
2663.8689977744061
 20
311.99441922584163
 30
0.0
  0
INSERT
  5
12A2
  8
11
  2
STDGX5
 10
2597.4181407128181
 20
279.64306825541422
 30
0.0
  0
INSERT
  5
12A3
  8
11
  2
STDGX5
 10
969.70825352281474
 20
140.11674351207901
 30
0.0
  0
INSERT
  5
12A4
  8
11
  2
STDGX5
 10
1007.193352139031
 20
104.11674323547599
 30
0.0
  0
INSERT
  5
12A5
  8
11
  2
STDGX5
 10
940.74249507744275
 20
71.765392265048604
 30
0.0
  0
INSERT
  5
12A6
  8
11
  2
STDGX5
 10
1841.3446525479851
 20
317.83707753589329
 30
0.0
  0
INSERT
  5
12A7
  8
11
  2
STDGX5
 10
1878.829751164202
 20
281.83707725929042
 30
0.0
  0
INSERT
  5
12A8
  8
11
  2
STDGX5
 10
1812.378894102613
 20
249.48572628886291
 30
0.0
  0
INSERT
  5
12A9
  8
11
  2
STDGX5
 10
2626.3838991581902
 20
347.9944195024446
 30
0.0
  0
INSERT
  5
12AA
  8
11
  2
STDGX5
 10
2663.8689977744061
 20
311.99441922584163
 30
0.0
  0
INSERT
  5
12AB
  8
11
  2
STDGX5
 10
2597.4181407128181
 20
279.64306825541422
 30
0.0
  0
INSERT
  5
12AC
  8
11
  2
STDGX5
 10
1244.7082535228151
 20
165.1167867144959
 30
0.0
  0
INSERT
  5
12AD
  8
11
  2
STDGX5
 10
1282.193352139031
 20
129.11678643789301
 30
0.0
  0
INSERT
  5
12AE
  8
11
  2
STDGX5
 10
1215.742495077443
 20
96.765435467465522
 30
0.0
  0
INSERT
  5
12AF
  8
11
  2
STDGX5
 10
2116.3446525479849
 20
342.8371207383102
 30
0.0
  0
INSERT
  5
12B0
  8
11
  2
STDGX5
 10
2153.8297511642022
 20
306.83712046170729
 30
0.0
  0
INSERT
  5
12B1
  8
11
  2
STDGX5
 10
2087.3788941026128
 20
274.48576949127983
 30
0.0
  0
INSERT
  5
12B2
  8
11
  2
STDGX5
 10
2901.3838991581902
 20
372.99446270486141
 30
0.0
  0
INSERT
  5
12B3
  8
11
  2
STDGX5
 10
2938.8689977744061
 20
336.99446242825849
 30
0.0
  0
INSERT
  5
12B4
  8
11
  2
STDGX5
 10
2872.4181407128181
 20
304.64311145783108
 30
0.0
  0
INSERT
  5
12B5
  8
11
  2
STDGX5
 10
1244.7082535228151
 20
165.1167867144959
 30
0.0
  0
INSERT
  5
12B6
  8
11
  2
STDGX5
 10
1282.193352139031
 20
129.11678643789301
 30
0.0
  0
INSERT
  5
12B7
  8
11
  2
STDGX5
 10
1215.742495077443
 20
96.765435467465522
 30
0.0
  0
INSERT
  5
12B8
  8
11
  2
STDGX5
 10
2116.3446525479849
 20
342.8371207383102
 30
0.0
  0
INSERT
  5
12B9
  8
11
  2
STDGX5
 10
2153.8297511642022
 20
306.83712046170729
 30
0.0
  0
INSERT
  5
12BA
  8
11
  2
STDGX5
 10
2087.3788941026128
 20
274.48576949127983
 30
0.0
  0
INSERT
  5
12BB
  8
11
  2
STDGX5
 10
2901.3838991581902
 20
372.99446270486141
 30
0.0
  0
INSERT
  5
12BC
  8
11
  2
STDGX5
 10
2938.8689977744061
 20
336.99446242825849
 30
0.0
  0
INSERT
  5
12BD
  8
11
  2
STDGX5
 10
2872.4181407128181
 20
304.64311145783108
 30
0.0
  0
INSERT
  5
12BE
  8
11
  2
STDGX5
 10
1519.7082535228151
 20
190.11682991691279
 30
0.0
  0
INSERT
  5
12BF
  8
11
  2
STDGX5
 10
1557.193352139031
 20
154.1168296403099
 30
0.0
  0
INSERT
  5
12C0
  8
11
  2
STDGX5
 10
1490.742495077443
 20
121.7654786698824
 30
0.0
  0
INSERT
  5
12C1
  8
11
  2
STDGX5
 10
2391.3446525479858
 20
367.83716394072712
 30
0.0
  0
INSERT
  5
12C2
  8
11
  2
STDGX5
 10
2428.8297511642022
 20
331.8371636641242
 30
0.0
  0
INSERT
  5
12C3
  8
11
  2
STDGX5
 10
2362.3788941026128
 20
299.48581269369669
 30
0.0
  0
INSERT
  5
12C4
  8
11
  2
STDGX5
 10
3176.3838991581902
 20
397.99450590727838
 30
0.0
  0
INSERT
  5
12C5
  8
11
  2
STDGX5
 10
3213.868997774407
 20
361.99450563067552
 30
0.0
  0
INSERT
  5
12C6
  8
11
  2
STDGX5
 10
3147.4181407128181
 20
329.643154660248
 30
0.0
  0
INSERT
  5
12C7
  8
11
  2
STDGX5
 10
1519.7082535228151
 20
190.11682991691279
 30
0.0
  0
INSERT
  5
12C8
  8
11
  2
STDGX5
 10
1557.193352139031
 20
154.1168296403099
 30
0.0
  0
INSERT
  5
12C9
  8
11
  2
STDGX5
 10
1490.742495077443
 20
121.7654786698824
 30
0.0
  0
INSERT
  5
12CA
  8
11
  2
STDGX5
 10
2391.3446525479858
 20
367.83716394072712
 30
0.0
  0
INSERT
  5
12CB
  8
11
  2
STDGX5
 10
2428.8297511642022
 20
331.8371636641242
 30
0.0
  0
INSERT
  5
12CC
  8
11
  2
STDGX5
 10
2362.3788941026128
 20
299.48581269369669
 30
0.0
  0
INSERT
  5
12CD
  8
11
  2
STDGX5
 10
3176.3838991581902
 20
397.99450590727838
 30
0.0
  0
INSERT
  5
12CE
  8
11
  2
STDGX5
 10
3213.868997774407
 20
361.99450563067552
 30
0.0
  0
INSERT
  5
12CF
  8
11
  2
STDGX5
 10
3147.4181407128181
 20
329.643154660248
 30
0.0
  0
INSERT
  5
12D0
  8
11
  2
STDGX5
 10
1794.7082535228151
 20
215.1168731193298
 30
0.0
  0
INSERT
  5
12D1
  8
11
  2
STDGX5
 10
1832.193352139032
 20
179.11687284272679
 30
0.0
  0
INSERT
  5
12D2
  8
11
  2
STDGX5
 10
1765.742495077443
 20
146.7655218722993
 30
0.0
  0
INSERT
  5
12D3
  8
11
  2
STDGX5
 10
2666.3446525479858
 20
392.83720714314398
 30
0.0
  0
INSERT
  5
12D4
  8
11
  2
STDGX5
 10
2703.8297511642022
 20
356.83720686654112
 30
0.0
  0
INSERT
  5
12D5
  8
11
  2
STDGX5
 10
2637.3788941026141
 20
324.48585589611372
 30
0.0
  0
INSERT
  5
12D6
  8
11
  2
STDGX5
 10
3451.3838991581902
 20
422.9945491096953
 30
0.0
  0
INSERT
  5
12D7
  8
11
  2
STDGX5
 10
3488.868997774407
 20
386.99454883309238
 30
0.0
  0
INSERT
  5
12D8
  8
11
  2
STDGX5
 10
3422.4181407128181
 20
354.64319786266492
 30
0.0
  0
INSERT
  5
12D9
  8
11
  2
STDGX5
 10
1794.7082535228151
 20
215.1168731193298
 30
0.0
  0
INSERT
  5
12DA
  8
11
  2
STDGX5
 10
1832.193352139032
 20
179.11687284272679
 30
0.0
  0
INSERT
  5
12DB
  8
11
  2
STDGX5
 10
1765.742495077443
 20
146.7655218722993
 30
0.0
  0
INSERT
  5
12DC
  8
11
  2
STDGX5
 10
2666.3446525479858
 20
392.83720714314398
 30
0.0
  0
INSERT
  5
12DD
  8
11
  2
STDGX5
 10
2703.8297511642022
 20
356.83720686654112
 30
0.0
  0
INSERT
  5
12DE
  8
11
  2
STDGX5
 10
2637.3788941026141
 20
324.48585589611372
 30
0.0
  0
INSERT
  5
12DF
  8
11
  2
STDGX5
 10
3451.3838991581902
 20
422.9945491096953
 30
0.0
  0
INSERT
  5
12E0
  8
11
  2
STDGX5
 10
3488.868997774407
 20
386.99454883309238
 30
0.0
  0
INSERT
  5
12E1
  8
11
  2
STDGX5
 10
3422.4181407128181
 20
354.64319786266492
 30
0.0
  0
INSERT
  5
12E2
  8
11
  2
STDGX5
 10
2069.7082535228151
 20
240.1169163217466
 30
0.0
  0
INSERT
  5
12E3
  8
11
  2
STDGX5
 10
2107.193352139032
 20
204.11691604514371
 30
0.0
  0
INSERT
  5
12E4
  8
11
  2
STDGX5
 10
2040.742495077443
 20
171.76556507471619
 30
0.0
  0
INSERT
  5
12E5
  8
11
  2
STDGX5
 10
2941.3446525479858
 20
417.83725034556102
 30
0.0
  0
INSERT
  5
12E6
  8
11
  2
STDGX5
 10
2978.8297511642022
 20
381.83725006895799
 30
0.0
  0
INSERT
  5
12E7
  8
11
  2
STDGX5
 10
2912.3788941026141
 20
349.48589909853058
 30
0.0
  0
INSERT
  5
12E8
  8
11
  2
STDGX5
 10
3726.3838991581902
 20
447.99459231211222
 30
0.0
  0
INSERT
  5
12E9
  8
11
  2
STDGX5
 10
3763.868997774407
 20
411.99459203550919
 30
0.0
  0
INSERT
  5
12EA
  8
11
  2
STDGX5
 10
3697.4181407128181
 20
379.64324106508178
 30
0.0
  0
INSERT
  5
12EB
  8
11
  2
STDGX5
 10
2069.7082535228151
 20
240.1169163217466
 30
0.0
  0
INSERT
  5
12EC
  8
11
  2
STDGX5
 10
2107.193352139032
 20
204.11691604514371
 30
0.0
  0
INSERT
  5
12ED
  8
11
  2
STDGX5
 10
2040.742495077443
 20
171.76556507471619
 30
0.0
  0
INSERT
  5
12EE
  8
11
  2
STDGX5
 10
2941.3446525479858
 20
417.83725034556102
 30
0.0
  0
INSERT
  5
12EF
  8
11
  2
STDGX5
 10
2978.8297511642022
 20
381.83725006895799
 30
0.0
  0
INSERT
  5
12F0
  8
11
  2
STDGX5
 10
2912.3788941026141
 20
349.48589909853058
 30
0.0
  0
INSERT
  5
12F1
  8
11
  2
STDGX5
 10
3726.3838991581902
 20
447.99459231211222
 30
0.0
  0
INSERT
  5
12F2
  8
11
  2
STDGX5
 10
3763.868997774407
 20
411.99459203550919
 30
0.0
  0
INSERT
  5
12F3
  8
11
  2
STDGX5
 10
3697.4181407128181
 20
379.64324106508178
 30
0.0
  0
INSERT
  5
12F4
  8
11
  2
STDGX5
 10
2069.7082535228151
 20
240.1169163217466
 30
0.0
  0
INSERT
  5
12F5
  8
11
  2
STDGX5
 10
2107.193352139032
 20
204.11691604514371
 30
0.0
  0
INSERT
  5
12F6
  8
11
  2
STDGX5
 10
2040.742495077443
 20
171.76556507471619
 30
0.0
  0
INSERT
  5
12F7
  8
11
  2
STDGX5
 10
2941.3446525479858
 20
417.83725034556102
 30
0.0
  0
INSERT
  5
12F8
  8
11
  2
STDGX5
 10
2978.8297511642022
 20
381.83725006895799
 30
0.0
  0
INSERT
  5
12F9
  8
11
  2
STDGX5
 10
2912.3788941026141
 20
349.48589909853058
 30
0.0
  0
INSERT
  5
12FA
  8
11
  2
STDGX5
 10
3726.3838991581902
 20
447.99459231211222
 30
0.0
  0
INSERT
  5
12FB
  8
11
  2
STDGX5
 10
3763.868997774407
 20
411.99459203550919
 30
0.0
  0
INSERT
  5
12FC
  8
11
  2
STDGX5
 10
3697.4181407128181
 20
379.64324106508178
 30
0.0
  0
INSERT
  5
12FD
  8
11
  2
STDGX5
 10
2069.7082535228151
 20
240.1169163217466
 30
0.0
  0
INSERT
  5
12FE
  8
11
  2
STDGX5
 10
2107.193352139032
 20
204.11691604514371
 30
0.0
  0
INSERT
  5
12FF
  8
11
  2
STDGX5
 10
2040.742495077443
 20
171.76556507471619
 30
0.0
  0
INSERT
  5
1300
  8
11
  2
STDGX5
 10
2941.3446525479858
 20
417.83725034556102
 30
0.0
  0
INSERT
  5
1301
  8
11
  2
STDGX5
 10
2978.8297511642022
 20
381.83725006895799
 30
0.0
  0
INSERT
  5
1302
  8
11
  2
STDGX5
 10
2912.3788941026141
 20
349.48589909853058
 30
0.0
  0
INSERT
  5
1303
  8
11
  2
STDGX5
 10
3726.3838991581902
 20
447.99459231211222
 30
0.0
  0
INSERT
  5
1304
  8
11
  2
STDGX5
 10
3763.868997774407
 20
411.99459203550919
 30
0.0
  0
INSERT
  5
1305
  8
11
  2
STDGX5
 10
3697.4181407128181
 20
379.64324106508178
 30
0.0
  0
INSERT
  5
1306
  8
11
  2
STDGX5
 10
2069.7082535228151
 20
240.1169163217466
 30
0.0
  0
INSERT
  5
1307
  8
11
  2
STDGX5
 10
2107.193352139032
 20
204.11691604514371
 30
0.0
  0
INSERT
  5
1308
  8
11
  2
STDGX5
 10
2040.742495077443
 20
171.76556507471619
 30
0.0
  0
INSERT
  5
1309
  8
11
  2
STDGX5
 10
2941.3446525479858
 20
417.83725034556102
 30
0.0
  0
INSERT
  5
130A
  8
11
  2
STDGX5
 10
2978.8297511642022
 20
381.83725006895799
 30
0.0
  0
INSERT
  5
130B
  8
11
  2
STDGX5
 10
2912.3788941026141
 20
349.48589909853058
 30
0.0
  0
INSERT
  5
130C
  8
11
  2
STDGX5
 10
3726.3838991581902
 20
447.99459231211222
 30
0.0
  0
INSERT
  5
130D
  8
11
  2
STDGX5
 10
3763.868997774407
 20
411.99459203550919
 30
0.0
  0
INSERT
  5
130E
  8
11
  2
STDGX5
 10
3697.4181407128181
 20
379.64324106508178
 30
0.0
  0
INSERT
  5
130F
  8
11
  2
STDGX5
 10
2069.7082535228151
 20
240.1169163217466
 30
0.0
  0
INSERT
  5
1310
  8
11
  2
STDGX5
 10
2107.193352139032
 20
204.11691604514371
 30
0.0
  0
INSERT
  5
1311
  8
11
  2
STDGX5
 10
2040.742495077443
 20
171.76556507471619
 30
0.0
  0
INSERT
  5
1312
  8
11
  2
STDGX5
 10
2941.3446525479858
 20
417.83725034556102
 30
0.0
  0
INSERT
  5
1313
  8
11
  2
STDGX5
 10
2978.8297511642022
 20
381.83725006895799
 30
0.0
  0
INSERT
  5
1314
  8
11
  2
STDGX5
 10
2912.3788941026141
 20
349.48589909853058
 30
0.0
  0
INSERT
  5
1315
  8
11
  2
STDGX5
 10
3726.3838991581902
 20
447.99459231211222
 30
0.0
  0
INSERT
  5
1316
  8
11
  2
STDGX5
 10
3763.868997774407
 20
411.99459203550919
 30
0.0
  0
INSERT
  5
1317
  8
11
  2
STDGX5
 10
3697.4181407128181
 20
379.64324106508178
 30
0.0
  0
INSERT
  5
1318
  8
11
  2
STDGX5
 10
2344.7082535228151
 20
265.11695952416358
 30
0.0
  0
INSERT
  5
1319
  8
11
  2
STDGX5
 10
2382.193352139032
 20
229.11695924756069
 30
0.0
  0
INSERT
  5
131A
  8
11
  2
STDGX5
 10
2315.742495077443
 20
196.7656082771332
 30
0.0
  0
INSERT
  5
131B
  8
11
  2
STDGX5
 10
3216.3446525479858
 20
442.83729354797782
 30
0.0
  0
INSERT
  5
131C
  8
11
  2
STDGX5
 10
3253.8297511642022
 20
406.8372932713749
 30
0.0
  0
INSERT
  5
131D
  8
11
  2
STDGX5
 10
3187.3788941026128
 20
374.4859423009475
 30
0.0
  0
INSERT
  5
131E
  8
11
  2
STDGX5
 10
4001.3838991581902
 20
472.99463551452908
 30
0.0
  0
INSERT
  5
131F
  8
11
  2
STDGX5
 10
4038.8689977744061
 20
436.99463523792622
 30
0.0
  0
INSERT
  5
1320
  8
11
  2
STDGX5
 10
3972.4181407128181
 20
404.6432842674987
 30
0.0
  0
INSERT
  5
1321
  8
11
  2
STDGX5
 10
2344.7082535228151
 20
265.11695952416358
 30
0.0
  0
INSERT
  5
1322
  8
11
  2
STDGX5
 10
2382.193352139032
 20
229.11695924756069
 30
0.0
  0
INSERT
  5
1323
  8
11
  2
STDGX5
 10
2315.742495077443
 20
196.7656082771332
 30
0.0
  0
INSERT
  5
1324
  8
11
  2
STDGX5
 10
3216.3446525479858
 20
442.83729354797782
 30
0.0
  0
INSERT
  5
1325
  8
11
  2
STDGX5
 10
3253.8297511642022
 20
406.8372932713749
 30
0.0
  0
INSERT
  5
1326
  8
11
  2
STDGX5
 10
3187.3788941026128
 20
374.4859423009475
 30
0.0
  0
INSERT
  5
1327
  8
11
  2
STDGX5
 10
4001.3838991581902
 20
472.99463551452908
 30
0.0
  0
INSERT
  5
1328
  8
11
  2
STDGX5
 10
4038.8689977744061
 20
436.99463523792622
 30
0.0
  0
INSERT
  5
1329
  8
11
  2
STDGX5
 10
3972.4181407128181
 20
404.6432842674987
 30
0.0
  0
INSERT
  5
132A
  8
11
  2
STDGX5
 10
2344.7082535228151
 20
265.11695952416358
 30
0.0
  0
INSERT
  5
132B
  8
11
  2
STDGX5
 10
2382.193352139032
 20
229.11695924756069
 30
0.0
  0
INSERT
  5
132C
  8
11
  2
STDGX5
 10
2315.742495077443
 20
196.7656082771332
 30
0.0
  0
INSERT
  5
132D
  8
11
  2
STDGX5
 10
3216.3446525479858
 20
442.83729354797782
 30
0.0
  0
INSERT
  5
132E
  8
11
  2
STDGX5
 10
3253.8297511642022
 20
406.8372932713749
 30
0.0
  0
INSERT
  5
132F
  8
11
  2
STDGX5
 10
3187.3788941026128
 20
374.4859423009475
 30
0.0
  0
INSERT
  5
1330
  8
11
  2
STDGX5
 10
4001.3838991581902
 20
472.99463551452908
 30
0.0
  0
INSERT
  5
1331
  8
11
  2
STDGX5
 10
4038.8689977744061
 20
436.99463523792622
 30
0.0
  0
INSERT
  5
1332
  8
11
  2
STDGX5
 10
3972.4181407128181
 20
404.6432842674987
 30
0.0
  0
INSERT
  5
1333
  8
11
  2
STDGX5
 10
2344.7082535228151
 20
265.11695952416358
 30
0.0
  0
INSERT
  5
1334
  8
11
  2
STDGX5
 10
2382.193352139032
 20
229.11695924756069
 30
0.0
  0
INSERT
  5
1335
  8
11
  2
STDGX5
 10
2315.742495077443
 20
196.7656082771332
 30
0.0
  0
INSERT
  5
1336
  8
11
  2
STDGX5
 10
3216.3446525479858
 20
442.83729354797782
 30
0.0
  0
INSERT
  5
1337
  8
11
  2
STDGX5
 10
3253.8297511642022
 20
406.8372932713749
 30
0.0
  0
INSERT
  5
1338
  8
11
  2
STDGX5
 10
3187.3788941026128
 20
374.4859423009475
 30
0.0
  0
INSERT
  5
1339
  8
11
  2
STDGX5
 10
4001.3838991581902
 20
472.99463551452908
 30
0.0
  0
INSERT
  5
133A
  8
11
  2
STDGX5
 10
4038.8689977744061
 20
436.99463523792622
 30
0.0
  0
INSERT
  5
133B
  8
11
  2
STDGX5
 10
3972.4181407128181
 20
404.6432842674987
 30
0.0
  0
INSERT
  5
133C
  8
11
  2
STDGX5
 10
2344.7082535228151
 20
265.11695952416358
 30
0.0
  0
INSERT
  5
133D
  8
11
  2
STDGX5
 10
2382.193352139032
 20
229.11695924756069
 30
0.0
  0
INSERT
  5
133E
  8
11
  2
STDGX5
 10
2315.742495077443
 20
196.7656082771332
 30
0.0
  0
INSERT
  5
133F
  8
11
  2
STDGX5
 10
3216.3446525479858
 20
442.83729354797782
 30
0.0
  0
INSERT
  5
1340
  8
11
  2
STDGX5
 10
3253.8297511642022
 20
406.8372932713749
 30
0.0
  0
INSERT
  5
1341
  8
11
  2
STDGX5
 10
3187.3788941026128
 20
374.4859423009475
 30
0.0
  0
INSERT
  5
1342
  8
11
  2
STDGX5
 10
4001.3838991581902
 20
472.99463551452908
 30
0.0
  0
INSERT
  5
1343
  8
11
  2
STDGX5
 10
4038.8689977744061
 20
436.99463523792622
 30
0.0
  0
INSERT
  5
1344
  8
11
  2
STDGX5
 10
3972.4181407128181
 20
404.6432842674987
 30
0.0
  0
INSERT
  5
1345
  8
11
  2
STDGX5
 10
2619.7082535228151
 20
290.11700272658049
 30
0.0
  0
INSERT
  5
1346
  8
11
  2
STDGX5
 10
2657.193352139032
 20
254.1170024499776
 30
0.0
  0
INSERT
  5
1347
  8
11
  2
STDGX5
 10
2590.742495077443
 20
221.76565147955009
 30
0.0
  0
INSERT
  5
1348
  8
11
  2
STDGX5
 10
3491.3446525479858
 20
467.83733675039468
 30
0.0
  0
INSERT
  5
1349
  8
11
  2
STDGX5
 10
3528.8297511642022
 20
431.83733647379188
 30
0.0
  0
INSERT
  5
134A
  8
11
  2
STDGX5
 10
3462.3788941026128
 20
399.48598550336442
 30
0.0
  0
INSERT
  5
134B
  8
11
  2
STDGX5
 10
4276.3838991581888
 20
497.994678716946
 30
0.0
  0
INSERT
  5
134C
  8
11
  2
STDGX5
 10
4313.8689977744061
 20
461.99467844034308
 30
0.0
  0
INSERT
  5
134D
  8
11
  2
STDGX5
 10
4247.4181407128171
 20
429.64332746991568
 30
0.0
  0
INSERT
  5
134E
  8
11
  2
STDGX5
 10
2344.7082535228151
 20
265.11695952416358
 30
0.0
  0
INSERT
  5
134F
  8
11
  2
STDGX5
 10
2382.193352139032
 20
229.11695924756069
 30
0.0
  0
INSERT
  5
1350
  8
11
  2
STDGX5
 10
2315.742495077443
 20
196.7656082771332
 30
0.0
  0
INSERT
  5
1351
  8
11
  2
STDGX5
 10
3216.3446525479858
 20
442.83729354797782
 30
0.0
  0
INSERT
  5
1352
  8
11
  2
STDGX5
 10
3253.8297511642022
 20
406.8372932713749
 30
0.0
  0
INSERT
  5
1353
  8
11
  2
STDGX5
 10
3187.3788941026128
 20
374.4859423009475
 30
0.0
  0
INSERT
  5
1354
  8
11
  2
STDGX5
 10
4001.3838991581902
 20
472.99463551452908
 30
0.0
  0
INSERT
  5
1355
  8
11
  2
STDGX5
 10
4038.8689977744061
 20
436.99463523792622
 30
0.0
  0
INSERT
  5
1356
  8
11
  2
STDGX5
 10
3972.4181407128181
 20
404.6432842674987
 30
0.0
  0
INSERT
  5
1357
  8
11
  2
STDGX5
 10
2619.7082535228151
 20
290.11700272658049
 30
0.0
  0
INSERT
  5
1358
  8
11
  2
STDGX5
 10
2657.193352139032
 20
254.1170024499776
 30
0.0
  0
INSERT
  5
1359
  8
11
  2
STDGX5
 10
2590.742495077443
 20
221.76565147955009
 30
0.0
  0
INSERT
  5
135A
  8
11
  2
STDGX5
 10
3491.3446525479858
 20
467.83733675039468
 30
0.0
  0
INSERT
  5
135B
  8
11
  2
STDGX5
 10
3528.8297511642022
 20
431.83733647379188
 30
0.0
  0
INSERT
  5
135C
  8
11
  2
STDGX5
 10
3462.3788941026128
 20
399.48598550336442
 30
0.0
  0
INSERT
  5
135D
  8
11
  2
STDGX5
 10
4276.3838991581888
 20
497.994678716946
 30
0.0
  0
INSERT
  5
135E
  8
11
  2
STDGX5
 10
4313.8689977744061
 20
461.99467844034308
 30
0.0
  0
INSERT
  5
135F
  8
11
  2
STDGX5
 10
4247.4181407128171
 20
429.64332746991568
 30
0.0
  0
INSERT
  5
1360
  8
11
  2
STDGX5
 10
2619.7082535228151
 20
290.11700272658049
 30
0.0
  0
INSERT
  5
1361
  8
11
  2
STDGX5
 10
2657.193352139032
 20
254.1170024499776
 30
0.0
  0
INSERT
  5
1362
  8
11
  2
STDGX5
 10
2590.742495077443
 20
221.76565147955009
 30
0.0
  0
INSERT
  5
1363
  8
11
  2
STDGX5
 10
3491.3446525479858
 20
467.83733675039468
 30
0.0
  0
INSERT
  5
1364
  8
11
  2
STDGX5
 10
3528.8297511642022
 20
431.83733647379188
 30
0.0
  0
INSERT
  5
1365
  8
11
  2
STDGX5
 10
3462.3788941026128
 20
399.48598550336442
 30
0.0
  0
INSERT
  5
1366
  8
11
  2
STDGX5
 10
4276.3838991581888
 20
497.994678716946
 30
0.0
  0
INSERT
  5
1367
  8
11
  2
STDGX5
 10
4313.8689977744061
 20
461.99467844034308
 30
0.0
  0
INSERT
  5
1368
  8
11
  2
STDGX5
 10
4247.4181407128171
 20
429.64332746991568
 30
0.0
  0
INSERT
  5
1369
  8
11
  2
STDGX5
 10
2619.7082535228151
 20
290.11700272658049
 30
0.0
  0
INSERT
  5
136A
  8
11
  2
STDGX5
 10
2657.193352139032
 20
254.1170024499776
 30
0.0
  0
INSERT
  5
136B
  8
11
  2
STDGX5
 10
2590.742495077443
 20
221.76565147955009
 30
0.0
  0
INSERT
  5
136C
  8
11
  2
STDGX5
 10
3491.3446525479858
 20
467.83733675039468
 30
0.0
  0
INSERT
  5
136D
  8
11
  2
STDGX5
 10
3528.8297511642022
 20
431.83733647379188
 30
0.0
  0
INSERT
  5
136E
  8
11
  2
STDGX5
 10
3462.3788941026128
 20
399.48598550336442
 30
0.0
  0
INSERT
  5
136F
  8
11
  2
STDGX5
 10
4276.3838991581888
 20
497.994678716946
 30
0.0
  0
INSERT
  5
1370
  8
11
  2
STDGX5
 10
4313.8689977744061
 20
461.99467844034308
 30
0.0
  0
INSERT
  5
1371
  8
11
  2
STDGX5
 10
4247.4181407128171
 20
429.64332746991568
 30
0.0
  0
INSERT
  5
1372
  8
11
  2
STDGX5
 10
2619.7082535228151
 20
290.11700272658049
 30
0.0
  0
INSERT
  5
1373
  8
11
  2
STDGX5
 10
2657.193352139032
 20
254.1170024499776
 30
0.0
  0
INSERT
  5
1374
  8
11
  2
STDGX5
 10
2590.742495077443
 20
221.76565147955009
 30
0.0
  0
INSERT
  5
1375
  8
11
  2
STDGX5
 10
3491.3446525479858
 20
467.83733675039468
 30
0.0
  0
INSERT
  5
1376
  8
11
  2
STDGX5
 10
3528.8297511642022
 20
431.83733647379188
 30
0.0
  0
INSERT
  5
1377
  8
11
  2
STDGX5
 10
3462.3788941026128
 20
399.48598550336442
 30
0.0
  0
INSERT
  5
1378
  8
11
  2
STDGX5
 10
4276.3838991581888
 20
497.994678716946
 30
0.0
  0
INSERT
  5
1379
  8
11
  2
STDGX5
 10
4313.8689977744061
 20
461.99467844034308
 30
0.0
  0
INSERT
  5
137A
  8
11
  2
STDGX5
 10
4247.4181407128171
 20
429.64332746991568
 30
0.0
  0
INSERT
  5
137B
  8
11
  2
STDGX5
 10
2894.7082535228151
 20
315.11704592899741
 30
0.0
  0
INSERT
  5
137C
  8
11
  2
STDGX5
 10
2932.193352139032
 20
279.11704565239449
 30
0.0
  0
INSERT
  5
137D
  8
11
  2
STDGX5
 10
2865.742495077443
 20
246.76569468196701
 30
0.0
  0
INSERT
  5
137E
  8
11
  2
STDGX5
 10
3766.3446525479858
 20
492.83737995281172
 30
0.0
  0
INSERT
  5
137F
  8
11
  2
STDGX5
 10
3803.8297511642022
 20
456.83737967620868
 30
0.0
  0
INSERT
  5
1380
  8
11
  2
STDGX5
 10
3737.3788941026141
 20
424.48602870578128
 30
0.0
  0
INSERT
  5
1381
  8
11
  2
STDGX5
 10
4551.3838991581897
 20
522.99472191936286
 30
0.0
  0
INSERT
  5
1382
  8
11
  2
STDGX5
 10
4588.8689977744061
 20
486.99472164276
 30
0.0
  0
INSERT
  5
1383
  8
11
  2
STDGX5
 10
4522.4181407128171
 20
454.64337067233259
 30
0.0
  0
INSERT
  5
1384
  8
11
  2
STDGX5
 10
2619.7082535228151
 20
290.11700272658049
 30
0.0
  0
INSERT
  5
1385
  8
11
  2
STDGX5
 10
2657.193352139032
 20
254.1170024499776
 30
0.0
  0
INSERT
  5
1386
  8
11
  2
STDGX5
 10
2590.742495077443
 20
221.76565147955009
 30
0.0
  0
INSERT
  5
1387
  8
11
  2
STDGX5
 10
3491.3446525479858
 20
467.83733675039468
 30
0.0
  0
INSERT
  5
1388
  8
11
  2
STDGX5
 10
3528.8297511642022
 20
431.83733647379188
 30
0.0
  0
INSERT
  5
1389
  8
11
  2
STDGX5
 10
3462.3788941026128
 20
399.48598550336442
 30
0.0
  0
INSERT
  5
138A
  8
11
  2
STDGX5
 10
4276.3838991581888
 20
497.994678716946
 30
0.0
  0
INSERT
  5
138B
  8
11
  2
STDGX5
 10
4313.8689977744061
 20
461.99467844034308
 30
0.0
  0
INSERT
  5
138C
  8
11
  2
STDGX5
 10
4247.4181407128171
 20
429.64332746991568
 30
0.0
  0
INSERT
  5
138D
  8
11
  2
STDGX5
 10
2894.7082535228151
 20
315.11704592899741
 30
0.0
  0
INSERT
  5
138E
  8
11
  2
STDGX5
 10
2932.193352139032
 20
279.11704565239449
 30
0.0
  0
INSERT
  5
138F
  8
11
  2
STDGX5
 10
2865.742495077443
 20
246.76569468196701
 30
0.0
  0
INSERT
  5
1390
  8
11
  2
STDGX5
 10
3766.3446525479858
 20
492.83737995281172
 30
0.0
  0
INSERT
  5
1391
  8
11
  2
STDGX5
 10
3803.8297511642022
 20
456.83737967620868
 30
0.0
  0
INSERT
  5
1392
  8
11
  2
STDGX5
 10
3737.3788941026141
 20
424.48602870578128
 30
0.0
  0
INSERT
  5
1393
  8
11
  2
STDGX5
 10
4551.3838991581897
 20
522.99472191936286
 30
0.0
  0
INSERT
  5
1394
  8
11
  2
STDGX5
 10
4588.8689977744061
 20
486.99472164276
 30
0.0
  0
INSERT
  5
1395
  8
11
  2
STDGX5
 10
4522.4181407128171
 20
454.64337067233259
 30
0.0
  0
INSERT
  5
1396
  8
11
  2
STDGX5
 10
2894.7082535228151
 20
315.11704592899741
 30
0.0
  0
INSERT
  5
1397
  8
11
  2
STDGX5
 10
2932.193352139032
 20
279.11704565239449
 30
0.0
  0
INSERT
  5
1398
  8
11
  2
STDGX5
 10
2865.742495077443
 20
246.76569468196701
 30
0.0
  0
INSERT
  5
1399
  8
11
  2
STDGX5
 10
3766.3446525479858
 20
492.83737995281172
 30
0.0
  0
INSERT
  5
139A
  8
11
  2
STDGX5
 10
3803.8297511642022
 20
456.83737967620868
 30
0.0
  0
INSERT
  5
139B
  8
11
  2
STDGX5
 10
3737.3788941026141
 20
424.48602870578128
 30
0.0
  0
INSERT
  5
139C
  8
11
  2
STDGX5
 10
4551.3838991581897
 20
522.99472191936286
 30
0.0
  0
INSERT
  5
139D
  8
11
  2
STDGX5
 10
4588.8689977744061
 20
486.99472164276
 30
0.0
  0
INSERT
  5
139E
  8
11
  2
STDGX5
 10
4522.4181407128171
 20
454.64337067233259
 30
0.0
  0
INSERT
  5
139F
  8
11
  2
STDGX5
 10
2894.7082535228151
 20
315.11704592899741
 30
0.0
  0
INSERT
  5
13A0
  8
11
  2
STDGX5
 10
2932.193352139032
 20
279.11704565239449
 30
0.0
  0
INSERT
  5
13A1
  8
11
  2
STDGX5
 10
2865.742495077443
 20
246.76569468196701
 30
0.0
  0
INSERT
  5
13A2
  8
11
  2
STDGX5
 10
3766.3446525479858
 20
492.83737995281172
 30
0.0
  0
INSERT
  5
13A3
  8
11
  2
STDGX5
 10
3803.8297511642022
 20
456.83737967620868
 30
0.0
  0
INSERT
  5
13A4
  8
11
  2
STDGX5
 10
3737.3788941026141
 20
424.48602870578128
 30
0.0
  0
INSERT
  5
13A5
  8
11
  2
STDGX5
 10
4551.3838991581897
 20
522.99472191936286
 30
0.0
  0
INSERT
  5
13A6
  8
11
  2
STDGX5
 10
4588.8689977744061
 20
486.99472164276
 30
0.0
  0
INSERT
  5
13A7
  8
11
  2
STDGX5
 10
4522.4181407128171
 20
454.64337067233259
 30
0.0
  0
INSERT
  5
13A8
  8
11
  2
STDGX5
 10
3169.7082535228151
 20
340.11708913141428
 30
0.0
  0
INSERT
  5
13A9
  8
11
  2
STDGX5
 10
3207.193352139031
 20
304.11708885481141
 30
0.0
  0
INSERT
  5
13AA
  8
11
  2
STDGX5
 10
3140.742495077443
 20
271.7657378843839
 30
0.0
  0
INSERT
  5
13AB
  8
11
  2
STDGX5
 10
4041.3446525479849
 20
517.83742315522863
 30
0.0
  0
INSERT
  5
13AC
  8
11
  2
STDGX5
 10
4078.8297511642022
 20
481.8374228786256
 30
0.0
  0
INSERT
  5
13AD
  8
11
  2
STDGX5
 10
4012.3788941026128
 20
449.4860719081982
 30
0.0
  0
INSERT
  5
13AE
  8
11
  2
STDGX5
 10
4826.3838991581897
 20
547.99476512177978
 30
0.0
  0
INSERT
  5
13AF
  8
11
  2
STDGX5
 10
4863.868997774407
 20
511.99476484517692
 30
0.0
  0
INSERT
  5
13B0
  8
11
  2
STDGX5
 10
4797.4181407128162
 20
479.6434138747494
 30
0.0
  0
INSERT
  5
13B1
  8
11
  2
STDGX5
 10
2894.7082535228151
 20
465.11700272658049
 30
0.0
  0
INSERT
  5
13B2
  8
11
  2
STDGX5
 10
2932.193352139032
 20
429.11700244997752
 30
0.0
  0
INSERT
  5
13B3
  8
11
  2
STDGX5
 10
2865.742495077443
 20
396.76565147955012
 30
0.0
  0
INSERT
  5
13B4
  8
11
  2
STDGX5
 10
3766.3446525479858
 20
642.83733675039468
 30
0.0
  0
INSERT
  5
13B5
  8
11
  2
STDGX5
 10
3803.8297511642022
 20
606.83733647379188
 30
0.0
  0
INSERT
  5
13B6
  8
11
  2
STDGX5
 10
3737.3788941026141
 20
574.48598550336442
 30
0.0
  0
INSERT
  5
13B7
  8
11
  2
STDGX5
 10
4551.3838991581897
 20
672.99467871694605
 30
0.0
  0
INSERT
  5
13B8
  8
11
  2
STDGX5
 10
4588.8689977744061
 20
636.99467844034314
 30
0.0
  0
INSERT
  5
13B9
  8
11
  2
STDGX5
 10
4522.4181407128171
 20
604.64332746991568
 30
0.0
  0
INSERT
  5
13BA
  8
11
  2
STDGX5
 10
3169.7082535228151
 20
490.11704592899741
 30
0.0
  0
INSERT
  5
13BB
  8
11
  2
STDGX5
 10
3207.193352139031
 20
454.11704565239449
 30
0.0
  0
INSERT
  5
13BC
  8
11
  2
STDGX5
 10
3140.742495077443
 20
421.76569468196698
 30
0.0
  0
INSERT
  5
13BD
  8
11
  2
STDGX5
 10
4041.3446525479849
 20
667.83737995281172
 30
0.0
  0
INSERT
  5
13BE
  8
11
  2
STDGX5
 10
4078.8297511642022
 20
631.8373796762088
 30
0.0
  0
INSERT
  5
13BF
  8
11
  2
STDGX5
 10
4012.3788941026128
 20
599.48602870578134
 30
0.0
  0
INSERT
  5
13C0
  8
11
  2
STDGX5
 10
4826.3838991581897
 20
697.99472191936286
 30
0.0
  0
INSERT
  5
13C1
  8
11
  2
STDGX5
 10
4863.868997774407
 20
661.99472164276006
 30
0.0
  0
INSERT
  5
13C2
  8
11
  2
STDGX5
 10
4797.4181407128162
 20
629.64337067233259
 30
0.0
  0
INSERT
  5
13C3
  8
11
  2
STDGX5
 10
2894.7082535228151
 20
315.11704592899741
 30
0.0
  0
INSERT
  5
13C4
  8
11
  2
STDGX5
 10
2932.193352139032
 20
279.11704565239449
 30
0.0
  0
INSERT
  5
13C5
  8
11
  2
STDGX5
 10
2865.742495077443
 20
246.76569468196701
 30
0.0
  0
INSERT
  5
13C6
  8
11
  2
STDGX5
 10
3766.3446525479858
 20
492.83737995281172
 30
0.0
  0
INSERT
  5
13C7
  8
11
  2
STDGX5
 10
3803.8297511642022
 20
456.83737967620868
 30
0.0
  0
INSERT
  5
13C8
  8
11
  2
STDGX5
 10
3737.3788941026141
 20
424.48602870578128
 30
0.0
  0
INSERT
  5
13C9
  8
11
  2
STDGX5
 10
4551.3838991581897
 20
522.99472191936286
 30
0.0
  0
INSERT
  5
13CA
  8
11
  2
STDGX5
 10
4588.8689977744061
 20
486.99472164276
 30
0.0
  0
INSERT
  5
13CB
  8
11
  2
STDGX5
 10
4522.4181407128171
 20
454.64337067233259
 30
0.0
  0
INSERT
  5
13CC
  8
11
  2
STDGX5
 10
3169.7082535228151
 20
340.11708913141428
 30
0.0
  0
INSERT
  5
13CD
  8
11
  2
STDGX5
 10
3207.193352139031
 20
304.11708885481141
 30
0.0
  0
INSERT
  5
13CE
  8
11
  2
STDGX5
 10
3140.742495077443
 20
271.7657378843839
 30
0.0
  0
INSERT
  5
13CF
  8
11
  2
STDGX5
 10
4041.3446525479849
 20
517.83742315522863
 30
0.0
  0
INSERT
  5
13D0
  8
11
  2
STDGX5
 10
4078.8297511642022
 20
481.8374228786256
 30
0.0
  0
INSERT
  5
13D1
  8
11
  2
STDGX5
 10
4012.3788941026128
 20
449.4860719081982
 30
0.0
  0
INSERT
  5
13D2
  8
11
  2
STDGX5
 10
4826.3838991581897
 20
547.99476512177978
 30
0.0
  0
INSERT
  5
13D3
  8
11
  2
STDGX5
 10
4863.868997774407
 20
511.99476484517692
 30
0.0
  0
INSERT
  5
13D4
  8
11
  2
STDGX5
 10
4797.4181407128162
 20
479.6434138747494
 30
0.0
  0
INSERT
  5
15C2
  8
11
  2
STDGX5
 10
425.7748274911998
 20
89.014616211889233
 30
0.0
  0
INSERT
  5
15C3
  8
11
  2
STDGX5
 10
463.25992610741628
 20
53.014615935286322
 30
0.0
  0
INSERT
  5
15C4
  8
11
  2
STDGX5
 10
396.80906904582793
 20
20.66326496485885
 30
0.0
  0
INSERT
  5
15C5
  8
11
  2
STDGX5
 10
1297.4112265163701
 20
266.73495023570348
 30
0.0
  0
INSERT
  5
15C6
  8
11
  2
STDGX5
 10
1334.8963251325861
 20
230.73494995910059
 30
0.0
  0
INSERT
  5
15C7
  8
11
  2
STDGX5
 10
1268.445468070998
 20
198.3835989886731
 30
0.0
  0
INSERT
  5
15C8
  8
11
  2
STDGX5
 10
2082.4504731265752
 20
296.89229220225479
 30
0.0
  0
INSERT
  5
15C9
  8
11
  2
STDGX5
 10
2119.9355717427911
 20
260.89229192565188
 30
0.0
  0
INSERT
  5
15CA
  8
11
  2
STDGX5
 10
2053.4847146812031
 20
228.54094095522441
 30
0.0
  0
INSERT
  5
15DD
  8
11
  2
STDGX5
 10
700.77482749119974
 20
114.0146594143061
 30
0.0
  0
INSERT
  5
15DE
  8
11
  2
STDGX5
 10
738.25992610741628
 20
78.014659137703234
 30
0.0
  0
INSERT
  5
15DF
  8
11
  2
STDGX5
 10
671.80906904582787
 20
45.663308167275773
 30
0.0
  0
INSERT
  5
15E0
  8
11
  2
STDGX5
 10
1572.4112265163701
 20
291.73499343812051
 30
0.0
  0
INSERT
  5
15E1
  8
11
  2
STDGX5
 10
1609.8963251325861
 20
255.73499316151751
 30
0.0
  0
INSERT
  5
15E2
  8
11
  2
STDGX5
 10
1543.445468070998
 20
223.3836421910901
 30
0.0
  0
INSERT
  5
15E3
  8
11
  2
STDGX5
 10
2357.4504731265752
 20
321.89233540467171
 30
0.0
  0
INSERT
  5
15E4
  8
11
  2
STDGX5
 10
2394.935571742792
 20
285.89233512806879
 30
0.0
  0
INSERT
  5
15E5
  8
11
  2
STDGX5
 10
2328.4847146812031
 20
253.5409841576413
 30
0.0
  0
INSERT
  5
15E6
  8
11
  2
STDGX5
 10
700.77482749119974
 20
114.0146594143061
 30
0.0
  0
INSERT
  5
15E7
  8
11
  2
STDGX5
 10
738.25992610741628
 20
78.014659137703234
 30
0.0
  0
INSERT
  5
15E8
  8
11
  2
STDGX5
 10
671.80906904582787
 20
45.663308167275773
 30
0.0
  0
INSERT
  5
15E9
  8
11
  2
STDGX5
 10
1572.4112265163701
 20
291.73499343812051
 30
0.0
  0
INSERT
  5
15EA
  8
11
  2
STDGX5
 10
1609.8963251325861
 20
255.73499316151751
 30
0.0
  0
INSERT
  5
15EB
  8
11
  2
STDGX5
 10
1543.445468070998
 20
223.3836421910901
 30
0.0
  0
INSERT
  5
15EC
  8
11
  2
STDGX5
 10
2357.4504731265752
 20
321.89233540467171
 30
0.0
  0
INSERT
  5
15ED
  8
11
  2
STDGX5
 10
2394.935571742792
 20
285.89233512806879
 30
0.0
  0
INSERT
  5
15EE
  8
11
  2
STDGX5
 10
2328.4847146812031
 20
253.5409841576413
 30
0.0
  0
INSERT
  5
15EF
  8
11
  2
STDGX5
 10
700.77482749119974
 20
114.0146594143061
 30
0.0
  0
INSERT
  5
15F0
  8
11
  2
STDGX5
 10
738.25992610741628
 20
78.014659137703234
 30
0.0
  0
INSERT
  5
15F1
  8
11
  2
STDGX5
 10
671.80906904582787
 20
45.663308167275773
 30
0.0
  0
INSERT
  5
15F2
  8
11
  2
STDGX5
 10
1572.4112265163701
 20
291.73499343812051
 30
0.0
  0
INSERT
  5
15F3
  8
11
  2
STDGX5
 10
1609.8963251325861
 20
255.73499316151751
 30
0.0
  0
INSERT
  5
15F4
  8
11
  2
STDGX5
 10
1543.445468070998
 20
223.3836421910901
 30
0.0
  0
INSERT
  5
15F5
  8
11
  2
STDGX5
 10
2357.4504731265752
 20
321.89233540467171
 30
0.0
  0
INSERT
  5
15F6
  8
11
  2
STDGX5
 10
2394.935571742792
 20
285.89233512806879
 30
0.0
  0
INSERT
  5
15F7
  8
11
  2
STDGX5
 10
2328.4847146812031
 20
253.5409841576413
 30
0.0
  0
INSERT
  5
15F8
  8
11
  2
STDGX5
 10
700.77482749119974
 20
114.0146594143061
 30
0.0
  0
INSERT
  5
15F9
  8
11
  2
STDGX5
 10
738.25992610741628
 20
78.014659137703234
 30
0.0
  0
INSERT
  5
15FA
  8
11
  2
STDGX5
 10
671.80906904582787
 20
45.663308167275773
 30
0.0
  0
INSERT
  5
15FB
  8
11
  2
STDGX5
 10
1572.4112265163701
 20
291.73499343812051
 30
0.0
  0
INSERT
  5
15FC
  8
11
  2
STDGX5
 10
1609.8963251325861
 20
255.73499316151751
 30
0.0
  0
INSERT
  5
15FD
  8
11
  2
STDGX5
 10
1543.445468070998
 20
223.3836421910901
 30
0.0
  0
INSERT
  5
15FE
  8
11
  2
STDGX5
 10
2357.4504731265752
 20
321.89233540467171
 30
0.0
  0
INSERT
  5
15FF
  8
11
  2
STDGX5
 10
2394.935571742792
 20
285.89233512806879
 30
0.0
  0
INSERT
  5
1600
  8
11
  2
STDGX5
 10
2328.4847146812031
 20
253.5409841576413
 30
0.0
  0
INSERT
  5
180C
  8
11
  2
STDGX5
 10
424.12030761987847
 20
91.218698002601045
 30
0.0
  0
INSERT
  5
180D
  8
11
  2
STDGX5
 10
461.60540623609489
 20
55.21869772599814
 30
0.0
  0
INSERT
  5
180E
  8
11
  2
STDGX5
 10
395.15454917450649
 20
22.867346755570679
 30
0.0
  0
INSERT
  5
180F
  8
11
  2
STDGX5
 10
1295.756706645049
 20
268.93903202641542
 30
0.0
  0
INSERT
  5
1810
  8
11
  2
STDGX5
 10
1333.241805261265
 20
232.93903174981239
 30
0.0
  0
INSERT
  5
1811
  8
11
  2
STDGX5
 10
1266.7909481996769
 20
200.58768077938501
 30
0.0
  0
INSERT
  5
1812
  8
11
  2
STDGX5
 10
2080.7959532552532
 20
299.09637399296662
 30
0.0
  0
INSERT
  5
1813
  8
11
  2
STDGX5
 10
2118.28105187147
 20
263.0963737163637
 30
0.0
  0
INSERT
  5
1814
  8
11
  2
STDGX5
 10
2051.830194809881
 20
230.74502274593621
 30
0.0
  0
INSERT
  5
1827
  8
11
  2
STDGX5
 10
699.12030761987853
 20
116.21874120501801
 30
0.0
  0
INSERT
  5
1828
  8
11
  2
STDGX5
 10
736.60540623609495
 20
80.218740928415045
 30
0.0
  0
INSERT
  5
1829
  8
11
  2
STDGX5
 10
670.15454917450654
 20
47.867389957987591
 30
0.0
  0
INSERT
  5
182A
  8
11
  2
STDGX5
 10
1570.756706645049
 20
293.93907522883228
 30
0.0
  0
INSERT
  5
182B
  8
11
  2
STDGX5
 10
1608.241805261265
 20
257.93907495222942
 30
0.0
  0
INSERT
  5
182C
  8
11
  2
STDGX5
 10
1541.790948199676
 20
225.5877239818019
 30
0.0
  0
INSERT
  5
182D
  8
11
  2
STDGX5
 10
2355.7959532552532
 20
324.09641719538359
 30
0.0
  0
INSERT
  5
182E
  8
11
  2
STDGX5
 10
2393.28105187147
 20
288.09641691878062
 30
0.0
  0
INSERT
  5
182F
  8
11
  2
STDGX5
 10
2326.830194809881
 20
255.74506594835319
 30
0.0
  0
INSERT
  5
1830
  8
11
  2
STDGX5
 10
699.12030761987853
 20
116.21874120501801
 30
0.0
  0
INSERT
  5
1831
  8
11
  2
STDGX5
 10
736.60540623609495
 20
80.218740928415045
 30
0.0
  0
INSERT
  5
1832
  8
11
  2
STDGX5
 10
670.15454917450654
 20
47.867389957987591
 30
0.0
  0
INSERT
  5
1833
  8
11
  2
STDGX5
 10
1570.756706645049
 20
293.93907522883228
 30
0.0
  0
INSERT
  5
1834
  8
11
  2
STDGX5
 10
1608.241805261265
 20
257.93907495222942
 30
0.0
  0
INSERT
  5
1835
  8
11
  2
STDGX5
 10
1541.790948199676
 20
225.5877239818019
 30
0.0
  0
INSERT
  5
1836
  8
11
  2
STDGX5
 10
2355.7959532552532
 20
324.09641719538359
 30
0.0
  0
INSERT
  5
1837
  8
11
  2
STDGX5
 10
2393.28105187147
 20
288.09641691878062
 30
0.0
  0
INSERT
  5
1838
  8
11
  2
STDGX5
 10
2326.830194809881
 20
255.74506594835319
 30
0.0
  0
INSERT
  5
1839
  8
11
  2
STDGX5
 10
699.12030761987853
 20
116.21874120501801
 30
0.0
  0
INSERT
  5
183A
  8
11
  2
STDGX5
 10
736.60540623609495
 20
80.218740928415045
 30
0.0
  0
INSERT
  5
183B
  8
11
  2
STDGX5
 10
670.15454917450654
 20
47.867389957987591
 30
0.0
  0
INSERT
  5
183C
  8
11
  2
STDGX5
 10
1570.756706645049
 20
293.93907522883228
 30
0.0
  0
INSERT
  5
183D
  8
11
  2
STDGX5
 10
1608.241805261265
 20
257.93907495222942
 30
0.0
  0
INSERT
  5
183E
  8
11
  2
STDGX5
 10
1541.790948199676
 20
225.5877239818019
 30
0.0
  0
INSERT
  5
183F
  8
11
  2
STDGX5
 10
2355.7959532552532
 20
324.09641719538359
 30
0.0
  0
INSERT
  5
1840
  8
11
  2
STDGX5
 10
2393.28105187147
 20
288.09641691878062
 30
0.0
  0
INSERT
  5
1841
  8
11
  2
STDGX5
 10
2326.830194809881
 20
255.74506594835319
 30
0.0
  0
INSERT
  5
1842
  8
11
  2
STDGX5
 10
699.12030761987853
 20
116.21874120501801
 30
0.0
  0
INSERT
  5
1843
  8
11
  2
STDGX5
 10
736.60540623609495
 20
80.218740928415045
 30
0.0
  0
INSERT
  5
1844
  8
11
  2
STDGX5
 10
670.15454917450654
 20
47.867389957987591
 30
0.0
  0
INSERT
  5
1845
  8
11
  2
STDGX5
 10
1570.756706645049
 20
293.93907522883228
 30
0.0
  0
INSERT
  5
1846
  8
11
  2
STDGX5
 10
1608.241805261265
 20
257.93907495222942
 30
0.0
  0
INSERT
  5
1847
  8
11
  2
STDGX5
 10
1541.790948199676
 20
225.5877239818019
 30
0.0
  0
INSERT
  5
1848
  8
11
  2
STDGX5
 10
2355.7959532552532
 20
324.09641719538359
 30
0.0
  0
INSERT
  5
1849
  8
11
  2
STDGX5
 10
2393.28105187147
 20
288.09641691878062
 30
0.0
  0
INSERT
  5
184A
  8
11
  2
STDGX5
 10
2326.830194809881
 20
255.74506594835319
 30
0.0
  0
INSERT
  5
184B
  8
11
  2
STDGX5
 10
699.12030761987853
 20
116.21874120501801
 30
0.0
  0
INSERT
  5
184C
  8
11
  2
STDGX5
 10
736.60540623609495
 20
80.218740928415045
 30
0.0
  0
INSERT
  5
184D
  8
11
  2
STDGX5
 10
670.15454917450654
 20
47.867389957987591
 30
0.0
  0
INSERT
  5
184E
  8
11
  2
STDGX5
 10
1570.756706645049
 20
293.93907522883228
 30
0.0
  0
INSERT
  5
184F
  8
11
  2
STDGX5
 10
1608.241805261265
 20
257.93907495222942
 30
0.0
  0
INSERT
  5
1850
  8
11
  2
STDGX5
 10
1541.790948199676
 20
225.5877239818019
 30
0.0
  0
INSERT
  5
1851
  8
11
  2
STDGX5
 10
2355.7959532552532
 20
324.09641719538359
 30
0.0
  0
INSERT
  5
1852
  8
11
  2
STDGX5
 10
2393.28105187147
 20
288.09641691878062
 30
0.0
  0
INSERT
  5
1853
  8
11
  2
STDGX5
 10
2326.830194809881
 20
255.74506594835319
 30
0.0
  0
INSERT
  5
1A70
  8
11
  2
STDGX5
 10
414.74469390885127
 20
86.25951460214219
 30
0.0
  0
INSERT
  5
1A71
  8
11
  2
STDGX5
 10
452.22979252506769
 20
50.259514325539271
 30
0.0
  0
INSERT
  5
1A72
  8
11
  2
STDGX5
 10
385.77893546347929
 20
17.90816335511181
 30
0.0
  0
INSERT
  5
1A73
  8
11
  2
STDGX5
 10
1286.381092934022
 20
263.97984862595649
 30
0.0
  0
INSERT
  5
1A74
  8
11
  2
STDGX5
 10
1323.866191550238
 20
227.9798483493536
 30
0.0
  0
INSERT
  5
1A75
  8
11
  2
STDGX5
 10
1257.415334488649
 20
195.62849737892611
 30
0.0
  0
INSERT
  5
1A76
  8
11
  2
STDGX5
 10
2071.420339544226
 20
294.13719059250769
 30
0.0
  0
INSERT
  5
1A77
  8
11
  2
STDGX5
 10
2108.9054381604428
 20
258.13719031590477
 30
0.0
  0
INSERT
  5
1A78
  8
11
  2
STDGX5
 10
2042.4545810988541
 20
225.7858393454774
 30
0.0
  0
INSERT
  5
1A8B
  8
11
  2
STDGX5
 10
689.74469390885133
 20
111.25955780455909
 30
0.0
  0
INSERT
  5
1A8C
  8
11
  2
STDGX5
 10
727.22979252506775
 20
75.25955752795619
 30
0.0
  0
INSERT
  5
1A8D
  8
11
  2
STDGX5
 10
660.77893546347934
 20
42.908206557528729
 30
0.0
  0
INSERT
  5
1A8E
  8
11
  2
STDGX5
 10
1561.3810929340209
 20
288.97989182837341
 30
0.0
  0
INSERT
  5
1A8F
  8
11
  2
STDGX5
 10
1598.866191550238
 20
252.97989155177049
 30
0.0
  0
INSERT
  5
1A90
  8
11
  2
STDGX5
 10
1532.415334488649
 20
220.628540581343
 30
0.0
  0
INSERT
  5
1A91
  8
11
  2
STDGX5
 10
2346.420339544226
 20
319.13723379492473
 30
0.0
  0
INSERT
  5
1A92
  8
11
  2
STDGX5
 10
2383.9054381604419
 20
283.13723351832181
 30
0.0
  0
INSERT
  5
1A93
  8
11
  2
STDGX5
 10
2317.4545810988539
 20
250.78588254789429
 30
0.0
  0
INSERT
  5
1A94
  8
11
  2
STDGX5
 10
689.74469390885133
 20
111.25955780455909
 30
0.0
  0
INSERT
  5
1A95
  8
11
  2
STDGX5
 10
727.22979252506775
 20
75.25955752795619
 30
0.0
  0
INSERT
  5
1A96
  8
11
  2
STDGX5
 10
660.77893546347934
 20
42.908206557528729
 30
0.0
  0
INSERT
  5
1A97
  8
11
  2
STDGX5
 10
1561.3810929340209
 20
288.97989182837341
 30
0.0
  0
INSERT
  5
1A98
  8
11
  2
STDGX5
 10
1598.866191550238
 20
252.97989155177049
 30
0.0
  0
INSERT
  5
1A99
  8
11
  2
STDGX5
 10
1532.415334488649
 20
220.628540581343
 30
0.0
  0
INSERT
  5
1A9A
  8
11
  2
STDGX5
 10
2346.420339544226
 20
319.13723379492473
 30
0.0
  0
INSERT
  5
1A9B
  8
11
  2
STDGX5
 10
2383.9054381604419
 20
283.13723351832181
 30
0.0
  0
INSERT
  5
1A9C
  8
11
  2
STDGX5
 10
2317.4545810988539
 20
250.78588254789429
 30
0.0
  0
INSERT
  5
1A9D
  8
11
  2
STDGX5
 10
689.74469390885133
 20
111.25955780455909
 30
0.0
  0
INSERT
  5
1A9E
  8
11
  2
STDGX5
 10
727.22979252506775
 20
75.25955752795619
 30
0.0
  0
INSERT
  5
1A9F
  8
11
  2
STDGX5
 10
660.77893546347934
 20
42.908206557528729
 30
0.0
  0
INSERT
  5
1AA0
  8
11
  2
STDGX5
 10
1561.3810929340209
 20
288.97989182837341
 30
0.0
  0
INSERT
  5
1AA1
  8
11
  2
STDGX5
 10
1598.866191550238
 20
252.97989155177049
 30
0.0
  0
INSERT
  5
1AA2
  8
11
  2
STDGX5
 10
1532.415334488649
 20
220.628540581343
 30
0.0
  0
INSERT
  5
1AA3
  8
11
  2
STDGX5
 10
2346.420339544226
 20
319.13723379492473
 30
0.0
  0
INSERT
  5
1AA4
  8
11
  2
STDGX5
 10
2383.9054381604419
 20
283.13723351832181
 30
0.0
  0
INSERT
  5
1AA5
  8
11
  2
STDGX5
 10
2317.4545810988539
 20
250.78588254789429
 30
0.0
  0
INSERT
  5
1AA6
  8
11
  2
STDGX5
 10
689.74469390885133
 20
111.25955780455909
 30
0.0
  0
INSERT
  5
1AA7
  8
11
  2
STDGX5
 10
727.22979252506775
 20
75.25955752795619
 30
0.0
  0
INSERT
  5
1AA8
  8
11
  2
STDGX5
 10
660.77893546347934
 20
42.908206557528729
 30
0.0
  0
INSERT
  5
1AA9
  8
11
  2
STDGX5
 10
1561.3810929340209
 20
288.97989182837341
 30
0.0
  0
INSERT
  5
1AAA
  8
11
  2
STDGX5
 10
1598.866191550238
 20
252.97989155177049
 30
0.0
  0
INSERT
  5
1AAB
  8
11
  2
STDGX5
 10
1532.415334488649
 20
220.628540581343
 30
0.0
  0
INSERT
  5
1AAC
  8
11
  2
STDGX5
 10
2346.420339544226
 20
319.13723379492473
 30
0.0
  0
INSERT
  5
1AAD
  8
11
  2
STDGX5
 10
2383.9054381604419
 20
283.13723351832181
 30
0.0
  0
INSERT
  5
1AAE
  8
11
  2
STDGX5
 10
2317.4545810988539
 20
250.78588254789429
 30
0.0
  0
INSERT
  5
1AAF
  8
11
  2
STDGX5
 10
689.74469390885133
 20
111.25955780455909
 30
0.0
  0
INSERT
  5
1AB0
  8
11
  2
STDGX5
 10
727.22979252506775
 20
75.25955752795619
 30
0.0
  0
INSERT
  5
1AB1
  8
11
  2
STDGX5
 10
660.77893546347934
 20
42.908206557528729
 30
0.0
  0
INSERT
  5
1AB2
  8
11
  2
STDGX5
 10
1561.3810929340209
 20
288.97989182837341
 30
0.0
  0
INSERT
  5
1AB3
  8
11
  2
STDGX5
 10
1598.866191550238
 20
252.97989155177049
 30
0.0
  0
INSERT
  5
1AB4
  8
11
  2
STDGX5
 10
1532.415334488649
 20
220.628540581343
 30
0.0
  0
INSERT
  5
1AB5
  8
11
  2
STDGX5
 10
2346.420339544226
 20
319.13723379492473
 30
0.0
  0
INSERT
  5
1AB6
  8
11
  2
STDGX5
 10
2383.9054381604419
 20
283.13723351832181
 30
0.0
  0
INSERT
  5
1AB7
  8
11
  2
STDGX5
 10
2317.4545810988539
 20
250.78588254789429
 30
0.0
  0
INSERT
  5
1AB8
  8
11
  2
STDGX5
 10
689.74469390885133
 20
111.25955780455909
 30
0.0
  0
INSERT
  5
1AB9
  8
11
  2
STDGX5
 10
727.22979252506775
 20
75.25955752795619
 30
0.0
  0
INSERT
  5
1ABA
  8
11
  2
STDGX5
 10
660.77893546347934
 20
42.908206557528729
 30
0.0
  0
INSERT
  5
1ABB
  8
11
  2
STDGX5
 10
1561.3810929340209
 20
288.97989182837341
 30
0.0
  0
INSERT
  5
1ABC
  8
11
  2
STDGX5
 10
1598.866191550238
 20
252.97989155177049
 30
0.0
  0
INSERT
  5
1ABD
  8
11
  2
STDGX5
 10
1532.415334488649
 20
220.628540581343
 30
0.0
  0
INSERT
  5
1ABE
  8
11
  2
STDGX5
 10
2346.420339544226
 20
319.13723379492473
 30
0.0
  0
INSERT
  5
1ABF
  8
11
  2
STDGX5
 10
2383.9054381604419
 20
283.13723351832181
 30
0.0
  0
INSERT
  5
1AC0
  8
11
  2
STDGX5
 10
2317.4545810988539
 20
250.78588254789429
 30
0.0
  0
INSERT
  5
1AC1
  8
11
  2
STDGX5
 10
689.74469390885133
 20
111.25955780455909
 30
0.0
  0
INSERT
  5
1AC2
  8
11
  2
STDGX5
 10
727.22979252506775
 20
75.25955752795619
 30
0.0
  0
INSERT
  5
1AC3
  8
11
  2
STDGX5
 10
660.77893546347934
 20
42.908206557528729
 30
0.0
  0
INSERT
  5
1AC4
  8
11
  2
STDGX5
 10
1561.3810929340209
 20
288.97989182837341
 30
0.0
  0
INSERT
  5
1AC5
  8
11
  2
STDGX5
 10
1598.866191550238
 20
252.97989155177049
 30
0.0
  0
INSERT
  5
1AC6
  8
11
  2
STDGX5
 10
1532.415334488649
 20
220.628540581343
 30
0.0
  0
INSERT
  5
1AC7
  8
11
  2
STDGX5
 10
2346.420339544226
 20
319.13723379492473
 30
0.0
  0
INSERT
  5
1AC8
  8
11
  2
STDGX5
 10
2383.9054381604419
 20
283.13723351832181
 30
0.0
  0
INSERT
  5
1AC9
  8
11
  2
STDGX5
 10
2317.4545810988539
 20
250.78588254789429
 30
0.0
  0
INSERT
  5
1ACA
  8
11
  2
STDGX5
 10
689.74469390885133
 20
111.25955780455909
 30
0.0
  0
INSERT
  5
1ACB
  8
11
  2
STDGX5
 10
727.22979252506775
 20
75.25955752795619
 30
0.0
  0
INSERT
  5
1ACC
  8
11
  2
STDGX5
 10
660.77893546347934
 20
42.908206557528729
 30
0.0
  0
INSERT
  5
1AE5
  8
11
  2
STDGX5
 10
1561.3810929340209
 20
288.97989182837341
 30
0.0
  0
INSERT
  5
1AE6
  8
11
  2
STDGX5
 10
1598.866191550238
 20
252.97989155177049
 30
0.0
  0
INSERT
  5
1AE7
  8
11
  2
STDGX5
 10
1532.415334488649
 20
220.628540581343
 30
0.0
  0
INSERT
  5
1AE8
  8
11
  2
STDGX5
 10
2346.420339544226
 20
319.13723379492473
 30
0.0
  0
INSERT
  5
1AE9
  8
11
  2
STDGX5
 10
2383.9054381604419
 20
283.13723351832181
 30
0.0
  0
INSERT
  5
1AEA
  8
11
  2
STDGX5
 10
2317.4545810988539
 20
250.78588254789429
 30
0.0
  0
INSERT
  5
1AEB
  8
11
  2
STDGX5
 10
788.47737378384295
 20
175.12634756651471
 30
0.0
  0
INSERT
  5
1AEC
  8
11
  2
STDGX5
 10
825.96247240005948
 20
139.12634728991179
 30
0.0
  0
INSERT
  5
1AED
  8
11
  2
STDGX5
 10
759.51161533847107
 20
106.7749963194843
 30
0.0
  0
INSERT
  5
1AEE
  8
11
  2
STDGX5
 10
1660.113772809013
 20
352.84668159032901
 30
0.0
  0
INSERT
  5
1AEF
  8
11
  2
STDGX5
 10
1697.5988714252301
 20
316.84668131372609
 30
0.0
  0
INSERT
  5
1AF0
  8
11
  2
STDGX5
 10
1631.1480143636411
 20
284.49533034329869
 30
0.0
  0
INSERT
  5
1AF1
  8
11
  2
STDGX5
 10
2445.1530194192178
 20
383.00402355688033
 30
0.0
  0
INSERT
  5
1AF2
  8
11
  2
STDGX5
 10
2482.6381180354342
 20
347.00402328027729
 30
0.0
  0
INSERT
  5
1AF3
  8
11
  2
STDGX5
 10
2416.1872609738462
 20
314.65267230984989
 30
0.0
  0
INSERT
  5
1AF4
  8
11
  2
STDGX5
 10
1063.4773737838429
 20
200.1263907689316
 30
0.0
  0
INSERT
  5
1AF5
  8
11
  2
STDGX5
 10
1100.9624724000589
 20
164.12639049232871
 30
0.0
  0
INSERT
  5
1AF6
  8
11
  2
STDGX5
 10
1034.5116153384711
 20
131.77503952190119
 30
0.0
  0
INSERT
  5
1AF7
  8
11
  2
STDGX5
 10
1935.113772809013
 20
377.84672479274587
 30
0.0
  0
INSERT
  5
1AF8
  8
11
  2
STDGX5
 10
1972.5988714252301
 20
341.84672451614301
 30
0.0
  0
INSERT
  5
1AF9
  8
11
  2
STDGX5
 10
1906.1480143636411
 20
309.49537354571549
 30
0.0
  0
INSERT
  5
1AFA
  8
11
  2
STDGX5
 10
2720.1530194192178
 20
408.00406675929719
 30
0.0
  0
INSERT
  5
1AFB
  8
11
  2
STDGX5
 10
2757.6381180354342
 20
372.00406648269433
 30
0.0
  0
INSERT
  5
1AFC
  8
11
  2
STDGX5
 10
2691.1872609738462
 20
339.65271551226681
 30
0.0
  0
INSERT
  5
1D4E
  8
11
  2
STDGX5
 10
418.0537336514937
 20
90.116657107245146
 30
0.0
  0
INSERT
  5
1D4F
  8
11
  2
STDGX5
 10
455.53883226771012
 20
54.116656830642228
 30
0.0
  0
INSERT
  5
1D50
  8
11
  2
STDGX5
 10
389.08797520612183
 20
21.76530586021477
 30
0.0
  0
INSERT
  5
1D51
  8
11
  2
STDGX5
 10
1289.690132676664
 20
267.83699113105939
 30
0.0
  0
INSERT
  5
1D52
  8
11
  2
STDGX5
 10
1327.17523129288
 20
231.8369908544565
 30
0.0
  0
INSERT
  5
1D53
  8
11
  2
STDGX5
 10
1260.7243742312919
 20
199.48563988402901
 30
0.0
  0
INSERT
  5
1D54
  8
11
  2
STDGX5
 10
2074.7293792868691
 20
297.99433309761071
 30
0.0
  0
INSERT
  5
1D55
  8
11
  2
STDGX5
 10
2112.214477903085
 20
261.99433282100779
 30
0.0
  0
INSERT
  5
1D56
  8
11
  2
STDGX5
 10
2045.763620841496
 20
229.6429818505803
 30
0.0
  0
INSERT
  5
1D69
  8
11
  2
STDGX5
 10
693.05373365149364
 20
115.11670030966199
 30
0.0
  0
INSERT
  5
1D6A
  8
11
  2
STDGX5
 10
730.53883226771006
 20
79.116700033059146
 30
0.0
  0
INSERT
  5
1D6B
  8
11
  2
STDGX5
 10
664.08797520612165
 20
46.765349062631678
 30
0.0
  0
INSERT
  5
1D6C
  8
11
  2
STDGX5
 10
1564.690132676664
 20
292.83703433347642
 30
0.0
  0
INSERT
  5
1D6D
  8
11
  2
STDGX5
 10
1602.17523129288
 20
256.83703405687339
 30
0.0
  0
INSERT
  5
1D6E
  8
11
  2
STDGX5
 10
1535.7243742312919
 20
224.48568308644599
 30
0.0
  0
INSERT
  5
1D6F
  8
11
  2
STDGX5
 10
2349.7293792868682
 20
322.99437630002762
 30
0.0
  0
INSERT
  5
1D70
  8
11
  2
STDGX5
 10
2387.214477903085
 20
286.99437602342471
 30
0.0
  0
INSERT
  5
1D71
  8
11
  2
STDGX5
 10
2320.763620841496
 20
254.64302505299719
 30
0.0
  0
INSERT
  5
1D72
  8
11
  2
STDGX5
 10
693.05373365149364
 20
115.11670030966199
 30
0.0
  0
INSERT
  5
1D73
  8
11
  2
STDGX5
 10
730.53883226771006
 20
79.116700033059146
 30
0.0
  0
INSERT
  5
1D74
  8
11
  2
STDGX5
 10
664.08797520612165
 20
46.765349062631678
 30
0.0
  0
INSERT
  5
1D75
  8
11
  2
STDGX5
 10
1564.690132676664
 20
292.83703433347642
 30
0.0
  0
INSERT
  5
1D76
  8
11
  2
STDGX5
 10
1602.17523129288
 20
256.83703405687339
 30
0.0
  0
INSERT
  5
1D77
  8
11
  2
STDGX5
 10
1535.7243742312919
 20
224.48568308644599
 30
0.0
  0
INSERT
  5
1D78
  8
11
  2
STDGX5
 10
2349.7293792868682
 20
322.99437630002762
 30
0.0
  0
INSERT
  5
1D79
  8
11
  2
STDGX5
 10
2387.214477903085
 20
286.99437602342471
 30
0.0
  0
INSERT
  5
1D7A
  8
11
  2
STDGX5
 10
2320.763620841496
 20
254.64302505299719
 30
0.0
  0
INSERT
  5
1D7B
  8
11
  2
STDGX5
 10
693.05373365149364
 20
115.11670030966199
 30
0.0
  0
INSERT
  5
1D7C
  8
11
  2
STDGX5
 10
730.53883226771006
 20
79.116700033059146
 30
0.0
  0
INSERT
  5
1D7D
  8
11
  2
STDGX5
 10
664.08797520612165
 20
46.765349062631678
 30
0.0
  0
INSERT
  5
1D7E
  8
11
  2
STDGX5
 10
1564.690132676664
 20
292.83703433347642
 30
0.0
  0
INSERT
  5
1D7F
  8
11
  2
STDGX5
 10
1602.17523129288
 20
256.83703405687339
 30
0.0
  0
INSERT
  5
1D80
  8
11
  2
STDGX5
 10
1535.7243742312919
 20
224.48568308644599
 30
0.0
  0
INSERT
  5
1D81
  8
11
  2
STDGX5
 10
2349.7293792868682
 20
322.99437630002762
 30
0.0
  0
INSERT
  5
1D82
  8
11
  2
STDGX5
 10
2387.214477903085
 20
286.99437602342471
 30
0.0
  0
INSERT
  5
1D83
  8
11
  2
STDGX5
 10
2320.763620841496
 20
254.64302505299719
 30
0.0
  0
INSERT
  5
1D84
  8
11
  2
STDGX5
 10
693.05373365149364
 20
115.11670030966199
 30
0.0
  0
INSERT
  5
1D85
  8
11
  2
STDGX5
 10
730.53883226771006
 20
79.116700033059146
 30
0.0
  0
INSERT
  5
1D86
  8
11
  2
STDGX5
 10
664.08797520612165
 20
46.765349062631678
 30
0.0
  0
INSERT
  5
1D87
  8
11
  2
STDGX5
 10
1564.690132676664
 20
292.83703433347642
 30
0.0
  0
INSERT
  5
1D88
  8
11
  2
STDGX5
 10
1602.17523129288
 20
256.83703405687339
 30
0.0
  0
INSERT
  5
1D89
  8
11
  2
STDGX5
 10
1535.7243742312919
 20
224.48568308644599
 30
0.0
  0
INSERT
  5
1D8A
  8
11
  2
STDGX5
 10
2349.7293792868682
 20
322.99437630002762
 30
0.0
  0
INSERT
  5
1D8B
  8
11
  2
STDGX5
 10
2387.214477903085
 20
286.99437602342471
 30
0.0
  0
INSERT
  5
1D8C
  8
11
  2
STDGX5
 10
2320.763620841496
 20
254.64302505299719
 30
0.0
  0
INSERT
  5
1D8D
  8
11
  2
STDGX5
 10
693.05373365149364
 20
115.11670030966199
 30
0.0
  0
INSERT
  5
1D8E
  8
11
  2
STDGX5
 10
730.53883226771006
 20
79.116700033059146
 30
0.0
  0
INSERT
  5
1D8F
  8
11
  2
STDGX5
 10
664.08797520612165
 20
46.765349062631678
 30
0.0
  0
INSERT
  5
1D90
  8
11
  2
STDGX5
 10
1564.690132676664
 20
292.83703433347642
 30
0.0
  0
INSERT
  5
1D91
  8
11
  2
STDGX5
 10
1602.17523129288
 20
256.83703405687339
 30
0.0
  0
INSERT
  5
1D92
  8
11
  2
STDGX5
 10
1535.7243742312919
 20
224.48568308644599
 30
0.0
  0
INSERT
  5
1D93
  8
11
  2
STDGX5
 10
2349.7293792868682
 20
322.99437630002762
 30
0.0
  0
INSERT
  5
1D94
  8
11
  2
STDGX5
 10
2387.214477903085
 20
286.99437602342471
 30
0.0
  0
INSERT
  5
1D95
  8
11
  2
STDGX5
 10
2320.763620841496
 20
254.64302505299719
 30
0.0
  0
INSERT
  5
1D96
  8
11
  2
STDGX5
 10
693.05373365149364
 20
115.11670030966199
 30
0.0
  0
INSERT
  5
1D97
  8
11
  2
STDGX5
 10
730.53883226771006
 20
79.116700033059146
 30
0.0
  0
INSERT
  5
1D98
  8
11
  2
STDGX5
 10
664.08797520612165
 20
46.765349062631678
 30
0.0
  0
INSERT
  5
1D99
  8
11
  2
STDGX5
 10
1564.690132676664
 20
292.83703433347642
 30
0.0
  0
INSERT
  5
1D9A
  8
11
  2
STDGX5
 10
1602.17523129288
 20
256.83703405687339
 30
0.0
  0
INSERT
  5
1D9B
  8
11
  2
STDGX5
 10
1535.7243742312919
 20
224.48568308644599
 30
0.0
  0
INSERT
  5
1D9C
  8
11
  2
STDGX5
 10
2349.7293792868682
 20
322.99437630002762
 30
0.0
  0
INSERT
  5
1D9D
  8
11
  2
STDGX5
 10
2387.214477903085
 20
286.99437602342471
 30
0.0
  0
INSERT
  5
1D9E
  8
11
  2
STDGX5
 10
2320.763620841496
 20
254.64302505299719
 30
0.0
  0
INSERT
  5
1D9F
  8
11
  2
STDGX5
 10
693.05373365149364
 20
115.11670030966199
 30
0.0
  0
INSERT
  5
1DA0
  8
11
  2
STDGX5
 10
730.53883226771006
 20
79.116700033059146
 30
0.0
  0
INSERT
  5
1DA1
  8
11
  2
STDGX5
 10
664.08797520612165
 20
46.765349062631678
 30
0.0
  0
INSERT
  5
1DA2
  8
11
  2
STDGX5
 10
1564.690132676664
 20
292.83703433347642
 30
0.0
  0
INSERT
  5
1DA3
  8
11
  2
STDGX5
 10
1602.17523129288
 20
256.83703405687339
 30
0.0
  0
INSERT
  5
1DA4
  8
11
  2
STDGX5
 10
1535.7243742312919
 20
224.48568308644599
 30
0.0
  0
INSERT
  5
1DA5
  8
11
  2
STDGX5
 10
2349.7293792868682
 20
322.99437630002762
 30
0.0
  0
INSERT
  5
1DA6
  8
11
  2
STDGX5
 10
2387.214477903085
 20
286.99437602342471
 30
0.0
  0
INSERT
  5
1DA7
  8
11
  2
STDGX5
 10
2320.763620841496
 20
254.64302505299719
 30
0.0
  0
INSERT
  5
1DA8
  8
11
  2
STDGX5
 10
693.05373365149364
 20
115.11670030966199
 30
0.0
  0
INSERT
  5
1DA9
  8
11
  2
STDGX5
 10
730.53883226771006
 20
79.116700033059146
 30
0.0
  0
INSERT
  5
1DAA
  8
11
  2
STDGX5
 10
664.08797520612165
 20
46.765349062631678
 30
0.0
  0
INSERT
  5
1DAB
  8
11
  2
STDGX5
 10
1564.690132676664
 20
292.83703433347642
 30
0.0
  0
INSERT
  5
1DAC
  8
11
  2
STDGX5
 10
1602.17523129288
 20
256.83703405687339
 30
0.0
  0
INSERT
  5
1DAD
  8
11
  2
STDGX5
 10
1535.7243742312919
 20
224.48568308644599
 30
0.0
  0
INSERT
  5
1DAE
  8
11
  2
STDGX5
 10
2349.7293792868682
 20
322.99437630002762
 30
0.0
  0
INSERT
  5
1DAF
  8
11
  2
STDGX5
 10
2387.214477903085
 20
286.99437602342471
 30
0.0
  0
INSERT
  5
1DB0
  8
11
  2
STDGX5
 10
2320.763620841496
 20
254.64302505299719
 30
0.0
  0
INSERT
  5
1DB1
  8
11
  2
STDGX5
 10
791.78641352648549
 20
178.98349007161761
 30
0.0
  0
INSERT
  5
1DB2
  8
11
  2
STDGX5
 10
829.27151214270179
 20
142.98348979501469
 30
0.0
  0
INSERT
  5
1DB3
  8
11
  2
STDGX5
 10
762.82065508111339
 20
110.6321388245873
 30
0.0
  0
INSERT
  5
1DB4
  8
11
  2
STDGX5
 10
1663.4228125516561
 20
356.70382409543203
 30
0.0
  0
INSERT
  5
1DB5
  8
11
  2
STDGX5
 10
1700.907911167872
 20
320.70382381882911
 30
0.0
  0
INSERT
  5
1DB6
  8
11
  2
STDGX5
 10
1634.457054106284
 20
288.35247284840159
 30
0.0
  0
INSERT
  5
1DB7
  8
11
  2
STDGX5
 10
2448.46205916186
 20
386.86116606198323
 30
0.0
  0
INSERT
  5
1DB8
  8
11
  2
STDGX5
 10
2485.9471577780769
 20
350.86116578538031
 30
0.0
  0
INSERT
  5
1DB9
  8
11
  2
STDGX5
 10
2419.4963007164888
 20
318.5098148149529
 30
0.0
  0
INSERT
  5
1DBA
  8
11
  2
STDGX5
 10
1066.7864135264849
 20
203.98353327403461
 30
0.0
  0
INSERT
  5
1DBB
  8
11
  2
STDGX5
 10
1104.271512142702
 20
167.98353299743161
 30
0.0
  0
INSERT
  5
1DBC
  8
11
  2
STDGX5
 10
1037.820655081113
 20
135.63218202700421
 30
0.0
  0
INSERT
  5
1DBD
  8
11
  2
STDGX5
 10
1938.4228125516561
 20
381.70386729784889
 30
0.0
  0
INSERT
  5
1DBE
  8
11
  2
STDGX5
 10
1975.907911167873
 20
345.70386702124603
 30
0.0
  0
INSERT
  5
1DBF
  8
11
  2
STDGX5
 10
1909.457054106284
 20
313.35251605081851
 30
0.0
  0
INSERT
  5
1DC0
  8
11
  2
STDGX5
 10
2723.4620591618609
 20
411.86120926440009
 30
0.0
  0
INSERT
  5
1DC1
  8
11
  2
STDGX5
 10
2760.9471577780769
 20
375.86120898779723
 30
0.0
  0
INSERT
  5
1DC2
  8
11
  2
STDGX5
 10
2694.4963007164888
 20
343.50985801736971
 30
0.0
  0
INSERT
  5
1DC5
  8
11
  2
STDGX5
 10
693.05373365149364
 20
265.11665710724509
 30
0.0
  0
INSERT
  5
1DC6
  8
11
  2
STDGX5
 10
730.53883226771006
 20
229.1166568306422
 30
0.0
  0
INSERT
  5
1DC7
  8
11
  2
STDGX5
 10
664.08797520612165
 20
196.76530586021471
 30
0.0
  0
INSERT
  5
1DC8
  8
11
  2
STDGX5
 10
1564.690132676664
 20
442.83699113105939
 30
0.0
  0
INSERT
  5
1DC9
  8
11
  2
STDGX5
 10
1602.17523129288
 20
406.83699085445647
 30
0.0
  0
INSERT
  5
1DCA
  8
11
  2
STDGX5
 10
1535.7243742312919
 20
374.48563988402913
 30
0.0
  0
INSERT
  5
1DCB
  8
11
  2
STDGX5
 10
2349.7293792868682
 20
472.99433309761071
 30
0.0
  0
INSERT
  5
1DCC
  8
11
  2
STDGX5
 10
2387.214477903085
 20
436.99433282100767
 30
0.0
  0
INSERT
  5
1DCD
  8
11
  2
STDGX5
 10
2320.763620841496
 20
404.64298185058033
 30
0.0
  0
INSERT
  5
1DCE
  8
11
  2
STDGX5
 10
968.05373365149364
 20
290.11670030966212
 30
0.0
  0
INSERT
  5
1DCF
  8
11
  2
STDGX5
 10
1005.5388322677099
 20
254.1167000330592
 30
0.0
  0
INSERT
  5
1DD0
  8
11
  2
STDGX5
 10
939.08797520612177
 20
221.76534906263171
 30
0.0
  0
INSERT
  5
1DD1
  8
11
  2
STDGX5
 10
1839.690132676664
 20
467.83703433347631
 30
0.0
  0
INSERT
  5
1DD2
  8
11
  2
STDGX5
 10
1877.1752312928811
 20
431.83703405687339
 30
0.0
  0
INSERT
  5
1DD3
  8
11
  2
STDGX5
 10
1810.7243742312919
 20
399.48568308644599
 30
0.0
  0
INSERT
  5
1DD4
  8
11
  2
STDGX5
 10
2624.7293792868691
 20
497.99437630002762
 30
0.0
  0
INSERT
  5
1DD5
  8
11
  2
STDGX5
 10
2662.214477903085
 20
461.99437602342471
 30
0.0
  0
INSERT
  5
1DD6
  8
11
  2
STDGX5
 10
2595.763620841497
 20
429.64302505299719
 30
0.0
  0
INSERT
  5
1DD7
  8
11
  2
STDGX5
 10
968.05373365149364
 20
290.11670030966212
 30
0.0
  0
INSERT
  5
1DD8
  8
11
  2
STDGX5
 10
1005.5388322677099
 20
254.1167000330592
 30
0.0
  0
INSERT
  5
1DD9
  8
11
  2
STDGX5
 10
939.08797520612177
 20
221.76534906263171
 30
0.0
  0
INSERT
  5
1DDA
  8
11
  2
STDGX5
 10
1839.690132676664
 20
467.83703433347631
 30
0.0
  0
INSERT
  5
1DDB
  8
11
  2
STDGX5
 10
1877.1752312928811
 20
431.83703405687339
 30
0.0
  0
INSERT
  5
1DDC
  8
11
  2
STDGX5
 10
1810.7243742312919
 20
399.48568308644599
 30
0.0
  0
INSERT
  5
1DDD
  8
11
  2
STDGX5
 10
2624.7293792868691
 20
497.99437630002762
 30
0.0
  0
INSERT
  5
1DDE
  8
11
  2
STDGX5
 10
2662.214477903085
 20
461.99437602342471
 30
0.0
  0
INSERT
  5
1DDF
  8
11
  2
STDGX5
 10
2595.763620841497
 20
429.64302505299719
 30
0.0
  0
INSERT
  5
1DE0
  8
11
  2
STDGX5
 10
968.05373365149364
 20
290.11670030966212
 30
0.0
  0
INSERT
  5
1DE1
  8
11
  2
STDGX5
 10
1005.5388322677099
 20
254.1167000330592
 30
0.0
  0
INSERT
  5
1DE2
  8
11
  2
STDGX5
 10
939.08797520612177
 20
221.76534906263171
 30
0.0
  0
INSERT
  5
1DE3
  8
11
  2
STDGX5
 10
1839.690132676664
 20
467.83703433347631
 30
0.0
  0
INSERT
  5
1DE4
  8
11
  2
STDGX5
 10
1877.1752312928811
 20
431.83703405687339
 30
0.0
  0
INSERT
  5
1DE5
  8
11
  2
STDGX5
 10
1810.7243742312919
 20
399.48568308644599
 30
0.0
  0
INSERT
  5
1DE6
  8
11
  2
STDGX5
 10
2624.7293792868691
 20
497.99437630002762
 30
0.0
  0
INSERT
  5
1DE7
  8
11
  2
STDGX5
 10
2662.214477903085
 20
461.99437602342471
 30
0.0
  0
INSERT
  5
1DE8
  8
11
  2
STDGX5
 10
2595.763620841497
 20
429.64302505299719
 30
0.0
  0
INSERT
  5
1DE9
  8
11
  2
STDGX5
 10
968.05373365149364
 20
290.11670030966212
 30
0.0
  0
INSERT
  5
1DEA
  8
11
  2
STDGX5
 10
1005.5388322677099
 20
254.1167000330592
 30
0.0
  0
INSERT
  5
1DEB
  8
11
  2
STDGX5
 10
939.08797520612177
 20
221.76534906263171
 30
0.0
  0
INSERT
  5
1DEC
  8
11
  2
STDGX5
 10
1839.690132676664
 20
467.83703433347631
 30
0.0
  0
INSERT
  5
1DED
  8
11
  2
STDGX5
 10
1877.1752312928811
 20
431.83703405687339
 30
0.0
  0
INSERT
  5
1DEE
  8
11
  2
STDGX5
 10
1810.7243742312919
 20
399.48568308644599
 30
0.0
  0
INSERT
  5
1DEF
  8
11
  2
STDGX5
 10
2624.7293792868691
 20
497.99437630002762
 30
0.0
  0
INSERT
  5
1DF0
  8
11
  2
STDGX5
 10
2662.214477903085
 20
461.99437602342471
 30
0.0
  0
INSERT
  5
1DF1
  8
11
  2
STDGX5
 10
2595.763620841497
 20
429.64302505299719
 30
0.0
  0
INSERT
  5
1DF2
  8
11
  2
STDGX5
 10
968.05373365149364
 20
290.11670030966212
 30
0.0
  0
INSERT
  5
1DF3
  8
11
  2
STDGX5
 10
1005.5388322677099
 20
254.1167000330592
 30
0.0
  0
INSERT
  5
1DF4
  8
11
  2
STDGX5
 10
939.08797520612177
 20
221.76534906263171
 30
0.0
  0
INSERT
  5
1DF5
  8
11
  2
STDGX5
 10
1839.690132676664
 20
467.83703433347631
 30
0.0
  0
INSERT
  5
1DF6
  8
11
  2
STDGX5
 10
1877.1752312928811
 20
431.83703405687339
 30
0.0
  0
INSERT
  5
1DF7
  8
11
  2
STDGX5
 10
1810.7243742312919
 20
399.48568308644599
 30
0.0
  0
INSERT
  5
1DF8
  8
11
  2
STDGX5
 10
2624.7293792868691
 20
497.99437630002762
 30
0.0
  0
INSERT
  5
1DF9
  8
11
  2
STDGX5
 10
2662.214477903085
 20
461.99437602342471
 30
0.0
  0
INSERT
  5
1DFA
  8
11
  2
STDGX5
 10
2595.763620841497
 20
429.64302505299719
 30
0.0
  0
INSERT
  5
1DFB
  8
11
  2
STDGX5
 10
968.05373365149364
 20
290.11670030966212
 30
0.0
  0
INSERT
  5
1DFC
  8
11
  2
STDGX5
 10
1005.5388322677099
 20
254.1167000330592
 30
0.0
  0
INSERT
  5
1DFD
  8
11
  2
STDGX5
 10
939.08797520612177
 20
221.76534906263171
 30
0.0
  0
INSERT
  5
1DFE
  8
11
  2
STDGX5
 10
1839.690132676664
 20
467.83703433347631
 30
0.0
  0
INSERT
  5
1DFF
  8
11
  2
STDGX5
 10
1877.1752312928811
 20
431.83703405687339
 30
0.0
  0
INSERT
  5
1E00
  8
11
  2
STDGX5
 10
1810.7243742312919
 20
399.48568308644599
 30
0.0
  0
INSERT
  5
1E01
  8
11
  2
STDGX5
 10
2624.7293792868691
 20
497.99437630002762
 30
0.0
  0
INSERT
  5
1E02
  8
11
  2
STDGX5
 10
2662.214477903085
 20
461.99437602342471
 30
0.0
  0
INSERT
  5
1E03
  8
11
  2
STDGX5
 10
2595.763620841497
 20
429.64302505299719
 30
0.0
  0
INSERT
  5
1E04
  8
11
  2
STDGX5
 10
968.05373365149364
 20
290.11670030966212
 30
0.0
  0
INSERT
  5
1E05
  8
11
  2
STDGX5
 10
1005.5388322677099
 20
254.1167000330592
 30
0.0
  0
INSERT
  5
1E06
  8
11
  2
STDGX5
 10
939.08797520612177
 20
221.76534906263171
 30
0.0
  0
INSERT
  5
1E07
  8
11
  2
STDGX5
 10
1839.690132676664
 20
467.83703433347631
 30
0.0
  0
INSERT
  5
1E08
  8
11
  2
STDGX5
 10
1877.1752312928811
 20
431.83703405687339
 30
0.0
  0
INSERT
  5
1E09
  8
11
  2
STDGX5
 10
1810.7243742312919
 20
399.48568308644599
 30
0.0
  0
INSERT
  5
1E0A
  8
11
  2
STDGX5
 10
2624.7293792868691
 20
497.99437630002762
 30
0.0
  0
INSERT
  5
1E0B
  8
11
  2
STDGX5
 10
2662.214477903085
 20
461.99437602342471
 30
0.0
  0
INSERT
  5
1E0C
  8
11
  2
STDGX5
 10
2595.763620841497
 20
429.64302505299719
 30
0.0
  0
INSERT
  5
1E0D
  8
11
  2
STDGX5
 10
968.05373365149364
 20
290.11670030966212
 30
0.0
  0
INSERT
  5
1E0E
  8
11
  2
STDGX5
 10
1005.5388322677099
 20
254.1167000330592
 30
0.0
  0
INSERT
  5
1E0F
  8
11
  2
STDGX5
 10
939.08797520612177
 20
221.76534906263171
 30
0.0
  0
INSERT
  5
1E28
  8
11
  2
STDGX5
 10
1839.690132676664
 20
467.83703433347631
 30
0.0
  0
INSERT
  5
1E29
  8
11
  2
STDGX5
 10
1877.1752312928811
 20
431.83703405687339
 30
0.0
  0
INSERT
  5
1E2A
  8
11
  2
STDGX5
 10
1810.7243742312919
 20
399.48568308644599
 30
0.0
  0
INSERT
  5
1E2B
  8
11
  2
STDGX5
 10
2624.7293792868691
 20
497.99437630002762
 30
0.0
  0
INSERT
  5
1E2C
  8
11
  2
STDGX5
 10
2662.214477903085
 20
461.99437602342471
 30
0.0
  0
INSERT
  5
1E2D
  8
11
  2
STDGX5
 10
2595.763620841497
 20
429.64302505299719
 30
0.0
  0
INSERT
  5
1E2E
  8
11
  2
STDGX5
 10
1066.7864135264849
 20
353.98349007161772
 30
0.0
  0
INSERT
  5
1E2F
  8
11
  2
STDGX5
 10
1104.271512142702
 20
317.9834897950148
 30
0.0
  0
INSERT
  5
1E30
  8
11
  2
STDGX5
 10
1037.820655081113
 20
285.63213882458729
 30
0.0
  0
INSERT
  5
1E31
  8
11
  2
STDGX5
 10
1938.4228125516561
 20
531.70382409543186
 30
0.0
  0
INSERT
  5
1E32
  8
11
  2
STDGX5
 10
1975.907911167872
 20
495.70382381882899
 30
0.0
  0
INSERT
  5
1E33
  8
11
  2
STDGX5
 10
1909.457054106284
 20
463.35247284840148
 30
0.0
  0
INSERT
  5
1E34
  8
11
  2
STDGX5
 10
2723.4620591618609
 20
561.86116606198323
 30
0.0
  0
INSERT
  5
1E35
  8
11
  2
STDGX5
 10
2760.9471577780769
 20
525.86116578538031
 30
0.0
  0
INSERT
  5
1E36
  8
11
  2
STDGX5
 10
2694.4963007164888
 20
493.50981481495279
 30
0.0
  0
INSERT
  5
1E37
  8
11
  2
STDGX5
 10
1341.7864135264849
 20
378.98353327403458
 30
0.0
  0
INSERT
  5
1E38
  8
11
  2
STDGX5
 10
1379.271512142702
 20
342.98353299743172
 30
0.0
  0
INSERT
  5
1E39
  8
11
  2
STDGX5
 10
1312.820655081113
 20
310.63218202700421
 30
0.0
  0
INSERT
  5
1E3A
  8
11
  2
STDGX5
 10
2213.4228125516561
 20
556.70386729784889
 30
0.0
  0
INSERT
  5
1E3B
  8
11
  2
STDGX5
 10
2250.907911167873
 20
520.70386702124586
 30
0.0
  0
INSERT
  5
1E3C
  8
11
  2
STDGX5
 10
2184.457054106284
 20
488.35251605081851
 30
0.0
  0
INSERT
  5
1E3D
  8
11
  2
STDGX5
 10
2998.4620591618609
 20
586.86120926440015
 30
0.0
  0
INSERT
  5
1E3E
  8
11
  2
STDGX5
 10
3035.9471577780769
 20
550.86120898779723
 30
0.0
  0
INSERT
  5
1E3F
  8
11
  2
STDGX5
 10
2969.4963007164888
 20
518.50985801736965
 30
0.0
  0
INSERT
  5
207C
  8
11
  2
STDGX5
 10
419.7082535228148
 20
84.606453259108321
 30
0.0
  0
INSERT
  5
207D
  8
11
  2
STDGX5
 10
457.19335213903122
 20
48.606452982505402
 30
0.0
  0
INSERT
  5
207E
  8
11
  2
STDGX5
 10
390.74249507744292
 20
16.255102012077941
 30
0.0
  0
INSERT
  5
207F
  8
11
  2
STDGX5
 10
1291.3446525479851
 20
262.32678728292262
 30
0.0
  0
INSERT
  5
2080
  8
11
  2
STDGX5
 10
1328.8297511642011
 20
226.32678700631971
 30
0.0
  0
INSERT
  5
2081
  8
11
  2
STDGX5
 10
1262.378894102613
 20
193.97543603589219
 30
0.0
  0
INSERT
  5
2082
  8
11
  2
STDGX5
 10
2076.3838991581902
 20
292.48412924947388
 30
0.0
  0
INSERT
  5
2083
  8
11
  2
STDGX5
 10
2113.8689977744061
 20
256.48412897287102
 30
0.0
  0
INSERT
  5
2084
  8
11
  2
STDGX5
 10
2047.4181407128181
 20
224.1327780024435
 30
0.0
  0
INSERT
  5
2097
  8
11
  2
STDGX5
 10
694.70825352281474
 20
109.6064964615252
 30
0.0
  0
INSERT
  5
2098
  8
11
  2
STDGX5
 10
732.19335213903116
 20
73.606496184922321
 30
0.0
  0
INSERT
  5
2099
  8
11
  2
STDGX5
 10
665.74249507744275
 20
41.25514521449486
 30
0.0
  0
INSERT
  5
209A
  8
11
  2
STDGX5
 10
1566.3446525479851
 20
287.32683048533949
 30
0.0
  0
INSERT
  5
209B
  8
11
  2
STDGX5
 10
1603.829751164202
 20
251.3268302087366
 30
0.0
  0
INSERT
  5
209C
  8
11
  2
STDGX5
 10
1537.378894102613
 20
218.97547923830919
 30
0.0
  0
INSERT
  5
209D
  8
11
  2
STDGX5
 10
2351.3838991581902
 20
317.4841724518908
 30
0.0
  0
INSERT
  5
209E
  8
11
  2
STDGX5
 10
2388.8689977744061
 20
281.48417217528788
 30
0.0
  0
INSERT
  5
209F
  8
11
  2
STDGX5
 10
2322.4181407128181
 20
249.13282120486039
 30
0.0
  0
INSERT
  5
20A0
  8
11
  2
STDGX5
 10
694.70825352281474
 20
109.6064964615252
 30
0.0
  0
INSERT
  5
20A1
  8
11
  2
STDGX5
 10
732.19335213903116
 20
73.606496184922321
 30
0.0
  0
INSERT
  5
20A2
  8
11
  2
STDGX5
 10
665.74249507744275
 20
41.25514521449486
 30
0.0
  0
INSERT
  5
20A3
  8
11
  2
STDGX5
 10
1566.3446525479851
 20
287.32683048533949
 30
0.0
  0
INSERT
  5
20A4
  8
11
  2
STDGX5
 10
1603.829751164202
 20
251.3268302087366
 30
0.0
  0
INSERT
  5
20A5
  8
11
  2
STDGX5
 10
1537.378894102613
 20
218.97547923830919
 30
0.0
  0
INSERT
  5
20A6
  8
11
  2
STDGX5
 10
2351.3838991581902
 20
317.4841724518908
 30
0.0
  0
INSERT
  5
20A7
  8
11
  2
STDGX5
 10
2388.8689977744061
 20
281.48417217528788
 30
0.0
  0
INSERT
  5
20A8
  8
11
  2
STDGX5
 10
2322.4181407128181
 20
249.13282120486039
 30
0.0
  0
INSERT
  5
20A9
  8
11
  2
STDGX5
 10
694.70825352281474
 20
109.6064964615252
 30
0.0
  0
INSERT
  5
20AA
  8
11
  2
STDGX5
 10
732.19335213903116
 20
73.606496184922321
 30
0.0
  0
INSERT
  5
20AB
  8
11
  2
STDGX5
 10
665.74249507744275
 20
41.25514521449486
 30
0.0
  0
INSERT
  5
20AC
  8
11
  2
STDGX5
 10
1566.3446525479851
 20
287.32683048533949
 30
0.0
  0
INSERT
  5
20AD
  8
11
  2
STDGX5
 10
1603.829751164202
 20
251.3268302087366
 30
0.0
  0
INSERT
  5
20AE
  8
11
  2
STDGX5
 10
1537.378894102613
 20
218.97547923830919
 30
0.0
  0
INSERT
  5
20AF
  8
11
  2
STDGX5
 10
2351.3838991581902
 20
317.4841724518908
 30
0.0
  0
INSERT
  5
20B0
  8
11
  2
STDGX5
 10
2388.8689977744061
 20
281.48417217528788
 30
0.0
  0
INSERT
  5
20B1
  8
11
  2
STDGX5
 10
2322.4181407128181
 20
249.13282120486039
 30
0.0
  0
INSERT
  5
20B2
  8
11
  2
STDGX5
 10
694.70825352281474
 20
109.6064964615252
 30
0.0
  0
INSERT
  5
20B3
  8
11
  2
STDGX5
 10
732.19335213903116
 20
73.606496184922321
 30
0.0
  0
INSERT
  5
20B4
  8
11
  2
STDGX5
 10
665.74249507744275
 20
41.25514521449486
 30
0.0
  0
INSERT
  5
20B5
  8
11
  2
STDGX5
 10
1566.3446525479851
 20
287.32683048533949
 30
0.0
  0
INSERT
  5
20B6
  8
11
  2
STDGX5
 10
1603.829751164202
 20
251.3268302087366
 30
0.0
  0
INSERT
  5
20B7
  8
11
  2
STDGX5
 10
1537.378894102613
 20
218.97547923830919
 30
0.0
  0
INSERT
  5
20B8
  8
11
  2
STDGX5
 10
2351.3838991581902
 20
317.4841724518908
 30
0.0
  0
INSERT
  5
20B9
  8
11
  2
STDGX5
 10
2388.8689977744061
 20
281.48417217528788
 30
0.0
  0
INSERT
  5
20BA
  8
11
  2
STDGX5
 10
2322.4181407128181
 20
249.13282120486039
 30
0.0
  0
INSERT
  5
20BB
  8
11
  2
STDGX5
 10
694.70825352281474
 20
109.6064964615252
 30
0.0
  0
INSERT
  5
20BC
  8
11
  2
STDGX5
 10
732.19335213903116
 20
73.606496184922321
 30
0.0
  0
INSERT
  5
20BD
  8
11
  2
STDGX5
 10
665.74249507744275
 20
41.25514521449486
 30
0.0
  0
INSERT
  5
20BE
  8
11
  2
STDGX5
 10
1566.3446525479851
 20
287.32683048533949
 30
0.0
  0
INSERT
  5
20BF
  8
11
  2
STDGX5
 10
1603.829751164202
 20
251.3268302087366
 30
0.0
  0
INSERT
  5
20C0
  8
11
  2
STDGX5
 10
1537.378894102613
 20
218.97547923830919
 30
0.0
  0
INSERT
  5
20C1
  8
11
  2
STDGX5
 10
2351.3838991581902
 20
317.4841724518908
 30
0.0
  0
INSERT
  5
20C2
  8
11
  2
STDGX5
 10
2388.8689977744061
 20
281.48417217528788
 30
0.0
  0
INSERT
  5
20C3
  8
11
  2
STDGX5
 10
2322.4181407128181
 20
249.13282120486039
 30
0.0
  0
INSERT
  5
20C4
  8
11
  2
STDGX5
 10
694.70825352281474
 20
109.6064964615252
 30
0.0
  0
INSERT
  5
20C5
  8
11
  2
STDGX5
 10
732.19335213903116
 20
73.606496184922321
 30
0.0
  0
INSERT
  5
20C6
  8
11
  2
STDGX5
 10
665.74249507744275
 20
41.25514521449486
 30
0.0
  0
INSERT
  5
20C7
  8
11
  2
STDGX5
 10
1566.3446525479851
 20
287.32683048533949
 30
0.0
  0
INSERT
  5
20C8
  8
11
  2
STDGX5
 10
1603.829751164202
 20
251.3268302087366
 30
0.0
  0
INSERT
  5
20C9
  8
11
  2
STDGX5
 10
1537.378894102613
 20
218.97547923830919
 30
0.0
  0
INSERT
  5
20CA
  8
11
  2
STDGX5
 10
2351.3838991581902
 20
317.4841724518908
 30
0.0
  0
INSERT
  5
20CB
  8
11
  2
STDGX5
 10
2388.8689977744061
 20
281.48417217528788
 30
0.0
  0
INSERT
  5
20CC
  8
11
  2
STDGX5
 10
2322.4181407128181
 20
249.13282120486039
 30
0.0
  0
INSERT
  5
20CD
  8
11
  2
STDGX5
 10
694.70825352281474
 20
109.6064964615252
 30
0.0
  0
INSERT
  5
20CE
  8
11
  2
STDGX5
 10
732.19335213903116
 20
73.606496184922321
 30
0.0
  0
INSERT
  5
20CF
  8
11
  2
STDGX5
 10
665.74249507744275
 20
41.25514521449486
 30
0.0
  0
INSERT
  5
20D0
  8
11
  2
STDGX5
 10
1566.3446525479851
 20
287.32683048533949
 30
0.0
  0
INSERT
  5
20D1
  8
11
  2
STDGX5
 10
1603.829751164202
 20
251.3268302087366
 30
0.0
  0
INSERT
  5
20D2
  8
11
  2
STDGX5
 10
1537.378894102613
 20
218.97547923830919
 30
0.0
  0
INSERT
  5
20D3
  8
11
  2
STDGX5
 10
2351.3838991581902
 20
317.4841724518908
 30
0.0
  0
INSERT
  5
20D4
  8
11
  2
STDGX5
 10
2388.8689977744061
 20
281.48417217528788
 30
0.0
  0
INSERT
  5
20D5
  8
11
  2
STDGX5
 10
2322.4181407128181
 20
249.13282120486039
 30
0.0
  0
INSERT
  5
20D6
  8
11
  2
STDGX5
 10
694.70825352281474
 20
109.6064964615252
 30
0.0
  0
INSERT
  5
20D7
  8
11
  2
STDGX5
 10
732.19335213903116
 20
73.606496184922321
 30
0.0
  0
INSERT
  5
20D8
  8
11
  2
STDGX5
 10
665.74249507744275
 20
41.25514521449486
 30
0.0
  0
INSERT
  5
20D9
  8
11
  2
STDGX5
 10
1566.3446525479851
 20
287.32683048533949
 30
0.0
  0
INSERT
  5
20DA
  8
11
  2
STDGX5
 10
1603.829751164202
 20
251.3268302087366
 30
0.0
  0
INSERT
  5
20DB
  8
11
  2
STDGX5
 10
1537.378894102613
 20
218.97547923830919
 30
0.0
  0
INSERT
  5
20DC
  8
11
  2
STDGX5
 10
2351.3838991581902
 20
317.4841724518908
 30
0.0
  0
INSERT
  5
20DD
  8
11
  2
STDGX5
 10
2388.8689977744061
 20
281.48417217528788
 30
0.0
  0
INSERT
  5
20DE
  8
11
  2
STDGX5
 10
2322.4181407128181
 20
249.13282120486039
 30
0.0
  0
INSERT
  5
20DF
  8
11
  2
STDGX5
 10
793.44093339780659
 20
173.47328622348081
 30
0.0
  0
INSERT
  5
20E0
  8
11
  2
STDGX5
 10
830.92603201402301
 20
137.47328594687789
 30
0.0
  0
INSERT
  5
20E1
  8
11
  2
STDGX5
 10
764.47517495243449
 20
105.1219349764504
 30
0.0
  0
INSERT
  5
20E2
  8
11
  2
STDGX5
 10
1665.077332422977
 20
351.1936202472952
 30
0.0
  0
INSERT
  5
20E3
  8
11
  2
STDGX5
 10
1702.5624310391929
 20
315.19361997069223
 30
0.0
  0
INSERT
  5
20E4
  8
11
  2
STDGX5
 10
1636.1115739776051
 20
282.84226900026482
 30
0.0
  0
INSERT
  5
20E5
  8
11
  2
STDGX5
 10
2450.116579033182
 20
381.3509622138464
 30
0.0
  0
INSERT
  5
20E6
  8
11
  2
STDGX5
 10
2487.601677649398
 20
345.35096193724348
 30
0.0
  0
INSERT
  5
20E7
  8
11
  2
STDGX5
 10
2421.1508205878099
 20
312.99961096681602
 30
0.0
  0
INSERT
  5
20E8
  8
11
  2
STDGX5
 10
1068.440933397806
 20
198.47332942589779
 30
0.0
  0
INSERT
  5
20E9
  8
11
  2
STDGX5
 10
1105.9260320140229
 20
162.47332914929481
 30
0.0
  0
INSERT
  5
20EA
  8
11
  2
STDGX5
 10
1039.4751749524339
 20
130.12197817886741
 30
0.0
  0
INSERT
  5
20EB
  8
11
  2
STDGX5
 10
1940.077332422977
 20
376.19366344971212
 30
0.0
  0
INSERT
  5
20EC
  8
11
  2
STDGX5
 10
1977.5624310391941
 20
340.19366317310909
 30
0.0
  0
INSERT
  5
20ED
  8
11
  2
STDGX5
 10
1911.1115739776051
 20
307.84231220268168
 30
0.0
  0
INSERT
  5
20EE
  8
11
  2
STDGX5
 10
2725.116579033182
 20
406.35100541626332
 30
0.0
  0
INSERT
  5
20EF
  8
11
  2
STDGX5
 10
2762.601677649398
 20
370.3510051396604
 30
0.0
  0
INSERT
  5
20F0
  8
11
  2
STDGX5
 10
2696.150820587809
 20
337.99965416923288
 30
0.0
  0
INSERT
  5
20F3
  8
11
  2
STDGX5
 10
694.70825352281474
 20
259.60645325910832
 30
0.0
  0
INSERT
  5
20F4
  8
11
  2
STDGX5
 10
732.19335213903116
 20
223.6064529825054
 30
0.0
  0
INSERT
  5
20F5
  8
11
  2
STDGX5
 10
665.74249507744275
 20
191.25510201207791
 30
0.0
  0
INSERT
  5
20F6
  8
11
  2
STDGX5
 10
1566.3446525479851
 20
437.32678728292262
 30
0.0
  0
INSERT
  5
20F7
  8
11
  2
STDGX5
 10
1603.829751164202
 20
401.32678700631971
 30
0.0
  0
INSERT
  5
20F8
  8
11
  2
STDGX5
 10
1537.378894102613
 20
368.97543603589219
 30
0.0
  0
INSERT
  5
20F9
  8
11
  2
STDGX5
 10
2351.3838991581902
 20
467.48412924947388
 30
0.0
  0
INSERT
  5
20FA
  8
11
  2
STDGX5
 10
2388.8689977744061
 20
431.48412897287091
 30
0.0
  0
INSERT
  5
20FB
  8
11
  2
STDGX5
 10
2322.4181407128181
 20
399.1327780024435
 30
0.0
  0
INSERT
  5
20FC
  8
11
  2
STDGX5
 10
969.70825352281474
 20
284.60649646152518
 30
0.0
  0
INSERT
  5
20FD
  8
11
  2
STDGX5
 10
1007.193352139031
 20
248.60649618492229
 30
0.0
  0
INSERT
  5
20FE
  8
11
  2
STDGX5
 10
940.74249507744275
 20
216.25514521449489
 30
0.0
  0
INSERT
  5
20FF
  8
11
  2
STDGX5
 10
1841.3446525479851
 20
462.32683048533949
 30
0.0
  0
INSERT
  5
2100
  8
11
  2
STDGX5
 10
1878.829751164202
 20
426.32683020873662
 30
0.0
  0
INSERT
  5
2101
  8
11
  2
STDGX5
 10
1812.378894102613
 20
393.97547923830922
 30
0.0
  0
INSERT
  5
2102
  8
11
  2
STDGX5
 10
2626.3838991581902
 20
492.48417245189069
 30
0.0
  0
INSERT
  5
2103
  8
11
  2
STDGX5
 10
2663.8689977744061
 20
456.48417217528788
 30
0.0
  0
INSERT
  5
2104
  8
11
  2
STDGX5
 10
2597.4181407128181
 20
424.13282120486042
 30
0.0
  0
INSERT
  5
2105
  8
11
  2
STDGX5
 10
969.70825352281474
 20
284.60649646152518
 30
0.0
  0
INSERT
  5
2106
  8
11
  2
STDGX5
 10
1007.193352139031
 20
248.60649618492229
 30
0.0
  0
INSERT
  5
2107
  8
11
  2
STDGX5
 10
940.74249507744275
 20
216.25514521449489
 30
0.0
  0
INSERT
  5
2108
  8
11
  2
STDGX5
 10
1841.3446525479851
 20
462.32683048533949
 30
0.0
  0
INSERT
  5
2109
  8
11
  2
STDGX5
 10
1878.829751164202
 20
426.32683020873662
 30
0.0
  0
INSERT
  5
210A
  8
11
  2
STDGX5
 10
1812.378894102613
 20
393.97547923830922
 30
0.0
  0
INSERT
  5
210B
  8
11
  2
STDGX5
 10
2626.3838991581902
 20
492.48417245189069
 30
0.0
  0
INSERT
  5
210C
  8
11
  2
STDGX5
 10
2663.8689977744061
 20
456.48417217528788
 30
0.0
  0
INSERT
  5
210D
  8
11
  2
STDGX5
 10
2597.4181407128181
 20
424.13282120486042
 30
0.0
  0
INSERT
  5
210E
  8
11
  2
STDGX5
 10
969.70825352281474
 20
284.60649646152518
 30
0.0
  0
INSERT
  5
210F
  8
11
  2
STDGX5
 10
1007.193352139031
 20
248.60649618492229
 30
0.0
  0
INSERT
  5
2110
  8
11
  2
STDGX5
 10
940.74249507744275
 20
216.25514521449489
 30
0.0
  0
INSERT
  5
2111
  8
11
  2
STDGX5
 10
1841.3446525479851
 20
462.32683048533949
 30
0.0
  0
INSERT
  5
2112
  8
11
  2
STDGX5
 10
1878.829751164202
 20
426.32683020873662
 30
0.0
  0
INSERT
  5
2113
  8
11
  2
STDGX5
 10
1812.378894102613
 20
393.97547923830922
 30
0.0
  0
INSERT
  5
2114
  8
11
  2
STDGX5
 10
2626.3838991581902
 20
492.48417245189069
 30
0.0
  0
INSERT
  5
2115
  8
11
  2
STDGX5
 10
2663.8689977744061
 20
456.48417217528788
 30
0.0
  0
INSERT
  5
2116
  8
11
  2
STDGX5
 10
2597.4181407128181
 20
424.13282120486042
 30
0.0
  0
INSERT
  5
2117
  8
11
  2
STDGX5
 10
969.70825352281474
 20
284.60649646152518
 30
0.0
  0
INSERT
  5
2118
  8
11
  2
STDGX5
 10
1007.193352139031
 20
248.60649618492229
 30
0.0
  0
INSERT
  5
2119
  8
11
  2
STDGX5
 10
940.74249507744275
 20
216.25514521449489
 30
0.0
  0
INSERT
  5
211A
  8
11
  2
STDGX5
 10
1841.3446525479851
 20
462.32683048533949
 30
0.0
  0
INSERT
  5
211B
  8
11
  2
STDGX5
 10
1878.829751164202
 20
426.32683020873662
 30
0.0
  0
INSERT
  5
211C
  8
11
  2
STDGX5
 10
1812.378894102613
 20
393.97547923830922
 30
0.0
  0
INSERT
  5
211D
  8
11
  2
STDGX5
 10
2626.3838991581902
 20
492.48417245189069
 30
0.0
  0
INSERT
  5
211E
  8
11
  2
STDGX5
 10
2663.8689977744061
 20
456.48417217528788
 30
0.0
  0
INSERT
  5
211F
  8
11
  2
STDGX5
 10
2597.4181407128181
 20
424.13282120486042
 30
0.0
  0
INSERT
  5
2120
  8
11
  2
STDGX5
 10
969.70825352281474
 20
284.60649646152518
 30
0.0
  0
INSERT
  5
2121
  8
11
  2
STDGX5
 10
1007.193352139031
 20
248.60649618492229
 30
0.0
  0
INSERT
  5
2122
  8
11
  2
STDGX5
 10
940.74249507744275
 20
216.25514521449489
 30
0.0
  0
INSERT
  5
2123
  8
11
  2
STDGX5
 10
1841.3446525479851
 20
462.32683048533949
 30
0.0
  0
INSERT
  5
2124
  8
11
  2
STDGX5
 10
1878.829751164202
 20
426.32683020873662
 30
0.0
  0
INSERT
  5
2125
  8
11
  2
STDGX5
 10
1812.378894102613
 20
393.97547923830922
 30
0.0
  0
INSERT
  5
2126
  8
11
  2
STDGX5
 10
2626.3838991581902
 20
492.48417245189069
 30
0.0
  0
INSERT
  5
2127
  8
11
  2
STDGX5
 10
2663.8689977744061
 20
456.48417217528788
 30
0.0
  0
INSERT
  5
2128
  8
11
  2
STDGX5
 10
2597.4181407128181
 20
424.13282120486042
 30
0.0
  0
INSERT
  5
2129
  8
11
  2
STDGX5
 10
969.70825352281474
 20
284.60649646152518
 30
0.0
  0
INSERT
  5
212A
  8
11
  2
STDGX5
 10
1007.193352139031
 20
248.60649618492229
 30
0.0
  0
INSERT
  5
212B
  8
11
  2
STDGX5
 10
940.74249507744275
 20
216.25514521449489
 30
0.0
  0
INSERT
  5
212C
  8
11
  2
STDGX5
 10
1841.3446525479851
 20
462.32683048533949
 30
0.0
  0
INSERT
  5
212D
  8
11
  2
STDGX5
 10
1878.829751164202
 20
426.32683020873662
 30
0.0
  0
INSERT
  5
212E
  8
11
  2
STDGX5
 10
1812.378894102613
 20
393.97547923830922
 30
0.0
  0
INSERT
  5
212F
  8
11
  2
STDGX5
 10
2626.3838991581902
 20
492.48417245189069
 30
0.0
  0
INSERT
  5
2130
  8
11
  2
STDGX5
 10
2663.8689977744061
 20
456.48417217528788
 30
0.0
  0
INSERT
  5
2131
  8
11
  2
STDGX5
 10
2597.4181407128181
 20
424.13282120486042
 30
0.0
  0
INSERT
  5
2132
  8
11
  2
STDGX5
 10
969.70825352281474
 20
284.60649646152518
 30
0.0
  0
INSERT
  5
2133
  8
11
  2
STDGX5
 10
1007.193352139031
 20
248.60649618492229
 30
0.0
  0
INSERT
  5
2134
  8
11
  2
STDGX5
 10
940.74249507744275
 20
216.25514521449489
 30
0.0
  0
INSERT
  5
2135
  8
11
  2
STDGX5
 10
1841.3446525479851
 20
462.32683048533949
 30
0.0
  0
INSERT
  5
2136
  8
11
  2
STDGX5
 10
1878.829751164202
 20
426.32683020873662
 30
0.0
  0
INSERT
  5
2137
  8
11
  2
STDGX5
 10
1812.378894102613
 20
393.97547923830922
 30
0.0
  0
INSERT
  5
2138
  8
11
  2
STDGX5
 10
2626.3838991581902
 20
492.48417245189069
 30
0.0
  0
INSERT
  5
2139
  8
11
  2
STDGX5
 10
2663.8689977744061
 20
456.48417217528788
 30
0.0
  0
INSERT
  5
213A
  8
11
  2
STDGX5
 10
2597.4181407128181
 20
424.13282120486042
 30
0.0
  0
INSERT
  5
213B
  8
11
  2
STDGX5
 10
969.70825352281474
 20
284.60649646152518
 30
0.0
  0
INSERT
  5
213C
  8
11
  2
STDGX5
 10
1007.193352139031
 20
248.60649618492229
 30
0.0
  0
INSERT
  5
213D
  8
11
  2
STDGX5
 10
940.74249507744275
 20
216.25514521449489
 30
0.0
  0
INSERT
  5
213E
  8
11
  2
STDGX5
 10
1841.3446525479851
 20
462.32683048533949
 30
0.0
  0
INSERT
  5
213F
  8
11
  2
STDGX5
 10
1878.829751164202
 20
426.32683020873662
 30
0.0
  0
INSERT
  5
2140
  8
11
  2
STDGX5
 10
1812.378894102613
 20
393.97547923830922
 30
0.0
  0
INSERT
  5
2141
  8
11
  2
STDGX5
 10
2626.3838991581902
 20
492.48417245189069
 30
0.0
  0
INSERT
  5
2142
  8
11
  2
STDGX5
 10
2663.8689977744061
 20
456.48417217528788
 30
0.0
  0
INSERT
  5
2143
  8
11
  2
STDGX5
 10
2597.4181407128181
 20
424.13282120486042
 30
0.0
  0
INSERT
  5
2144
  8
11
  2
STDGX5
 10
1068.440933397806
 20
348.4732862234809
 30
0.0
  0
INSERT
  5
2145
  8
11
  2
STDGX5
 10
1105.9260320140229
 20
312.47328594687792
 30
0.0
  0
INSERT
  5
2146
  8
11
  2
STDGX5
 10
1039.4751749524339
 20
280.12193497645052
 30
0.0
  0
INSERT
  5
2147
  8
11
  2
STDGX5
 10
1940.077332422976
 20
526.19362024729514
 30
0.0
  0
INSERT
  5
2148
  8
11
  2
STDGX5
 10
1977.5624310391929
 20
490.19361997069223
 30
0.0
  0
INSERT
  5
2149
  8
11
  2
STDGX5
 10
1911.1115739776051
 20
457.84226900026471
 30
0.0
  0
INSERT
  5
214A
  8
11
  2
STDGX5
 10
2725.116579033182
 20
556.3509622138464
 30
0.0
  0
INSERT
  5
214B
  8
11
  2
STDGX5
 10
2762.601677649398
 20
520.35096193724337
 30
0.0
  0
INSERT
  5
214C
  8
11
  2
STDGX5
 10
2696.150820587809
 20
487.99961096681602
 30
0.0
  0
INSERT
  5
214D
  8
11
  2
STDGX5
 10
1343.440933397806
 20
373.4733294258977
 30
0.0
  0
INSERT
  5
214E
  8
11
  2
STDGX5
 10
1380.9260320140229
 20
337.47332914929478
 30
0.0
  0
INSERT
  5
214F
  8
11
  2
STDGX5
 10
1314.4751749524339
 20
305.12197817886738
 30
0.0
  0
INSERT
  5
2150
  8
11
  2
STDGX5
 10
2215.0773324229772
 20
551.19366344971206
 30
0.0
  0
INSERT
  5
2151
  8
11
  2
STDGX5
 10
2252.5624310391941
 20
515.19366317310914
 30
0.0
  0
INSERT
  5
2152
  8
11
  2
STDGX5
 10
2186.1115739776051
 20
482.84231220268168
 30
0.0
  0
INSERT
  5
2153
  8
11
  2
STDGX5
 10
3000.116579033182
 20
581.35100541626332
 30
0.0
  0
INSERT
  5
2154
  8
11
  2
STDGX5
 10
3037.601677649398
 20
545.35100513966029
 30
0.0
  0
INSERT
  5
2155
  8
11
  2
STDGX5
 10
2971.150820587809
 20
512.99965416923294
 30
0.0
  0
INSERT
  5
2156
  8
11
  2
STDGX5
 10
694.70825352281474
 20
259.60645325910832
 30
0.0
  0
INSERT
  5
2157
  8
11
  2
STDGX5
 10
732.19335213903116
 20
223.6064529825054
 30
0.0
  0
INSERT
  5
2158
  8
11
  2
STDGX5
 10
665.74249507744275
 20
191.25510201207791
 30
0.0
  0
INSERT
  5
2159
  8
11
  2
STDGX5
 10
1566.3446525479851
 20
437.32678728292262
 30
0.0
  0
INSERT
  5
215A
  8
11
  2
STDGX5
 10
1603.829751164202
 20
401.32678700631971
 30
0.0
  0
INSERT
  5
215B
  8
11
  2
STDGX5
 10
1537.378894102613
 20
368.97543603589219
 30
0.0
  0
INSERT
  5
215C
  8
11
  2
STDGX5
 10
2351.3838991581902
 20
467.48412924947388
 30
0.0
  0
INSERT
  5
215D
  8
11
  2
STDGX5
 10
2388.8689977744061
 20
431.48412897287091
 30
0.0
  0
INSERT
  5
215E
  8
11
  2
STDGX5
 10
2322.4181407128181
 20
399.1327780024435
 30
0.0
  0
INSERT
  5
215F
  8
11
  2
STDGX5
 10
969.70825352281474
 20
284.60649646152518
 30
0.0
  0
INSERT
  5
2160
  8
11
  2
STDGX5
 10
1007.193352139031
 20
248.60649618492229
 30
0.0
  0
INSERT
  5
2161
  8
11
  2
STDGX5
 10
940.74249507744275
 20
216.25514521449489
 30
0.0
  0
INSERT
  5
2162
  8
11
  2
STDGX5
 10
1841.3446525479851
 20
462.32683048533949
 30
0.0
  0
INSERT
  5
2163
  8
11
  2
STDGX5
 10
1878.829751164202
 20
426.32683020873662
 30
0.0
  0
INSERT
  5
2164
  8
11
  2
STDGX5
 10
1812.378894102613
 20
393.97547923830922
 30
0.0
  0
INSERT
  5
2165
  8
11
  2
STDGX5
 10
2626.3838991581902
 20
492.48417245189069
 30
0.0
  0
INSERT
  5
2166
  8
11
  2
STDGX5
 10
2663.8689977744061
 20
456.48417217528788
 30
0.0
  0
INSERT
  5
2167
  8
11
  2
STDGX5
 10
2597.4181407128181
 20
424.13282120486042
 30
0.0
  0
INSERT
  5
2168
  8
11
  2
STDGX5
 10
969.70825352281474
 20
284.60649646152518
 30
0.0
  0
INSERT
  5
2169
  8
11
  2
STDGX5
 10
1007.193352139031
 20
248.60649618492229
 30
0.0
  0
INSERT
  5
216A
  8
11
  2
STDGX5
 10
940.74249507744275
 20
216.25514521449489
 30
0.0
  0
INSERT
  5
216B
  8
11
  2
STDGX5
 10
1841.3446525479851
 20
462.32683048533949
 30
0.0
  0
INSERT
  5
216C
  8
11
  2
STDGX5
 10
1878.829751164202
 20
426.32683020873662
 30
0.0
  0
INSERT
  5
216D
  8
11
  2
STDGX5
 10
1812.378894102613
 20
393.97547923830922
 30
0.0
  0
INSERT
  5
216E
  8
11
  2
STDGX5
 10
2626.3838991581902
 20
492.48417245189069
 30
0.0
  0
INSERT
  5
216F
  8
11
  2
STDGX5
 10
2663.8689977744061
 20
456.48417217528788
 30
0.0
  0
INSERT
  5
2170
  8
11
  2
STDGX5
 10
2597.4181407128181
 20
424.13282120486042
 30
0.0
  0
INSERT
  5
2171
  8
11
  2
STDGX5
 10
969.70825352281474
 20
284.60649646152518
 30
0.0
  0
INSERT
  5
2172
  8
11
  2
STDGX5
 10
1007.193352139031
 20
248.60649618492229
 30
0.0
  0
INSERT
  5
2173
  8
11
  2
STDGX5
 10
940.74249507744275
 20
216.25514521449489
 30
0.0
  0
INSERT
  5
2174
  8
11
  2
STDGX5
 10
1841.3446525479851
 20
462.32683048533949
 30
0.0
  0
INSERT
  5
2175
  8
11
  2
STDGX5
 10
1878.829751164202
 20
426.32683020873662
 30
0.0
  0
INSERT
  5
2176
  8
11
  2
STDGX5
 10
1812.378894102613
 20
393.97547923830922
 30
0.0
  0
INSERT
  5
2177
  8
11
  2
STDGX5
 10
2626.3838991581902
 20
492.48417245189069
 30
0.0
  0
INSERT
  5
2178
  8
11
  2
STDGX5
 10
2663.8689977744061
 20
456.48417217528788
 30
0.0
  0
INSERT
  5
2179
  8
11
  2
STDGX5
 10
2597.4181407128181
 20
424.13282120486042
 30
0.0
  0
INSERT
  5
217A
  8
11
  2
STDGX5
 10
969.70825352281474
 20
284.60649646152518
 30
0.0
  0
INSERT
  5
217B
  8
11
  2
STDGX5
 10
1007.193352139031
 20
248.60649618492229
 30
0.0
  0
INSERT
  5
217C
  8
11
  2
STDGX5
 10
940.74249507744275
 20
216.25514521449489
 30
0.0
  0
INSERT
  5
217D
  8
11
  2
STDGX5
 10
1841.3446525479851
 20
462.32683048533949
 30
0.0
  0
INSERT
  5
217E
  8
11
  2
STDGX5
 10
1878.829751164202
 20
426.32683020873662
 30
0.0
  0
INSERT
  5
217F
  8
11
  2
STDGX5
 10
1812.378894102613
 20
393.97547923830922
 30
0.0
  0
INSERT
  5
2180
  8
11
  2
STDGX5
 10
2626.3838991581902
 20
492.48417245189069
 30
0.0
  0
INSERT
  5
2181
  8
11
  2
STDGX5
 10
2663.8689977744061
 20
456.48417217528788
 30
0.0
  0
INSERT
  5
2182
  8
11
  2
STDGX5
 10
2597.4181407128181
 20
424.13282120486042
 30
0.0
  0
INSERT
  5
2183
  8
11
  2
STDGX5
 10
969.70825352281474
 20
284.60649646152518
 30
0.0
  0
INSERT
  5
2184
  8
11
  2
STDGX5
 10
1007.193352139031
 20
248.60649618492229
 30
0.0
  0
INSERT
  5
2185
  8
11
  2
STDGX5
 10
940.74249507744275
 20
216.25514521449489
 30
0.0
  0
INSERT
  5
2186
  8
11
  2
STDGX5
 10
1841.3446525479851
 20
462.32683048533949
 30
0.0
  0
INSERT
  5
2187
  8
11
  2
STDGX5
 10
1878.829751164202
 20
426.32683020873662
 30
0.0
  0
INSERT
  5
2188
  8
11
  2
STDGX5
 10
1812.378894102613
 20
393.97547923830922
 30
0.0
  0
INSERT
  5
2189
  8
11
  2
STDGX5
 10
2626.3838991581902
 20
492.48417245189069
 30
0.0
  0
INSERT
  5
218A
  8
11
  2
STDGX5
 10
2663.8689977744061
 20
456.48417217528788
 30
0.0
  0
INSERT
  5
218B
  8
11
  2
STDGX5
 10
2597.4181407128181
 20
424.13282120486042
 30
0.0
  0
INSERT
  5
218C
  8
11
  2
STDGX5
 10
969.70825352281474
 20
284.60649646152518
 30
0.0
  0
INSERT
  5
218D
  8
11
  2
STDGX5
 10
1007.193352139031
 20
248.60649618492229
 30
0.0
  0
INSERT
  5
218E
  8
11
  2
STDGX5
 10
940.74249507744275
 20
216.25514521449489
 30
0.0
  0
INSERT
  5
218F
  8
11
  2
STDGX5
 10
1841.3446525479851
 20
462.32683048533949
 30
0.0
  0
INSERT
  5
2190
  8
11
  2
STDGX5
 10
1878.829751164202
 20
426.32683020873662
 30
0.0
  0
INSERT
  5
2191
  8
11
  2
STDGX5
 10
1812.378894102613
 20
393.97547923830922
 30
0.0
  0
INSERT
  5
2192
  8
11
  2
STDGX5
 10
2626.3838991581902
 20
492.48417245189069
 30
0.0
  0
INSERT
  5
2193
  8
11
  2
STDGX5
 10
2663.8689977744061
 20
456.48417217528788
 30
0.0
  0
INSERT
  5
2194
  8
11
  2
STDGX5
 10
2597.4181407128181
 20
424.13282120486042
 30
0.0
  0
INSERT
  5
2195
  8
11
  2
STDGX5
 10
969.70825352281474
 20
284.60649646152518
 30
0.0
  0
INSERT
  5
2196
  8
11
  2
STDGX5
 10
1007.193352139031
 20
248.60649618492229
 30
0.0
  0
INSERT
  5
2197
  8
11
  2
STDGX5
 10
940.74249507744275
 20
216.25514521449489
 30
0.0
  0
INSERT
  5
2198
  8
11
  2
STDGX5
 10
1841.3446525479851
 20
462.32683048533949
 30
0.0
  0
INSERT
  5
2199
  8
11
  2
STDGX5
 10
1878.829751164202
 20
426.32683020873662
 30
0.0
  0
INSERT
  5
219A
  8
11
  2
STDGX5
 10
1812.378894102613
 20
393.97547923830922
 30
0.0
  0
INSERT
  5
219B
  8
11
  2
STDGX5
 10
2626.3838991581902
 20
492.48417245189069
 30
0.0
  0
INSERT
  5
219C
  8
11
  2
STDGX5
 10
2663.8689977744061
 20
456.48417217528788
 30
0.0
  0
INSERT
  5
219D
  8
11
  2
STDGX5
 10
2597.4181407128181
 20
424.13282120486042
 30
0.0
  0
INSERT
  5
219E
  8
11
  2
STDGX5
 10
969.70825352281474
 20
284.60649646152518
 30
0.0
  0
INSERT
  5
219F
  8
11
  2
STDGX5
 10
1007.193352139031
 20
248.60649618492229
 30
0.0
  0
INSERT
  5
21A0
  8
11
  2
STDGX5
 10
940.74249507744275
 20
216.25514521449489
 30
0.0
  0
LINE
  5
21A1
  8
0
 10
91.076761645468295
 20
188.37235257602171
 30
0.0
 11
103.2767616454683
 21
188.3723525760216
 31
0.0
  0
LINE
  5
21A2
  8
0
 10
91.076761645468295
 20
147.37235257602191
 30
0.0
 11
119.0767616454683
 21
147.37235257602191
 31
0.0
  0
LINE
  5
21A3
  8
0
 10
119.0767616454683
 20
147.37235257602191
 30
0.0
 11
119.0767616454683
 21
184.97235257602171
 31
0.0
  0
LINE
  5
21A4
  8
0
 10
91.076761645468295
 20
147.37235257602191
 30
0.0
 11
91.076761645468295
 21
165.2223525760219
 31
0.0
  0
LINE
  5
21A5
  8
0
 10
91.076761645468295
 20
159.37235257602191
 30
0.0
 11
98.076761645468295
 21
159.37235257602191
 31
0.0
  0
LINE
  5
21A6
  8
0
 10
93.076761645468295
 20
157.37235257602191
 30
0.0
 11
98.076761645468295
 21
157.372352576022
 31
0.0
  0
LINE
  5
21A7
  8
0
 10
117.0767616454683
 20
149.3723525760218
 30
0.0
 11
117.0767616454683
 21
157.372352576022
 31
0.0
  0
LINE
  5
21A8
  8
0
 10
93.076761645468295
 20
149.37235257602191
 30
0.0
 11
117.0767616454683
 21
149.37235257602191
 31
0.0
  0
LINE
  5
21A9
  8
0
 10
93.076761645468295
 20
149.37235257602191
 30
0.0
 11
93.076761645468295
 21
157.37235257602211
 31
0.0
  0
LINE
  5
21AA
  8
0
 10
112.0767616454683
 20
157.372352576022
 30
0.0
 11
112.0767616454683
 21
159.372352576022
 31
0.0
  0
LINE
  5
21AB
  8
0
 10
98.076761645468295
 20
157.37235257602191
 30
0.0
 11
98.076761645468295
 21
159.37235257602191
 31
0.0
  0
LINE
  5
21AC
  8
0
 10
112.0767616454683
 20
159.37235257602191
 30
0.0
 11
119.0767616454683
 21
159.37235257602191
 31
0.0
  0
LINE
  5
21AD
  8
0
 10
112.0767616454683
 20
157.372352576022
 30
0.0
 11
117.0767616454683
 21
157.372352576022
 31
0.0
  0
LINE
  5
21AE
  8
0
 10
103.2767616454683
 20
184.97235257602179
 30
0.0
 11
103.2767616454683
 21
188.3723525760218
 31
0.0
  0
LINE
  5
21AF
  8
0
 10
103.2767616454683
 20
184.97235257602171
 30
0.0
 11
119.0767616454683
 21
184.97235257602159
 31
0.0
  0
LINE
  5
21B0
  8
0
 10
103.2767616454683
 20
180.7223525760219
 30
0.0
 11
111.37676164546851
 21
180.7223525760219
 31
0.0
  0
LINE
  5
21B1
  8
0
 10
103.2767616454683
 20
162.02235257602169
 30
0.0
 11
111.37676164546831
 21
162.02235257602169
 31
0.0
  0
LINE
  5
21B2
  8
0
 10
91.076761645468295
 20
177.52235257602189
 30
0.0
 11
103.2767616454683
 21
177.52235257602189
 31
0.0
  0
LINE
  5
21B3
  8
0
 10
91.076761645468295
 20
165.2223525760219
 30
0.0
 11
103.2767616454683
 21
165.2223525760219
 31
0.0
  0
LINE
  5
21B4
  8
0
 10
103.2767616454683
 20
180.7223525760219
 30
0.0
 11
103.2767616454683
 21
177.5223525760218
 31
0.0
  0
LINE
  5
21B5
  8
0
 10
111.37676164546831
 20
180.7223525760219
 30
0.0
 11
111.37676164546831
 21
162.02235257602169
 31
0.0
  0
LINE
  5
21B6
  8
0
 10
103.2767616454683
 20
165.2223525760219
 30
0.0
 11
103.2767616454683
 21
162.02235257602169
 31
0.0
  0
LINE
  5
21B7
  8
0
 10
91.076761645468295
 20
177.52235257602189
 30
0.0
 11
91.076761645468295
 21
188.3723525760218
 31
0.0
  0
LINE
  5
21B8
  8
0
 10
93.076761645468295
 20
151.3723525760218
 30
0.0
 11
117.0767616454683
 21
151.37235257602151
 31
0.0
  0
INSERT
  5
21B9
  8
11
  2
STDGX5
 10
1841.3446525479851
 20
462.32683048533949
 30
0.0
  0
INSERT
  5
21BA
  8
11
  2
STDGX5
 10
1878.829751164202
 20
426.32683020873662
 30
0.0
  0
INSERT
  5
21BB
  8
11
  2
STDGX5
 10
1812.378894102613
 20
393.97547923830922
 30
0.0
  0
INSERT
  5
21BC
  8
11
  2
STDGX5
 10
2626.3838991581902
 20
492.48417245189069
 30
0.0
  0
INSERT
  5
21BD
  8
11
  2
STDGX5
 10
2663.8689977744061
 20
456.48417217528788
 30
0.0
  0
INSERT
  5
21BE
  8
11
  2
STDGX5
 10
2597.4181407128181
 20
424.13282120486042
 30
0.0
  0
INSERT
  5
21BF
  8
11
  2
STDGX5
 10
1068.440933397806
 20
348.4732862234809
 30
0.0
  0
INSERT
  5
21C0
  8
11
  2
STDGX5
 10
1105.9260320140229
 20
312.47328594687792
 30
0.0
  0
INSERT
  5
21C1
  8
11
  2
STDGX5
 10
1039.4751749524339
 20
280.12193497645052
 30
0.0
  0
INSERT
  5
21C2
  8
11
  2
STDGX5
 10
1940.077332422976
 20
526.19362024729514
 30
0.0
  0
INSERT
  5
21C3
  8
11
  2
STDGX5
 10
1977.5624310391929
 20
490.19361997069223
 30
0.0
  0
INSERT
  5
21C4
  8
11
  2
STDGX5
 10
1911.1115739776051
 20
457.84226900026471
 30
0.0
  0
INSERT
  5
21C5
  8
11
  2
STDGX5
 10
2725.116579033182
 20
556.3509622138464
 30
0.0
  0
INSERT
  5
21C6
  8
11
  2
STDGX5
 10
2762.601677649398
 20
520.35096193724337
 30
0.0
  0
INSERT
  5
21C7
  8
11
  2
STDGX5
 10
2696.150820587809
 20
487.99961096681602
 30
0.0
  0
INSERT
  5
21C8
  8
11
  2
STDGX5
 10
1343.440933397806
 20
373.4733294258977
 30
0.0
  0
INSERT
  5
21C9
  8
11
  2
STDGX5
 10
1380.9260320140229
 20
337.47332914929478
 30
0.0
  0
INSERT
  5
21CA
  8
11
  2
STDGX5
 10
1314.4751749524339
 20
305.12197817886738
 30
0.0
  0
INSERT
  5
21CB
  8
11
  2
STDGX5
 10
2215.0773324229772
 20
551.19366344971206
 30
0.0
  0
INSERT
  5
21CC
  8
11
  2
STDGX5
 10
2252.5624310391941
 20
515.19366317310914
 30
0.0
  0
INSERT
  5
21CD
  8
11
  2
STDGX5
 10
2186.1115739776051
 20
482.84231220268168
 30
0.0
  0
INSERT
  5
21CE
  8
11
  2
STDGX5
 10
3000.116579033182
 20
581.35100541626332
 30
0.0
  0
INSERT
  5
21CF
  8
11
  2
STDGX5
 10
3037.601677649398
 20
545.35100513966029
 30
0.0
  0
INSERT
  5
21D0
  8
11
  2
STDGX5
 10
2971.150820587809
 20
512.99965416923294
 30
0.0
  0
INSERT
  5
21EC
  8
11
  2
STDGX5
 10
694.70825352281474
 20
259.60645325910832
 30
0.0
  0
INSERT
  5
21ED
  8
11
  2
STDGX5
 10
732.19335213903116
 20
223.6064529825054
 30
0.0
  0
INSERT
  5
21EE
  8
11
  2
STDGX5
 10
665.74249507744275
 20
191.25510201207791
 30
0.0
  0
INSERT
  5
21EF
  8
11
  2
STDGX5
 10
1566.3446525479851
 20
437.32678728292262
 30
0.0
  0
INSERT
  5
21F0
  8
11
  2
STDGX5
 10
1603.829751164202
 20
401.32678700631971
 30
0.0
  0
INSERT
  5
21F1
  8
11
  2
STDGX5
 10
1537.378894102613
 20
368.97543603589219
 30
0.0
  0
INSERT
  5
21F2
  8
11
  2
STDGX5
 10
2351.3838991581902
 20
467.48412924947388
 30
0.0
  0
INSERT
  5
21F3
  8
11
  2
STDGX5
 10
2388.8689977744061
 20
431.48412897287091
 30
0.0
  0
INSERT
  5
21F4
  8
11
  2
STDGX5
 10
2322.4181407128181
 20
399.1327780024435
 30
0.0
  0
INSERT
  5
21F5
  8
11
  2
STDGX5
 10
969.70825352281474
 20
284.60649646152518
 30
0.0
  0
INSERT
  5
21F6
  8
11
  2
STDGX5
 10
1007.193352139031
 20
248.60649618492229
 30
0.0
  0
INSERT
  5
21F7
  8
11
  2
STDGX5
 10
940.74249507744275
 20
216.25514521449489
 30
0.0
  0
INSERT
  5
21F8
  8
11
  2
STDGX5
 10
1841.3446525479851
 20
462.32683048533949
 30
0.0
  0
INSERT
  5
21F9
  8
11
  2
STDGX5
 10
1878.829751164202
 20
426.32683020873662
 30
0.0
  0
INSERT
  5
21FA
  8
11
  2
STDGX5
 10
1812.378894102613
 20
393.97547923830922
 30
0.0
  0
INSERT
  5
21FB
  8
11
  2
STDGX5
 10
2626.3838991581902
 20
492.48417245189069
 30
0.0
  0
INSERT
  5
21FC
  8
11
  2
STDGX5
 10
2663.8689977744061
 20
456.48417217528788
 30
0.0
  0
INSERT
  5
21FD
  8
11
  2
STDGX5
 10
2597.4181407128181
 20
424.13282120486042
 30
0.0
  0
INSERT
  5
21FE
  8
11
  2
STDGX5
 10
969.70825352281474
 20
284.60649646152518
 30
0.0
  0
INSERT
  5
21FF
  8
11
  2
STDGX5
 10
1007.193352139031
 20
248.60649618492229
 30
0.0
  0
INSERT
  5
2200
  8
11
  2
STDGX5
 10
940.74249507744275
 20
216.25514521449489
 30
0.0
  0
INSERT
  5
2201
  8
11
  2
STDGX5
 10
1841.3446525479851
 20
462.32683048533949
 30
0.0
  0
INSERT
  5
2202
  8
11
  2
STDGX5
 10
1878.829751164202
 20
426.32683020873662
 30
0.0
  0
INSERT
  5
2203
  8
11
  2
STDGX5
 10
1812.378894102613
 20
393.97547923830922
 30
0.0
  0
INSERT
  5
2204
  8
11
  2
STDGX5
 10
2626.3838991581902
 20
492.48417245189069
 30
0.0
  0
INSERT
  5
2205
  8
11
  2
STDGX5
 10
2663.8689977744061
 20
456.48417217528788
 30
0.0
  0
INSERT
  5
2206
  8
11
  2
STDGX5
 10
2597.4181407128181
 20
424.13282120486042
 30
0.0
  0
INSERT
  5
2207
  8
11
  2
STDGX5
 10
969.70825352281474
 20
284.60649646152518
 30
0.0
  0
INSERT
  5
2208
  8
11
  2
STDGX5
 10
1007.193352139031
 20
248.60649618492229
 30
0.0
  0
INSERT
  5
2209
  8
11
  2
STDGX5
 10
940.74249507744275
 20
216.25514521449489
 30
0.0
  0
INSERT
  5
220A
  8
11
  2
STDGX5
 10
1841.3446525479851
 20
462.32683048533949
 30
0.0
  0
INSERT
  5
220B
  8
11
  2
STDGX5
 10
1878.829751164202
 20
426.32683020873662
 30
0.0
  0
INSERT
  5
220C
  8
11
  2
STDGX5
 10
1812.378894102613
 20
393.97547923830922
 30
0.0
  0
INSERT
  5
220D
  8
11
  2
STDGX5
 10
2626.3838991581902
 20
492.48417245189069
 30
0.0
  0
INSERT
  5
220E
  8
11
  2
STDGX5
 10
2663.8689977744061
 20
456.48417217528788
 30
0.0
  0
INSERT
  5
220F
  8
11
  2
STDGX5
 10
2597.4181407128181
 20
424.13282120486042
 30
0.0
  0
INSERT
  5
2210
  8
11
  2
STDGX5
 10
969.70825352281474
 20
284.60649646152518
 30
0.0
  0
INSERT
  5
2211
  8
11
  2
STDGX5
 10
1007.193352139031
 20
248.60649618492229
 30
0.0
  0
INSERT
  5
2212
  8
11
  2
STDGX5
 10
940.74249507744275
 20
216.25514521449489
 30
0.0
  0
INSERT
  5
2213
  8
11
  2
STDGX5
 10
1841.3446525479851
 20
462.32683048533949
 30
0.0
  0
INSERT
  5
2214
  8
11
  2
STDGX5
 10
1878.829751164202
 20
426.32683020873662
 30
0.0
  0
INSERT
  5
2215
  8
11
  2
STDGX5
 10
1812.378894102613
 20
393.97547923830922
 30
0.0
  0
INSERT
  5
2216
  8
11
  2
STDGX5
 10
2626.3838991581902
 20
492.48417245189069
 30
0.0
  0
INSERT
  5
2217
  8
11
  2
STDGX5
 10
2663.8689977744061
 20
456.48417217528788
 30
0.0
  0
INSERT
  5
2218
  8
11
  2
STDGX5
 10
2597.4181407128181
 20
424.13282120486042
 30
0.0
  0
INSERT
  5
2219
  8
11
  2
STDGX5
 10
969.70825352281474
 20
284.60649646152518
 30
0.0
  0
INSERT
  5
221A
  8
11
  2
STDGX5
 10
1007.193352139031
 20
248.60649618492229
 30
0.0
  0
INSERT
  5
221B
  8
11
  2
STDGX5
 10
940.74249507744275
 20
216.25514521449489
 30
0.0
  0
INSERT
  5
221C
  8
11
  2
STDGX5
 10
1841.3446525479851
 20
462.32683048533949
 30
0.0
  0
INSERT
  5
221D
  8
11
  2
STDGX5
 10
1878.829751164202
 20
426.32683020873662
 30
0.0
  0
INSERT
  5
221E
  8
11
  2
STDGX5
 10
1812.378894102613
 20
393.97547923830922
 30
0.0
  0
INSERT
  5
221F
  8
11
  2
STDGX5
 10
2626.3838991581902
 20
492.48417245189069
 30
0.0
  0
INSERT
  5
2220
  8
11
  2
STDGX5
 10
2663.8689977744061
 20
456.48417217528788
 30
0.0
  0
INSERT
  5
2221
  8
11
  2
STDGX5
 10
2597.4181407128181
 20
424.13282120486042
 30
0.0
  0
INSERT
  5
2222
  8
11
  2
STDGX5
 10
969.70825352281474
 20
284.60649646152518
 30
0.0
  0
INSERT
  5
2223
  8
11
  2
STDGX5
 10
1007.193352139031
 20
248.60649618492229
 30
0.0
  0
INSERT
  5
2224
  8
11
  2
STDGX5
 10
940.74249507744275
 20
216.25514521449489
 30
0.0
  0
INSERT
  5
2225
  8
11
  2
STDGX5
 10
1841.3446525479851
 20
462.32683048533949
 30
0.0
  0
INSERT
  5
2226
  8
11
  2
STDGX5
 10
1878.829751164202
 20
426.32683020873662
 30
0.0
  0
INSERT
  5
2227
  8
11
  2
STDGX5
 10
1812.378894102613
 20
393.97547923830922
 30
0.0
  0
INSERT
  5
2228
  8
11
  2
STDGX5
 10
2626.3838991581902
 20
492.48417245189069
 30
0.0
  0
INSERT
  5
2229
  8
11
  2
STDGX5
 10
2663.8689977744061
 20
456.48417217528788
 30
0.0
  0
INSERT
  5
222A
  8
11
  2
STDGX5
 10
2597.4181407128181
 20
424.13282120486042
 30
0.0
  0
INSERT
  5
222B
  8
11
  2
STDGX5
 10
969.70825352281474
 20
284.60649646152518
 30
0.0
  0
INSERT
  5
222C
  8
11
  2
STDGX5
 10
1007.193352139031
 20
248.60649618492229
 30
0.0
  0
INSERT
  5
222D
  8
11
  2
STDGX5
 10
940.74249507744275
 20
216.25514521449489
 30
0.0
  0
INSERT
  5
222E
  8
11
  2
STDGX5
 10
1841.3446525479851
 20
462.32683048533949
 30
0.0
  0
INSERT
  5
222F
  8
11
  2
STDGX5
 10
1878.829751164202
 20
426.32683020873662
 30
0.0
  0
INSERT
  5
2230
  8
11
  2
STDGX5
 10
1812.378894102613
 20
393.97547923830922
 30
0.0
  0
INSERT
  5
2231
  8
11
  2
STDGX5
 10
2626.3838991581902
 20
492.48417245189069
 30
0.0
  0
INSERT
  5
2232
  8
11
  2
STDGX5
 10
2663.8689977744061
 20
456.48417217528788
 30
0.0
  0
INSERT
  5
2233
  8
11
  2
STDGX5
 10
2597.4181407128181
 20
424.13282120486042
 30
0.0
  0
INSERT
  5
2234
  8
11
  2
STDGX5
 10
969.70825352281474
 20
284.60649646152518
 30
0.0
  0
INSERT
  5
2235
  8
11
  2
STDGX5
 10
1007.193352139031
 20
248.60649618492229
 30
0.0
  0
INSERT
  5
2236
  8
11
  2
STDGX5
 10
940.74249507744275
 20
216.25514521449489
 30
0.0
  0
INSERT
  5
2237
  8
11
  2
STDGX5
 10
1841.3446525479851
 20
462.32683048533949
 30
0.0
  0
INSERT
  5
2238
  8
11
  2
STDGX5
 10
1878.829751164202
 20
426.32683020873662
 30
0.0
  0
INSERT
  5
2239
  8
11
  2
STDGX5
 10
1812.378894102613
 20
393.97547923830922
 30
0.0
  0
INSERT
  5
223A
  8
11
  2
STDGX5
 10
2626.3838991581902
 20
492.48417245189069
 30
0.0
  0
INSERT
  5
223B
  8
11
  2
STDGX5
 10
2663.8689977744061
 20
456.48417217528788
 30
0.0
  0
INSERT
  5
223C
  8
11
  2
STDGX5
 10
2597.4181407128181
 20
424.13282120486042
 30
0.0
  0
INSERT
  5
223D
  8
11
  2
STDGX5
 10
1068.440933397806
 20
348.4732862234809
 30
0.0
  0
INSERT
  5
223E
  8
11
  2
STDGX5
 10
1105.9260320140229
 20
312.47328594687792
 30
0.0
  0
INSERT
  5
223F
  8
11
  2
STDGX5
 10
1039.4751749524339
 20
280.12193497645052
 30
0.0
  0
INSERT
  5
2240
  8
11
  2
STDGX5
 10
1940.077332422976
 20
526.19362024729514
 30
0.0
  0
INSERT
  5
2241
  8
11
  2
STDGX5
 10
1977.5624310391929
 20
490.19361997069223
 30
0.0
  0
INSERT
  5
2242
  8
11
  2
STDGX5
 10
1911.1115739776051
 20
457.84226900026471
 30
0.0
  0
INSERT
  5
2243
  8
11
  2
STDGX5
 10
2725.116579033182
 20
556.3509622138464
 30
0.0
  0
INSERT
  5
2244
  8
11
  2
STDGX5
 10
2762.601677649398
 20
520.35096193724337
 30
0.0
  0
INSERT
  5
2245
  8
11
  2
STDGX5
 10
2696.150820587809
 20
487.99961096681602
 30
0.0
  0
INSERT
  5
2246
  8
11
  2
STDGX5
 10
1343.440933397806
 20
373.4733294258977
 30
0.0
  0
INSERT
  5
2247
  8
11
  2
STDGX5
 10
1380.9260320140229
 20
337.47332914929478
 30
0.0
  0
INSERT
  5
2248
  8
11
  2
STDGX5
 10
1314.4751749524339
 20
305.12197817886738
 30
0.0
  0
INSERT
  5
2249
  8
11
  2
STDGX5
 10
2215.0773324229772
 20
551.19366344971206
 30
0.0
  0
INSERT
  5
224A
  8
11
  2
STDGX5
 10
2252.5624310391941
 20
515.19366317310914
 30
0.0
  0
INSERT
  5
224B
  8
11
  2
STDGX5
 10
2186.1115739776051
 20
482.84231220268168
 30
0.0
  0
INSERT
  5
224C
  8
11
  2
STDGX5
 10
3000.116579033182
 20
581.35100541626332
 30
0.0
  0
INSERT
  5
224D
  8
11
  2
STDGX5
 10
3037.601677649398
 20
545.35100513966029
 30
0.0
  0
INSERT
  5
224E
  8
11
  2
STDGX5
 10
2971.150820587809
 20
512.99965416923294
 30
0.0
  0
LINE
  5
2266
  8
1
 10
105.0767616454683
 20
144.37235257602191
 30
0.0
 11
105.07676164546869
 21
191.3723525760216
 31
0.0
  0
LINE
  5
2267
  8
1
 10
114.37676164546831
 20
171.3723525760218
 30
0.0
 11
88.076761645468295
 21
171.3723525760218
 31
0.0
  0
LINE
  5
2288
  8
0
 10
155.66708285833951
 20
184.97235257602151
 30
0.0
 11
255.66708285833951
 21
184.97235257602111
 31
0.0
  0
LINE
  5
2289
  8
0
 10
155.6670828583394
 20
159.3723525760218
 30
0.0
 11
255.6670828583394
 21
159.3723525760214
 31
0.0
  0
LINE
  5
22A6
  8
0
 10
155.66708285833951
 20
237.63765929595601
 30
0.0
 11
255.66708285833951
 21
237.63765929595601
 31
0.0
  0
LINE
  5
22A7
  8
0
 10
155.66708285833931
 20
209.63765929595601
 30
0.0
 11
255.6670828583394
 21
209.63765929595601
 31
0.0
  0
LINE
  5
22A8
  8
0
 10
155.66708285833951
 20
237.63765929595601
 30
0.0
 11
155.66708285833931
 21
209.63765929595601
 31
0.0
  0
LINE
  5
22A9
  8
0
 10
255.66708285833951
 20
237.63765929595559
 30
0.0
 11
255.6670828583394
 21
209.63765929595559
 31
0.0
  0
LINE
  5
22AA
  8
0
 10
155.6670828583394
 20
225.4376592959558
 30
0.0
 11
255.6670828583394
 21
225.43765929595531
 31
0.0
  0
LINE
  5
22AB
  8
0
 10
155.66708285833951
 20
98.107045856086273
 30
0.0
 11
155.66708285833931
 21
126.1070458560862
 31
0.0
  0
LINE
  5
22AC
  8
0
 10
255.66708285833951
 20
98.107045856086685
 30
0.0
 11
255.6670828583394
 21
126.1070458560866
 31
0.0
  0
LINE
  5
22AD
  8
0
 10
155.66708285833931
 20
126.1070458560862
 30
0.0
 11
255.6670828583394
 21
126.1070458560862
 31
0.0
  0
LINE
  5
22AF
  8
0
 10
155.66708285833951
 20
98.107045856086273
 30
0.0
 11
255.66708285833951
 21
98.107045856086273
 31
0.0
  0
LINE
  5
22B0
  8
1
 10
150.6670828583394
 20
223.63765929595601
 30
0.0
 11
260.66708285833943
 21
223.6376592959555
 31
0.0
  0
LINE
  5
22B1
  8
1
 10
150.6670828583394
 20
112.1070458560862
 30
0.0
 11
260.66708285833943
 21
112.1070458560868
 31
0.0
  0
LINE
  5
22CC
  8
0
 10
155.6670828583394
 20
64.841739136151318
 30
0.0
 11
255.6670828583394
 21
64.841739136151688
 31
0.0
  0
LINE
  5
22CE
  8
0
 10
155.66708285833951
 20
35.841739136152
 30
0.0
 11
255.66708285833951
 21
35.841739136152
 31
0.0
  0
LINE
  5
22CF
  8
0
 10
155.66708285833931
 20
76.841739136151205
 30
0.0
 11
255.6670828583394
 21
76.841739136151205
 31
0.0
  0
LINE
  5
22D0
  8
0
 10
155.66708285833951
 20
35.841739136152
 30
0.0
 11
155.66708285833931
 21
76.841739136151205
 31
0.0
  0
LINE
  5
22D1
  8
0
 10
255.66708285833951
 20
35.841739136152398
 30
0.0
 11
255.6670828583394
 21
76.841739136151602
 31
0.0
  0
LINE
  5
22D2
  8
0
 10
155.6670828583394
 20
58.991739136151267
 30
0.0
 11
255.6670828583394
 21
58.991739136151622
 31
0.0
  0
LINE
  5
22D3
  8
2
 10
155.6670828583394
 20
62.191739136151469
 30
0.0
 11
255.6670828583394
 21
62.191739136151831
 31
0.0
  0
LINE
  5
22D4
  8
0
 10
155.66708285833951
 20
46.691739136151241
 30
0.0
 11
255.6670828583394
 21
46.6917391361509
 31
0.0
  0
LINE
  5
22D5
  8
2
 10
155.66708285833951
 20
43.49173913615104
 30
0.0
 11
255.6670828583394
 21
43.491739136150699
 31
0.0
  0
LINE
  5
22D7
  8
1
 10
150.6670828583394
 20
52.84173913615124
 30
0.0
 11
260.66708285833943
 21
52.841739136151631
 31
0.0
  0
TEXT
  5
23EF
  8
0
 62
     3
 10
0.0
 20
0.0
 30
0.0
 40
10.0
  1
GLGC60
  7
STANDARD1
  0
ENDSEC
  0
EOF
