  0
SECTION
  2
HEADER
  9
$ACADVER
  1
AC1009
  9
$INSBASE
 10
0.0
 20
0.0
 30
0.0
  9
$EXTMIN
 10
0.0
 20
-2.960436562073669
 30
0.0
  9
$EXTMAX
 10
308.97825528306902
 20
209.9647612513765
 30
0.0
  9
$LIMMIN
 10
0.0
 20
0.0
  9
$LIMMAX
 10
375.0
 20
270.0
  9
$ORTHOMODE
 70
     1
  9
$REGENMODE
 70
     1
  9
$FILLMODE
 70
     1
  9
$QTEXTMODE
 70
     0
  9
$MIRRTEXT
 70
     0
  9
$DRAGMODE
 70
     2
  9
$LTSCALE
 40
10.0
  9
$OSMODE
 70
  3071
  9
$ATTMODE
 70
     1
  9
$TEXTSIZE
 40
0.2
  9
$TRACEWID
 40
0.05
  9
$TEXTSTYLE
  7
STANDARD
  9
$CLAYER
  8
0
  9
$CELTYPE
  6
BYLAYER
  9
$CECOLOR
 62
   256
  9
$DIMSCALE
 40
1.0
  9
$DIMASZ
 40
3.0
  9
$DIMEXO
 40
2.0
  9
$DIMDLI
 40
0.38
  9
$DIMRND
 40
0.0
  9
$DIMDLE
 40
0.0
  9
$DIMEXE
 40
2.0
  9
$DIMTP
 40
0.0
  9
$DIMTM
 40
0.0
  9
$DIMTXT
 40
3.2000000000000002
  9
$DIMCEN
 40
0.0
  9
$DIMTSZ
 40
0.0
  9
$DIMTOL
 70
     0
  9
$DIMLIM
 70
     0
  9
$DIMTIH
 70
     0
  9
$DIMTOH
 70
     0
  9
$DIMSE1
 70
     0
  9
$DIMSE2
 70
     0
  9
$DIMTAD
 70
     1
  9
$DIMZIN
 70
     0
  9
$DIMBLK
  1

  9
$DIMASO
 70
     1
  9
$DIMSHO
 70
     0
  9
$DIMPOST
  1

  9
$DIMAPOST
  1

  9
$DIMALT
 70
     0
  9
$DIMALTD
 70
     2
  9
$DIMALTF
 40
25.399999999999999
  9
$DIMLFAC
 40
1.0
  9
$DIMTOFL
 70
     0
  9
$DIMTVP
 40
1.6000000000000001
  9
$DIMTIX
 70
     1
  9
$DIMSOXD
 70
     0
  9
$DIMSAH
 70
     0
  9
$DIMBLK1
  1

  9
$DIMBLK2
  1

  9
$DIMSTYLE
  2
STANDARD
  9
$DIMCLRD
 70
     0
  9
$DIMCLRE
 70
     0
  9
$DIMCLRT
 70
     0
  9
$DIMTFAC
 40
1.0
  9
$DIMGAP
 40
0.09
  9
$LUNITS
 70
     2
  9
$LUPREC
 70
     4
  9
$SKETCHINC
 40
0.1
  9
$FILLETRAD
 40
0.5
  9
$AUNITS
 70
     0
  9
$AUPREC
 70
     0
  9
$MENU
  1
E:\r13\win\SUPPORT\ACAD
  9
$ELEVATION
 40
0.0
  9
$PELEVATION
 40
0.0
  9
$THICKNESS
 40
0.0
  9
$LIMCHECK
 70
     0
  9
$BLIPMODE
 70
     0
  9
$CHAMFERA
 40
0.0
  9
$CHAMFERB
 40
0.0
  9
$SKPOLY
 70
     0
  9
$TDCREATE
 40
2448181.708503935
  9
$TDUPDATE
 40
2456598.6893322691
  9
$TDINDWG
 40
0.0016050116
  9
$TDUSRTIMER
 40
0.0016050116
  9
$USRTIMER
 70
     1
  9
$ANGBASE
 50
0.0
  9
$ANGDIR
 70
     0
  9
$PDMODE
 70
     0
  9
$PDSIZE
 40
0.0
  9
$PLINEWID
 40
0.0
  9
$COORDS
 70
     1
  9
$SPLFRAME
 70
     0
  9
$SPLINETYPE
 70
     6
  9
$SPLINESEGS
 70
     8
  9
$ATTDIA
 70
     0
  9
$ATTREQ
 70
     1
  9
$HANDLING
 70
     1
  9
$HANDSEED
  5
2C5
  9
$SURFTAB1
 70
     6
  9
$SURFTAB2
 70
     6
  9
$SURFTYPE
 70
     6
  9
$SURFU
 70
     6
  9
$SURFV
 70
     6
  9
$UCSNAME
  2

  9
$UCSORG
 10
0.0
 20
0.0
 30
0.0
  9
$UCSXDIR
 10
1.0
 20
0.0
 30
0.0
  9
$UCSYDIR
 10
0.0
 20
1.0
 30
0.0
  9
$PUCSNAME
  2

  9
$PUCSORG
 10
0.0
 20
0.0
 30
0.0
  9
$PUCSXDIR
 10
1.0
 20
0.0
 30
0.0
  9
$PUCSYDIR
 10
0.0
 20
1.0
 30
0.0
  9
$USERI1
 70
     0
  9
$USERI2
 70
     1
  9
$USERI3
 70
     1
  9
$USERI4
 70
     0
  9
$USERI5
 70
     0
  9
$USERR1
 40
0.0
  9
$USERR2
 40
0.0
  9
$USERR3
 40
0.0
  9
$USERR4
 40
0.0
  9
$USERR5
 40
0.0
  9
$WORLDVIEW
 70
     1
  9
$SHADEDGE
 70
     3
  9
$SHADEDIF
 70
    70
  9
$TILEMODE
 70
     1
  9
$MAXACTVP
 70
    16
  9
$PLIMCHECK
 70
     0
  9
$PEXTMIN
 10
1.0000000000000000E+020
 20
1.0000000000000000E+020
 30
1.0000000000000000E+020
  9
$PEXTMAX
 10
-1.0000000000000000E+020
 20
-1.0000000000000000E+020
 30
-1.0000000000000000E+020
  9
$PLIMMIN
 10
0.0
 20
0.0
  9
$PLIMMAX
 10
12.0
 20
9.0
  9
$UNITMODE
 70
     0
  9
$VISRETAIN
 70
     0
  9
$PLINEGEN
 70
     0
  9
$PSLTSCALE
 70
     0
  0
ENDSEC
  0
SECTION
  2
TABLES
  0
TABLE
  2
VPORT
 70
     1
  0
VPORT
  2
*ACTIVE
 70
     0
 10
0.0
 20
0.0
 11
1.0
 21
1.0
 12
187.49427839065231
 22
134.10366293909439
 13
0.0
 23
0.0
 14
10.0
 24
10.0
 15
10.0
 25
10.0
 16
0.0
 26
0.0
 36
1.0
 17
0.0
 27
0.0
 37
0.0
 40
277.29405978699532
 41
2.304913294797688
 42
50.0
 43
0.0
 44
0.0
 50
0.0
 51
0.0
 71
     0
 72
   500
 73
     1
 74
     0
 75
     0
 76
     0
 77
     0
 78
     1
  0
ENDTAB
  0
TABLE
  2
LTYPE
 70
     3
  0
LTYPE
  2
CONTINUOUS
 70
     0
  3
Solid Line
 72
    65
 73
     0
 40
0.0
  0
LTYPE
  2
CENTER
 70
     0
  3
____ _ ____ _ ____ _ ____ _ ____ _ ____ _ ____
 72
    65
 73
     4
 40
2.0
 49
1.25
 49
-0.25
 49
0.25
 49
-0.25
  0
LTYPE
  2
PHANTOM2
 70
     0
  3
___ _ _ ___ _ _ ___ _ _ ___ _ _
 72
    65
 73
     6
 40
1.25
 49
0.625
 49
-0.125
 49
0.125
 49
-0.125
 49
0.125
 49
-0.125
  0
ENDTAB
  0
TABLE
  2
LAYER
 70
     3
  0
LAYER
  2
0
 70
     0
 62
     7
  6
CONTINUOUS
  0
LAYER
  2
1
 70
     0
 62
     1
  6
CENTER
  0
LAYER
  2
3
 70
     0
 62
     3
  6
CONTINUOUS
  0
ENDTAB
  0
TABLE
  2
STYLE
 70
     2
  0
STYLE
  2
STANDARD
 70
     0
 40
0.0
 41
1.0
 50
0.0
 71
     0
 42
0.2
  3
TXT
  4
BIGFONT
  0
STYLE
  2
STANDARD1
 70
     0
 40
0.0
 41
1.0
 50
0.0
 71
     0
 42
3.0
  3
txt
  4

  0
ENDTAB
  0
TABLE
  2
VIEW
 70
     1
  0
VIEW
  2
ALL
 70
     0
 40
270.0
 10
220.99159663865549
 20
135.0
 41
0.0
 11
0.0
 21
0.0
 31
1.0
 12
0.0
 22
0.0
 32
0.0
 42
0.0
 43
0.0
 44
0.0
 50
0.0
 71
     0
  0
ENDTAB
  0
TABLE
  2
UCS
 70
     0
  0
ENDTAB
  0
TABLE
  2
APPID
 70
     3
  0
APPID
  2
ACAD
 70
     0
  0
APPID
  2
ACAD_MLEADERVER
 70
     0
  0
APPID
  2
ACAD_NAV_VCDISPLAY
 70
     0
  0
ENDTAB
  0
TABLE
  2
DIMSTYLE
 70
     1
  0
DIMSTYLE
  2
STANDARD
 70
     0
  3

  4

  5

  6

  7

 40
1.0
 41
0.18
 42
0.0625
 43
0.38
 44
0.18
 45
0.0
 46
0.0
 47
0.0
 48
0.0
140
0.18
141
0.09
142
0.0
143
25.399999999999999
144
1.0
145
0.0
146
1.0
147
0.09
 71
     0
 72
     0
 73
     1
 74
     1
 75
     0
 76
     0
 77
     0
 78
     0
170
     0
171
     2
172
     0
173
     0
174
     0
175
     0
176
     0
177
     0
178
     0
  0
ENDTAB
  0
ENDSEC
  0
SECTION
  2
BLOCKS
  0
BLOCK
  8
0
  2
$MODEL_SPACE
 70
     0
 10
0.0
 20
0.0
 30
0.0
  3
$MODEL_SPACE
  1

  0
ENDBLK
  5
13A
  8
0
  0
BLOCK
 67
     1
  8
0
  2
$PAPER_SPACE
 70
     0
 10
0.0
 20
0.0
 30
0.0
  3
$PAPER_SPACE
  1

  0
ENDBLK
  5
138
 67
     1
  8
0
  0
ENDSEC
  0
SECTION
  2
ENTITIES
  0
CIRCLE
  5
34
  8
0
 10
93.978255283069103
 20
140.0
 30
0.0
 40
10.0
  0
CIRCLE
  5
35
  8
0
 10
93.978255283069103
 20
140.0
 30
0.0
 40
7.0
  0
LINE
  5
36
  8
1
 10
78.978255283069132
 20
140.0
 30
0.0
 11
108.978255283069
 21
140.0
 31
0.0
  0
LINE
  5
37
  8
1
 10
93.978255283069103
 20
155.0
 30
0.0
 11
93.978255283069103
 21
125.0000000000001
 31
0.0
  0
LINE
  5
38
  8
1
 10
144.24344126956771
 20
140.0
 30
0.0
 11
235.74344126956771
 21
140.0
 31
0.0
  0
LINE
  5
39
  8
0
 10
173.24344126956771
 20
147.0
 30
0.0
 11
176.01139046200089
 21
147.0
 31
0.0
  0
LINE
  5
3A
  8
0
 10
172.74344126956771
 20
146.5
 30
0.0
 11
172.74344126956771
 21
142.90000000000001
 31
0.0
  0
ARC
  5
3B
  8
0
 10
206.74344126956771
 20
170.5
 30
0.0
 40
40.499999999999993
 50
246.73663372381
 51
303.1746771138549
  0
ARC
  5
3C
  8
0
 10
173.24344126956771
 20
146.5
 30
0.0
 40
0.5
 50
90.0
 51
180.0
  0
ARC
  5
3D
  8
0
 10
206.74344126956771
 20
109.5
 30
0.0
 40
40.499999999999993
 50
56.825322886145173
 51
113.2633532385681
  0
ARC
  5
3E
  8
0
 10
226.68283520896171
 20
140.0
 30
0.0
 40
4.0606060606060543
 50
303.17467711386041
 51
56.82532288613961
  0
ARC
  5
3F
  8
0
 10
182.45352566658539
 20
166.00000000000011
 30
0.0
 40
21.0
 50
270.0
 51
293.26335323856807
  0
ARC
  5
40
  8
0
 10
179.4754920771345
 20
147.0
 30
0.0
 40
2.0
 50
210.00000000009771
 51
270.00000000008959
  0
ARC
  5
41
  8
0
 10
176.0113904619983
 20
145.0
 30
0.0
 40
2.0
 50
29.99999999999261
 51
89.999999999955207
  0
LINE
  5
42
  8
0
 10
179.47549207713709
 20
145.0
 30
0.0
 11
182.45352566658539
 21
145.0
 31
0.0
  0
LINE
  5
43
  8
0
 10
179.47549207713709
 20
135.0
 30
0.0
 11
182.45352566658539
 21
135.0
 31
0.0
  0
ARC
  5
44
  8
0
 10
176.0113904619983
 20
135.0
 30
0.0
 40
2.0
 50
270.00000000004479
 51
330.00000000000739
  0
ARC
  5
45
  8
0
 10
179.4754920771345
 20
133.00000000000011
 30
0.0
 40
2.0
 50
89.999999999910429
 51
149.9999999999022
  0
ARC
  5
46
  8
0
 10
182.45352566658539
 20
114.0
 30
0.0
 40
21.0
 50
66.736646761431885
 51
90.0
  0
ARC
  5
47
  8
0
 10
173.24344126956771
 20
133.50000000000011
 30
0.0
 40
0.5
 50
180.0
 51
270.0
  0
LINE
  5
48
  8
0
 10
173.24344126956771
 20
133.00000000000011
 30
0.0
 11
176.01139046200089
 21
133.00000000000011
 31
0.0
  0
ARC
  5
49
  8
0
 10
172.64344126956769
 20
143.30000000000001
 30
0.0
 40
0.4
 50
180.0
 51
284.4775121861145
  0
ARC
  5
4A
  8
0
 10
172.64344126956769
 20
136.69999999999999
 30
0.0
 40
0.4
 50
75.522487814053932
 51
179.99999999999989
  0
LINE
  5
51
  8
3
 10
170.24344126956771
 20
144.15331193145749
 30
0.0
 11
164.24344126956771
 21
135.84668806854251
 31
0.0
  0
LINE
  5
52
  8
3
 10
170.24344126956771
 20
135.84668806854251
 30
0.0
 11
164.24344126956771
 21
144.15331193145749
 31
0.0
  0
LINE
  5
53
  8
0
 10
172.24344126956771
 20
133.80000000000001
 30
0.0
 11
171.9434412695677
 21
133.5
 31
0.0
  0
LINE
  5
54
  8
0
 10
171.9434412695677
 20
146.5
 30
0.0
 11
172.24344126956771
 21
146.19999999999999
 31
0.0
  0
LINE
  5
55
  8
0
 10
164.24344126956771
 20
144.15331193145749
 30
0.0
 11
170.24344126956771
 21
144.15331193145749
 31
0.0
  0
LINE
  5
57
  8
0
 10
149.24344126956771
 20
137.19999999999999
 30
0.0
 11
150.4434412695677
 21
136.0
 31
0.0
  0
LINE
  5
58
  8
0
 10
150.4434412695677
 20
144.0
 30
0.0
 11
149.24344126956771
 21
142.80000000000001
 31
0.0
  0
LINE
  5
59
  8
0
 10
164.24344126956771
 20
133.80000000000001
 30
0.0
 11
164.54344126956769
 21
133.5
 31
0.0
  0
LINE
  5
5A
  8
0
 10
164.54344126956769
 20
146.5
 30
0.0
 11
164.24344126956771
 21
146.19999999999999
 31
0.0
  0
LINE
  5
5B
  8
0
 10
150.4434412695677
 20
136.0
 30
0.0
 11
150.4434412695677
 21
144.0
 31
0.0
  0
LINE
  5
5C
  8
0
 10
170.24344126956771
 20
135.84668806854251
 30
0.0
 11
170.24344126956771
 21
144.15331193145749
 31
0.0
  0
LINE
  5
5D
  8
0
 10
172.24344126956771
 20
133.80000000000001
 30
0.0
 11
172.24344126956771
 21
146.19999999999999
 31
0.0
  0
LINE
  5
5E
  8
0
 10
164.24344126956771
 20
133.80000000000001
 30
0.0
 11
164.24344126956771
 21
146.19999999999999
 31
0.0
  0
LINE
  5
5F
  8
0
 10
149.24344126956771
 20
137.19999999999999
 30
0.0
 11
149.24344126956771
 21
142.80000000000001
 31
0.0
  0
LINE
  5
60
  8
3
 10
149.7669412695677
 20
143.3235
 30
0.0
 11
164.24344126956771
 21
143.3235
 31
0.0
  0
LINE
  5
61
  8
3
 10
149.7669412695677
 20
136.6765
 30
0.0
 11
164.24344126956771
 21
136.6765
 31
0.0
  0
LINE
  5
62
  8
0
 10
150.4434412695677
 20
144.0
 30
0.0
 11
164.24344126956771
 21
144.0
 31
0.0
  0
LINE
  5
63
  8
0
 10
150.4434412695677
 20
136.0
 30
0.0
 11
164.24344126956771
 21
136.0
 31
0.0
  0
LINE
  5
64
  8
0
 10
164.54344126956769
 20
146.5
 30
0.0
 11
171.9434412695677
 21
146.5
 31
0.0
  0
LINE
  5
65
  8
0
 10
164.54344126956769
 20
133.5
 30
0.0
 11
171.9434412695677
 21
133.5
 31
0.0
  0
LINE
  5
66
  8
0
 10
164.24344126956771
 20
135.84668806854251
 30
0.0
 11
170.24344126956771
 21
135.84668806854251
 31
0.0
  0
LINE
  5
67
  8
0
 10
98.978255283070411
 20
144.15331193145749
 30
0.0
 11
98.978255283070411
 21
135.8466880685427
 31
0.0
  0
LINE
  5
68
  8
0
 10
88.978255283068393
 20
144.15331193145789
 30
0.0
 11
88.978255283068393
 21
135.84668806854179
 31
0.0
  0
CIRCLE
  5
69
  8
3
 10
93.978255283069103
 20
140.0
 30
0.0
 40
3.3235000000000001
  0
CIRCLE
  5
6A
  8
0
 10
93.978255283069103
 20
140.0
 30
0.0
 40
4.0
  0
CIRCLE
  5
6B
  8
0
 10
93.978255283069103
 20
140.0
 30
0.0
 40
6.5
  0
LINE
  5
6C
  8
0
 10
172.7434412695676
 20
142.91270166538209
 30
0.0
 11
172.74344126956771
 21
133.49999904632571
 31
0.0
  0
LINE
  5
6D
  8
1
 10
293.97825528306907
 20
155.0
 30
0.0
 11
293.97825528306907
 21
125.0000000000001
 31
0.0
  0
LINE
  5
6E
  8
1
 10
278.97825528306907
 20
140.0
 30
0.0
 11
308.97825528306902
 21
140.0
 31
0.0
  0
CIRCLE
  5
6F
  8
0
 10
293.97825528306907
 20
140.0
 30
0.0
 40
10.0
  0
LINE
  5
70
  8
0
 10
172.7434412695676
 20
202.91270166538209
 30
0.0
 11
172.74344126956771
 21
193.49999904632571
 31
0.0
  0
LINE
  5
71
  8
0
 10
170.24344126956771
 20
193.5
 30
0.0
 11
171.9434412695677
 21
193.5
 31
0.0
  0
LINE
  5
72
  8
0
 10
170.24344126956771
 20
206.5
 30
0.0
 11
171.9434412695677
 21
206.5
 31
0.0
  0
LINE
  5
73
  8
0
 10
150.4434412695677
 20
196.0
 30
0.0
 11
164.24344126956771
 21
196.00000000000011
 31
0.0
  0
LINE
  5
74
  8
0
 10
150.4434412695677
 20
204.0
 30
0.0
 11
164.24344126956771
 21
204.00000000000011
 31
0.0
  0
LINE
  5
75
  8
3
 10
149.7669412695677
 20
196.6765
 30
0.0
 11
164.24344126956771
 21
196.6765
 31
0.0
  0
LINE
  5
76
  8
3
 10
149.7669412695677
 20
203.3235
 30
0.0
 11
164.24344126956771
 21
203.3235
 31
0.0
  0
LINE
  5
77
  8
0
 10
149.24344126956771
 20
197.2000000000001
 30
0.0
 11
149.24344126956771
 21
202.80000000000001
 31
0.0
  0
LINE
  5
78
  8
0
 10
164.24344126956771
 20
194.99999999999929
 30
0.0
 11
164.24344126956771
 21
205.00000000000131
 31
0.0
  0
LINE
  5
79
  8
0
 10
172.24344126956771
 20
193.80000000000001
 30
0.0
 11
172.24344126956771
 21
206.19999999999999
 31
0.0
  0
LINE
  5
7A
  8
0
 10
170.24344126956771
 20
193.5
 30
0.0
 11
170.24344126956771
 21
194.99999999999929
 31
0.0
  0
LINE
  5
7B
  8
0
 10
150.4434412695677
 20
196.0
 30
0.0
 11
150.4434412695677
 21
204.0
 31
0.0
  0
LINE
  5
7C
  8
0
 10
150.4434412695677
 20
204.0
 30
0.0
 11
149.24344126956771
 21
202.80000000000001
 31
0.0
  0
LINE
  5
7D
  8
0
 10
149.24344126956771
 20
197.2000000000001
 30
0.0
 11
150.4434412695677
 21
196.0
 31
0.0
  0
LINE
  5
7F
  8
0
 10
171.9434412695677
 20
206.5
 30
0.0
 11
172.24344126956771
 21
206.19999999999999
 31
0.0
  0
LINE
  5
80
  8
0
 10
172.24344126956771
 20
193.80000000000001
 30
0.0
 11
171.9434412695677
 21
193.5
 31
0.0
  0
ARC
  5
87
  8
0
 10
172.64344126956769
 20
196.69999999999999
 30
0.0
 40
0.4
 50
75.522487814053932
 51
179.99999999999989
  0
ARC
  5
88
  8
0
 10
172.64344126956769
 20
203.30000000000001
 30
0.0
 40
0.4
 50
180.0
 51
284.4775121861145
  0
LINE
  5
89
  8
0
 10
173.24344126956771
 20
193.00000000000011
 30
0.0
 11
176.01139046200089
 21
193.00000000000011
 31
0.0
  0
ARC
  5
8A
  8
0
 10
173.24344126956771
 20
193.50000000000011
 30
0.0
 40
0.5
 50
180.0
 51
270.0
  0
ARC
  5
8B
  8
0
 10
182.45352566658539
 20
174.0
 30
0.0
 40
21.0
 50
66.736646761431885
 51
90.0
  0
ARC
  5
8C
  8
0
 10
179.4754920771345
 20
193.00000000000011
 30
0.0
 40
2.0
 50
89.999999999910429
 51
149.9999999999022
  0
ARC
  5
8D
  8
0
 10
176.0113904619983
 20
195.0
 30
0.0
 40
2.0
 50
270.00000000004479
 51
330.00000000000739
  0
LINE
  5
8E
  8
0
 10
179.47549207713709
 20
195.0
 30
0.0
 11
182.45352566658539
 21
195.0
 31
0.0
  0
LINE
  5
8F
  8
0
 10
179.47549207713709
 20
205.0
 30
0.0
 11
182.45352566658539
 21
205.00000000000011
 31
0.0
  0
ARC
  5
90
  8
0
 10
176.0113904619983
 20
205.0
 30
0.0
 40
2.0
 50
29.99999999999261
 51
89.999999999955207
  0
ARC
  5
91
  8
0
 10
179.4754920771345
 20
207.0
 30
0.0
 40
2.0
 50
210.00000000009771
 51
270.00000000008959
  0
ARC
  5
92
  8
0
 10
182.45352566658539
 20
226.00000000000011
 30
0.0
 40
21.0
 50
270.0
 51
293.26335323856807
  0
ARC
  5
93
  8
0
 10
226.68283520896171
 20
200.0
 30
0.0
 40
4.0606060606060543
 50
303.17467711386041
 51
56.82532288613961
  0
ARC
  5
94
  8
0
 10
206.74344126956771
 20
169.5
 30
0.0
 40
40.499999999999993
 50
56.825322886145173
 51
113.2633532385681
  0
ARC
  5
95
  8
0
 10
173.24344126956771
 20
206.5
 30
0.0
 40
0.5
 50
90.0
 51
180.0
  0
ARC
  5
96
  8
0
 10
206.74344126956771
 20
230.50000000000011
 30
0.0
 40
40.499999999999993
 50
246.73663372381
 51
303.1746771138549
  0
LINE
  5
97
  8
0
 10
172.74344126956771
 20
206.5
 30
0.0
 11
172.74344126956771
 21
202.90000000000001
 31
0.0
  0
LINE
  5
98
  8
0
 10
173.24344126956771
 20
207.0
 30
0.0
 11
176.01139046200089
 21
207.0
 31
0.0
  0
LINE
  5
99
  8
1
 10
144.24344126956771
 20
200.0
 30
0.0
 11
235.74344126956771
 21
200.0
 31
0.0
  0
LINE
  5
9A
  8
0
 10
164.24344126956771
 20
205.00000000000131
 30
0.0
 11
170.24344126956771
 21
205.00000000000131
 31
0.0
  0
LINE
  5
9B
  8
0
 10
164.2434412695678
 20
194.99999999999929
 30
0.0
 11
170.24344126956771
 21
194.99999999999929
 31
0.0
  0
LINE
  5
9C
  8
0
 10
164.2434412695678
 20
85.000000000000753
 30
0.0
 11
170.24344126956771
 21
85.000000000000753
 31
0.0
  0
LINE
  5
9D
  8
0
 10
164.24344126956771
 20
74.999999999998806
 30
0.0
 11
170.24344126956771
 21
74.999999999998778
 31
0.0
  0
LINE
  5
9E
  8
1
 10
144.24344126956771
 20
80.000000000000028
 30
0.0
 11
235.74344126956771
 21
80.000000000000028
 31
0.0
  0
LINE
  5
9F
  8
0
 10
173.24344126956771
 20
73.000000000000057
 30
0.0
 11
176.01139046200089
 21
73.000000000000057
 31
0.0
  0
LINE
  5
A0
  8
0
 10
172.74344126956771
 20
73.500000000000057
 30
0.0
 11
172.74344126956771
 21
77.100000000000051
 31
0.0
  0
ARC
  5
A1
  8
0
 10
206.74344126956771
 20
49.5
 30
0.0
 40
40.499999999999993
 50
56.825322886145187
 51
113.26336627619
  0
ARC
  5
A2
  8
0
 10
173.24344126956771
 20
73.500000000000057
 30
0.0
 40
0.5
 50
180.0
 51
270.0
  0
ARC
  5
A3
  8
0
 10
206.74344126956771
 20
110.5
 30
0.0
 40
40.499999999999993
 50
246.7366467614319
 51
303.1746771138549
  0
ARC
  5
A4
  8
0
 10
226.68283520896171
 20
80.000000000000028
 30
0.0
 40
4.0606060606060543
 50
303.17467711386041
 51
56.825322886139588
  0
ARC
  5
A5
  8
0
 10
182.45352566658539
 20
53.999999999999972
 30
0.0
 40
21.0
 50
66.736646761431913
 51
90.000000000000014
  0
ARC
  5
A6
  8
0
 10
179.4754920771345
 20
73.000000000000057
 30
0.0
 40
2.0
 50
89.999999999910443
 51
149.99999999990229
  0
ARC
  5
A7
  8
0
 10
176.0113904619983
 20
75.000000000000028
 30
0.0
 40
2.0
 50
270.00000000004479
 51
330.00000000000739
  0
LINE
  5
A8
  8
0
 10
179.47549207713709
 20
75.000000000000028
 30
0.0
 11
182.45352566658539
 21
75.0
 31
0.0
  0
LINE
  5
A9
  8
0
 10
179.47549207713709
 20
85.0
 30
0.0
 11
182.45352566658539
 21
85.000000000000028
 31
0.0
  0
ARC
  5
AA
  8
0
 10
176.0113904619983
 20
85.0
 30
0.0
 40
2.0
 50
29.9999999999926
 51
89.999999999955236
  0
ARC
  5
AB
  8
0
 10
179.4754920771345
 20
86.999999999999972
 30
0.0
 40
2.0
 50
210.00000000009771
 51
270.00000000008959
  0
ARC
  5
AC
  8
0
 10
182.45352566658539
 20
106.0
 30
0.0
 40
21.0
 50
270.0
 51
293.26335323856807
  0
ARC
  5
AD
  8
0
 10
173.24344126956771
 20
86.499999999999957
 30
0.0
 40
0.5
 50
90.000000000000014
 51
180.0
  0
LINE
  5
AE
  8
0
 10
173.24344126956771
 20
86.999999999999972
 30
0.0
 11
176.01139046200089
 21
86.999999999999972
 31
0.0
  0
ARC
  5
AF
  8
0
 10
172.64344126956769
 20
76.700000000000017
 30
0.0
 40
0.4
 50
75.522487813885505
 51
180.0
  0
ARC
  5
B0
  8
0
 10
172.64344126956769
 20
83.300000000000026
 30
0.0
 40
0.4
 50
180.00000000000011
 51
284.47751218594613
  0
LINE
  5
B7
  8
0
 10
172.24344126956771
 20
86.200000000000017
 30
0.0
 11
171.9434412695677
 21
86.500000000000028
 31
0.0
  0
LINE
  5
B8
  8
0
 10
171.9434412695677
 20
73.5
 30
0.0
 11
172.24344126956771
 21
73.800000000000011
 31
0.0
  0
LINE
  5
BA
  8
0
 10
149.24344126956771
 20
82.799999999999983
 30
0.0
 11
150.4434412695677
 21
84.0
 31
0.0
  0
LINE
  5
BB
  8
0
 10
150.4434412695677
 20
76.000000000000028
 30
0.0
 11
149.24344126956771
 21
77.200000000000017
 31
0.0
  0
LINE
  5
BC
  8
0
 10
150.4434412695677
 20
84.0
 30
0.0
 11
150.4434412695677
 21
76.0
 31
0.0
  0
LINE
  5
BD
  8
0
 10
170.24344126956771
 20
86.5
 30
0.0
 11
170.24344126956771
 21
85.000000000000753
 31
0.0
  0
LINE
  5
BE
  8
0
 10
172.24344126956771
 20
86.200000000000017
 30
0.0
 11
172.24344126956771
 21
73.800000000000011
 31
0.0
  0
LINE
  5
BF
  8
0
 10
164.24344126956771
 20
85.000000000000753
 30
0.0
 11
164.24344126956771
 21
74.999999999998806
 31
0.0
  0
LINE
  5
C0
  8
0
 10
149.24344126956771
 20
82.799999999999983
 30
0.0
 11
149.24344126956771
 21
77.200000000000017
 31
0.0
  0
LINE
  5
C1
  8
3
 10
149.7669412695677
 20
76.676500000000004
 30
0.0
 11
164.24344126956771
 21
76.676500000000047
 31
0.0
  0
LINE
  5
C2
  8
3
 10
149.7669412695677
 20
83.323499999999996
 30
0.0
 11
164.24344126956771
 21
83.323499999999996
 31
0.0
  0
LINE
  5
C3
  8
0
 10
150.4434412695677
 20
76.000000000000028
 30
0.0
 11
164.24344126956771
 21
76.0
 31
0.0
  0
LINE
  5
C4
  8
0
 10
150.4434412695677
 20
84.0
 30
0.0
 11
164.24344126956771
 21
84.000000000000014
 31
0.0
  0
LINE
  5
C5
  8
0
 10
170.24344126956771
 20
73.5
 30
0.0
 11
171.9434412695677
 21
73.5
 31
0.0
  0
LINE
  5
C6
  8
0
 10
170.24344126956771
 20
86.500000000000028
 30
0.0
 11
171.9434412695677
 21
86.500000000000028
 31
0.0
  0
LINE
  5
C7
  8
0
 10
172.7434412695676
 20
77.087298334617941
 30
0.0
 11
172.74344126956771
 21
86.500000953674288
 31
0.0
  0
LINE
  5
C8
  8
0
 10
170.24344126956771
 20
205.00000000000131
 30
0.0
 11
170.24344126956771
 21
206.50000000000011
 31
0.0
  0
LINE
  5
C9
  8
0
 10
170.24344126956771
 20
74.999999999998778
 30
0.0
 11
170.24344126956771
 21
73.499999999999972
 31
0.0
  0
TEXT
  5
230
  8
0
 62
     3
 10
0.0
 20
0.0
 30
0.0
 40
10.0
  1
GR20
  7
STANDARD1
  0
ENDSEC
  0
EOF
