  0
SECTION
  2
HEADER
  9
$ACADVER
  1
AC1009
  9
$INSBASE
 10
0.0
 20
0.0
 30
0.0
  9
$EXTMIN
 10
0.0
 20
-2.960436562073669
 30
0.0
  9
$EXTMAX
 10
117.0
 20
70.0
 30
0.0
  9
$LIMMIN
 10
0.0
 20
0.0
  9
$LIMMAX
 10
187.5
 20
135.0
  9
$ORTHOMODE
 70
     0
  9
$REGENMODE
 70
     1
  9
$FILLMODE
 70
     1
  9
$QTEXTMODE
 70
     0
  9
$MIRRTEXT
 70
     0
  9
$DRAGMODE
 70
     2
  9
$LTSCALE
 40
5.0
  9
$OSMODE
 70
  3071
  9
$ATTMODE
 70
     1
  9
$TEXTSIZE
 40
0.2
  9
$TRACEWID
 40
0.05
  9
$TEXTSTYLE
  7
STANDARD
  9
$CLAYER
  8
0
  9
$CELTYPE
  6
BYLAYER
  9
$CECOLOR
 62
   256
  9
$DIMSCALE
 40
0.5
  9
$DIMASZ
 40
3.0
  9
$DIMEXO
 40
2.0
  9
$DIMDLI
 40
0.3799999999999999
  9
$DIMRND
 40
0.0
  9
$DIMDLE
 40
0.0
  9
$DIMEXE
 40
2.0
  9
$DIMTP
 40
0.0
  9
$DIMTM
 40
0.0
  9
$DIMTXT
 40
3.2000000000000002
  9
$DIMCEN
 40
0.09
  9
$DIMTSZ
 40
0.0
  9
$DIMTOL
 70
     0
  9
$DIMLIM
 70
     0
  9
$DIMTIH
 70
     0
  9
$DIMTOH
 70
     0
  9
$DIMSE1
 70
     0
  9
$DIMSE2
 70
     0
  9
$DIMTAD
 70
     1
  9
$DIMZIN
 70
     0
  9
$DIMBLK
  1

  9
$DIMASO
 70
     0
  9
$DIMSHO
 70
     0
  9
$DIMPOST
  1

  9
$DIMAPOST
  1

  9
$DIMALT
 70
     0
  9
$DIMALTD
 70
     2
  9
$DIMALTF
 40
25.399999999999999
  9
$DIMLFAC
 40
1.0
  9
$DIMTOFL
 70
     0
  9
$DIMTVP
 40
1.6000000000000001
  9
$DIMTIX
 70
     1
  9
$DIMSOXD
 70
     0
  9
$DIMSAH
 70
     0
  9
$DIMBLK1
  1

  9
$DIMBLK2
  1

  9
$DIMSTYLE
  2
STANDARD
  9
$DIMCLRD
 70
     0
  9
$DIMCLRE
 70
     0
  9
$DIMCLRT
 70
     0
  9
$DIMTFAC
 40
1.0
  9
$DIMGAP
 40
0.09
  9
$LUNITS
 70
     2
  9
$LUPREC
 70
     4
  9
$SKETCHINC
 40
0.1
  9
$FILLETRAD
 40
0.4
  9
$AUNITS
 70
     0
  9
$AUPREC
 70
     0
  9
$MENU
  1
E:\r13\win\SUPPORT\ACAD
  9
$ELEVATION
 40
0.0
  9
$PELEVATION
 40
0.0
  9
$THICKNESS
 40
0.0
  9
$LIMCHECK
 70
     0
  9
$BLIPMODE
 70
     0
  9
$CHAMFERA
 40
0.0
  9
$CHAMFERB
 40
0.0
  9
$SKPOLY
 70
     0
  9
$TDCREATE
 40
2451824.6906229062
  9
$TDUPDATE
 40
2456598.689383253
  9
$TDINDWG
 40
0.023600706
  9
$TDUSRTIMER
 40
0.023600706
  9
$USRTIMER
 70
     1
  9
$ANGBASE
 50
0.0
  9
$ANGDIR
 70
     0
  9
$PDMODE
 70
     0
  9
$PDSIZE
 40
0.0
  9
$PLINEWID
 40
0.0
  9
$COORDS
 70
     1
  9
$SPLFRAME
 70
     0
  9
$SPLINETYPE
 70
     6
  9
$SPLINESEGS
 70
     8
  9
$ATTDIA
 70
     0
  9
$ATTREQ
 70
     1
  9
$HANDLING
 70
     1
  9
$HANDSEED
  5
298
  9
$SURFTAB1
 70
     6
  9
$SURFTAB2
 70
     6
  9
$SURFTYPE
 70
     6
  9
$SURFU
 70
     6
  9
$SURFV
 70
     6
  9
$UCSNAME
  2

  9
$UCSORG
 10
0.0
 20
0.0
 30
0.0
  9
$UCSXDIR
 10
1.0
 20
0.0
 30
0.0
  9
$UCSYDIR
 10
0.0
 20
1.0
 30
0.0
  9
$PUCSNAME
  2

  9
$PUCSORG
 10
0.0
 20
0.0
 30
0.0
  9
$PUCSXDIR
 10
1.0
 20
0.0
 30
0.0
  9
$PUCSYDIR
 10
0.0
 20
1.0
 30
0.0
  9
$USERI1
 70
     0
  9
$USERI2
 70
     1
  9
$USERI3
 70
     0
  9
$USERI4
 70
     0
  9
$USERI5
 70
     0
  9
$USERR1
 40
0.0
  9
$USERR2
 40
0.0
  9
$USERR3
 40
0.0
  9
$USERR4
 40
0.0
  9
$USERR5
 40
0.0
  9
$WORLDVIEW
 70
     1
  9
$SHADEDGE
 70
     3
  9
$SHADEDIF
 70
    70
  9
$TILEMODE
 70
     1
  9
$MAXACTVP
 70
    16
  9
$PLIMCHECK
 70
     0
  9
$PEXTMIN
 10
1.0000000000000000E+020
 20
1.0000000000000000E+020
 30
1.0000000000000000E+020
  9
$PEXTMAX
 10
-1.0000000000000000E+020
 20
-1.0000000000000000E+020
 30
-1.0000000000000000E+020
  9
$PLIMMIN
 10
0.0
 20
0.0
  9
$PLIMMAX
 10
12.0
 20
9.0
  9
$UNITMODE
 70
     0
  9
$VISRETAIN
 70
     0
  9
$PLINEGEN
 70
     0
  9
$PSLTSCALE
 70
     0
  0
ENDSEC
  0
SECTION
  2
TABLES
  0
TABLE
  2
VPORT
 70
     1
  0
VPORT
  2
*ACTIVE
 70
     0
 10
0.0
 20
0.0
 11
1.0
 21
1.0
 12
93.74713919532617
 22
66.313465060797697
 13
0.0
 23
0.0
 14
5.0
 24
5.0
 15
5.0
 25
5.0
 16
0.0
 26
0.0
 36
1.0
 17
0.0
 27
0.0
 37
0.0
 40
140.15365342376049
 41
2.304913294797688
 42
50.0
 43
0.0
 44
0.0
 50
0.0
 51
0.0
 71
     0
 72
   500
 73
     1
 74
     0
 75
     0
 76
     0
 77
     0
 78
     2
  0
ENDTAB
  0
TABLE
  2
LTYPE
 70
     4
  0
LTYPE
  2
CONTINUOUS
 70
     0
  3
Solid Line
 72
    65
 73
     0
 40
0.0
  0
LTYPE
  2
CENTER
 70
     0
  3
____ _ ____ _ ____ _ ____ _ ____ _ ____ _ ____
 72
    65
 73
     4
 40
2.0
 49
1.25
 49
-0.25
 49
0.25
 49
-0.25
  0
LTYPE
  2
HIDDEN
 70
     0
  3
__ __ __ __ __ __ __ __ __ __ __ __ __ __ __ __
 72
    65
 73
     2
 40
0.375
 49
0.25
 49
-0.125
  0
LTYPE
  2
PHANTOM2
 70
     0
  3
___ _ _ ___ _ _ ___ _ _ ___ _ _
 72
    65
 73
     6
 40
1.25
 49
0.625
 49
-0.125
 49
0.125
 49
-0.125
 49
0.125
 49
-0.125
  0
ENDTAB
  0
TABLE
  2
LAYER
 70
     3
  0
LAYER
  2
0
 70
     0
 62
     7
  6
CONTINUOUS
  0
LAYER
  2
1
 70
     0
 62
     1
  6
CENTER
  0
LAYER
  2
2
 70
     0
 62
     2
  6
HIDDEN
  0
ENDTAB
  0
TABLE
  2
STYLE
 70
     2
  0
STYLE
  2
STANDARD
 70
     0
 40
0.0
 41
1.0
 50
0.0
 71
     0
 42
0.2
  3
TXT
  4
BIGFONT
  0
STYLE
  2
STANDARD1
 70
     0
 40
0.0
 41
1.0
 50
0.0
 71
     0
 42
3.0
  3
txt
  4

  0
ENDTAB
  0
TABLE
  2
VIEW
 70
     0
  0
ENDTAB
  0
TABLE
  2
UCS
 70
     0
  0
ENDTAB
  0
TABLE
  2
APPID
 70
     4
  0
APPID
  2
ACAD
 70
     0
  0
APPID
  2
ACAD_EXEMPT_FROM_CAD_STANDARDS
 70
     0
  0
APPID
  2
ACAD_NAV_VCDISPLAY
 70
     0
  0
APPID
  2
ACAD_MLEADERVER
 70
     0
  0
ENDTAB
  0
TABLE
  2
DIMSTYLE
 70
     1
  0
DIMSTYLE
  2
STANDARD
 70
     0
  3

  4

  5

  6

  7

 40
1.0
 41
0.18
 42
0.0625
 43
0.38
 44
0.18
 45
0.0
 46
0.0
 47
0.0
 48
0.0
140
0.18
141
0.09
142
0.0
143
25.399999999999999
144
1.0
145
0.0
146
1.0
147
0.09
 71
     0
 72
     0
 73
     1
 74
     1
 75
     0
 76
     0
 77
     0
 78
     0
170
     0
171
     2
172
     0
173
     0
174
     0
175
     0
176
     0
177
     0
178
     0
  0
ENDTAB
  0
ENDSEC
  0
SECTION
  2
BLOCKS
  0
BLOCK
  8
0
  2
$MODEL_SPACE
 70
     0
 10
0.0
 20
0.0
 30
0.0
  3
$MODEL_SPACE
  1

  0
ENDBLK
  5
9
  8
0
  0
BLOCK
 67
     1
  8
0
  2
$PAPER_SPACE
 70
     0
 10
0.0
 20
0.0
 30
0.0
  3
$PAPER_SPACE
  1

  0
ENDBLK
  5
E
 67
     1
  8
0
  0
ENDSEC
  0
SECTION
  2
ENTITIES
  0
LINE
  5
26
  8
0
 10
100.0
 20
35.0
 30
0.0
 11
100.0
 21
65.0
 31
0.0
  0
LINE
  5
27
  8
0
 10
112.0
 20
39.0
 30
0.0
 11
112.0
 21
61.0
 31
0.0
  0
LINE
  5
28
  8
2
 10
103.0
 20
41.099999999999909
 30
0.0
 11
103.0
 21
58.900000000000091
 31
0.0
  0
LINE
  5
29
  8
2
 10
101.8499999999994
 20
41.099999999999909
 30
0.0
 11
101.8499999999994
 21
58.900000000000091
 31
0.0
  0
LINE
  5
2A
  8
2
 10
101.0
 20
41.5
 30
0.0
 11
101.0
 21
58.5
 31
0.0
  0
LINE
  5
2B
  8
2
 10
102.0
 20
58.900000000000091
 30
0.0
 11
102.0
 21
41.099999999999909
 31
0.0
  0
LINE
  5
2C
  8
2
 10
109.0
 20
41.700000000000273
 30
0.0
 11
109.0
 21
58.300000000000182
 31
0.0
  0
LINE
  5
2D
  8
1
 10
95.0
 20
50.0
 30
0.0
 11
117.0
 21
50.0
 31
0.0
  0
LINE
  5
30
  8
2
 10
103.0
 20
41.5
 30
0.0
 11
108.8000000000002
 21
41.5
 31
0.0
  0
LINE
  5
31
  8
0
 10
112.0
 20
39.0
 30
0.0
 11
103.5
 21
39.000000000000462
 31
0.0
  0
LINE
  5
32
  8
2
 10
103.0
 20
45.099999999999902
 30
0.0
 11
104.7640792905695
 21
45.099999999999902
 31
0.0
  0
ARC
  5
33
  8
2
 10
103.3000000000002
 20
46.699999999999818
 30
0.0
 40
0.3
 50
90.0
 51
180.0
  0
ARC
  5
34
  8
2
 10
103.3000000000002
 20
41.800000000000182
 30
0.0
 40
0.3
 50
180.0
 51
270.0
  0
LINE
  5
35
  8
2
 10
103.0
 20
43.400000000000091
 30
0.0
 11
104.7640792905686
 21
43.400000000000091
 31
0.0
  0
LINE
  5
36
  8
0
 10
103.1500453458966
 20
35.0
 30
0.0
 11
100.0
 21
35.0
 31
0.0
  0
LINE
  5
37
  8
2
 10
101.8499999999994
 20
41.099999999999909
 30
0.0
 11
103.0
 21
41.099999999999909
 31
0.0
  0
LINE
  5
38
  8
2
 10
102.0
 20
42.38685347573027
 30
0.0
 11
103.0
 21
42.38685347573027
 31
0.0
  0
LINE
  5
39
  8
2
 10
101.0
 20
41.5
 30
0.0
 11
100.0
 21
40.922649730810463
 31
0.0
  0
LINE
  5
3A
  8
2
 10
101.0
 20
41.5
 30
0.0
 11
101.8499999999994
 21
41.5
 31
0.0
  0
LINE
  5
3B
  8
0
 10
103.5
 20
39.000000000000462
 30
0.0
 11
103.1500453458966
 21
35.0
 31
0.0
  0
LINE
  5
3C
  8
2
 10
103.3000000000002
 20
47.0
 30
0.0
 11
108.6999999999998
 21
47.0
 31
0.0
  0
LINE
  5
3D
  8
2
 10
107.23592070942961
 20
45.099999999999902
 30
0.0
 11
109.0
 21
45.099999999999902
 31
0.0
  0
ARC
  5
3E
  8
2
 10
108.6999999999998
 20
46.700000000000273
 30
0.0
 40
0.3
 50
0.0
 51
90.0
  0
ARC
  5
3F
  8
2
 10
108.8000000000002
 20
41.700000000000273
 30
0.0
 40
0.2
 50
270.0
 51
0.0
  0
ARC
  5
40
  8
2
 10
108.6999999999998
 20
41.800000000000182
 30
0.0
 40
0.3
 50
270.0
 51
0.0
  0
LINE
  5
41
  8
2
 10
107.2359207094305
 20
43.400000000000091
 30
0.0
 11
109.0
 21
43.400000000000091
 31
0.0
  0
CIRCLE
  5
42
  8
2
 10
106.0
 20
44.249999999999993
 30
0.0
 40
1.5
  0
LINE
  5
43
  8
2
 10
109.0
 20
43.5
 30
0.0
 11
112.0
 21
43.5
 31
0.0
  0
ARC
  5
44
  8
2
 10
108.8000000000002
 20
41.700000000000273
 30
0.0
 40
0.2
 50
270.0
 51
0.0
  0
LINE
  5
45
  8
2
 10
103.0
 20
58.5
 30
0.0
 11
108.8000000000002
 21
58.5
 31
0.0
  0
LINE
  5
46
  8
0
 10
103.5
 20
61.0
 30
0.0
 11
112.0
 21
61.0
 31
0.0
  0
ARC
  5
47
  8
2
 10
103.3000000000002
 20
58.200000000000273
 30
0.0
 40
0.3
 50
90.0
 51
180.0
  0
LINE
  5
48
  8
2
 10
103.0
 20
56.599999999999909
 30
0.0
 11
104.7640792905686
 21
56.599999999999909
 31
0.0
  0
ARC
  5
49
  8
2
 10
103.3000000000002
 20
53.300000000000182
 30
0.0
 40
0.3
 50
180.0
 51
270.0
  0
LINE
  5
4A
  8
2
 10
103.0
 20
54.900000000000091
 30
0.0
 11
104.7640792905695
 21
54.900000000000091
 31
0.0
  0
LINE
  5
4B
  8
2
 10
101.8499999999994
 20
58.900000000000091
 30
0.0
 11
103.0
 21
58.900000000000091
 31
0.0
  0
LINE
  5
4C
  8
2
 10
102.0
 20
57.613146524269723
 30
0.0
 11
103.0
 21
57.613146524269723
 31
0.0
  0
LINE
  5
4D
  8
2
 10
101.0
 20
58.5
 30
0.0
 11
100.0
 21
59.07735026918953
 31
0.0
  0
LINE
  5
4E
  8
2
 10
101.0
 20
58.5
 30
0.0
 11
101.8499999999994
 21
58.5
 31
0.0
  0
ARC
  5
4F
  8
2
 10
108.8000000000002
 20
58.300000000000182
 30
0.0
 40
0.2
 50
0.0
 51
90.0
  0
ARC
  5
50
  8
2
 10
108.6999999999998
 20
58.200000000000273
 30
0.0
 40
0.3
 50
0.0
 51
90.0
  0
LINE
  5
51
  8
2
 10
107.2359207094305
 20
56.599999999999909
 30
0.0
 11
109.0
 21
56.599999999999909
 31
0.0
  0
ARC
  5
52
  8
2
 10
108.6999999999998
 20
53.300000000000182
 30
0.0
 40
0.3
 50
270.0
 51
0.0
  0
LINE
  5
53
  8
2
 10
107.23592070942961
 20
54.900000000000091
 30
0.0
 11
109.0
 21
54.900000000000091
 31
0.0
  0
LINE
  5
54
  8
2
 10
103.3000000000002
 20
53.0
 30
0.0
 11
108.6999999999998
 21
53.0
 31
0.0
  0
CIRCLE
  5
55
  8
2
 10
106.0
 20
55.75
 30
0.0
 40
1.5
  0
LINE
  5
56
  8
0
 10
100.0
 20
65.0
 30
0.0
 11
103.1500453458966
 21
65.0
 31
0.0
  0
LINE
  5
57
  8
0
 10
103.5
 20
61.0
 30
0.0
 11
103.1500453458966
 21
65.0
 31
0.0
  0
ARC
  5
58
  8
2
 10
108.8000000000002
 20
58.300000000000182
 30
0.0
 40
0.2
 50
0.0
 51
90.0
  0
LINE
  5
59
  8
2
 10
109.0
 20
56.5
 30
0.0
 11
112.0
 21
56.5
 31
0.0
  0
CIRCLE
  5
5A
  8
0
 10
55.585863854409688
 20
46.775000000000013
 30
0.0
 40
0.85
  0
ARC
  5
5B
  8
0
 10
55.585863854409688
 20
46.775000000000013
 30
0.0
 40
1.3499999999999719
 50
72.081469884707005
 51
227.91853011529361
  0
LINE
  5
5C
  8
0
 10
56.001210738135683
 20
48.059518184448571
 30
0.0
 11
58.08770708726891
 21
47.384852954317807
 31
0.0
  0
LINE
  5
5D
  8
0
 10
54.681111916917182
 20
45.773039955086297
 30
0.0
 11
56.078642020857671
 21
44.51109535393887
 31
0.0
  0
LINE
  5
5E
  8
2
 10
58.08770708726891
 20
47.384852954317807
 30
0.0
 11
58.468305067846359
 21
47.26178721099155
 31
0.0
  0
LINE
  5
61
  8
2
 10
58.08770708726891
 20
52.615147045682193
 30
0.0
 11
58.468305067846359
 21
52.738212789008458
 31
0.0
  0
LINE
  5
62
  8
0
 10
54.681111916917182
 20
54.22696004491371
 30
0.0
 11
56.078642020857671
 21
55.488904646061137
 31
0.0
  0
LINE
  5
63
  8
0
 10
56.001210738135683
 20
51.940481815551429
 30
0.0
 11
58.08770708726891
 21
52.615147045682193
 31
0.0
  0
ARC
  5
64
  8
0
 10
55.585863854409688
 20
53.224999999999987
 30
0.0
 40
1.3499999999999719
 50
132.08146988470631
 51
287.91853011529298
  0
CIRCLE
  5
65
  8
0
 10
55.585863854409688
 20
53.224999999999987
 30
0.0
 40
0.85
  0
ARC
  5
66
  8
0
 10
50.75
 20
50.0
 30
0.0
 40
7.6500000000000901
 50
45.848778434530423
 51
314.15122156546948
  0
CIRCLE
  5
67
  8
2
 10
50.0
 20
50.0
 30
0.0
 40
8.9000000000000892
  0
CIRCLE
  5
68
  8
0
 10
50.0
 20
50.0
 30
0.0
 40
3.0
  0
CIRCLE
  5
69
  8
0
 10
50.0
 20
50.0
 30
0.0
 40
8.5
  0
CIRCLE
  5
6A
  8
2
 10
50.0
 20
50.0
 30
0.0
 40
11.0
  0
LINE
  5
6B
  8
1
 10
70.0
 20
50.0
 30
0.0
 11
30.0
 21
50.0
 31
0.0
  0
LINE
  5
6C
  8
1
 10
50.0
 20
70.0
 30
0.0
 11
50.0
 21
30.0
 31
0.0
  0
CIRCLE
  5
6D
  8
0
 10
50.0
 20
50.0
 30
0.0
 40
15.0
  0
LINE
  5
8A
  8
0
 10
103.1500453458966
 20
65.0
 30
0.0
 11
103.1500453458966
 21
35.0
 31
0.0
  0
LINE
  5
8B
  8
0
 10
103.5
 20
39.000000000000462
 30
0.0
 11
103.5
 21
60.999999999999993
 31
0.0
  0
TEXT
  5
239
  8
0
 62
     3
 10
0.0
 20
0.0
 30
0.0
 40
10.0
  1
GRL30J-L
  7
STANDARD1
  0
ENDSEC
  0
EOF
