  0
SECTION
  2
HEADER
  9
$ACADVER
  1
AC1009
  9
$INSBASE
 10
0.0
 20
0.0
 30
0.0
  9
$EXTMIN
 10
0.0
 20
-2.960436562073669
 30
0.0
  9
$EXTMAX
 10
103.468860228106
 20
66.372758798570203
 30
0.0
  9
$LIMMIN
 10
0.0
 20
0.0
  9
$LIMMAX
 10
187.5
 20
135.0
  9
$ORTHOMODE
 70
     1
  9
$REGENMODE
 70
     1
  9
$FILLMODE
 70
     1
  9
$QTEXTMODE
 70
     0
  9
$MIRRTEXT
 70
     0
  9
$DRAGMODE
 70
     2
  9
$LTSCALE
 40
5.0
  9
$OSMODE
 70
  3071
  9
$ATTMODE
 70
     1
  9
$TEXTSIZE
 40
0.2
  9
$TRACEWID
 40
0.05
  9
$TEXTSTYLE
  7
STANDARD
  9
$CLAYER
  8
0
  9
$CELTYPE
  6
BYLAYER
  9
$CECOLOR
 62
   256
  9
$DIMSCALE
 40
0.5
  9
$DIMASZ
 40
3.0
  9
$DIMEXO
 40
2.0
  9
$DIMDLI
 40
0.3799999999999999
  9
$DIMRND
 40
0.0
  9
$DIMDLE
 40
0.0
  9
$DIMEXE
 40
2.0
  9
$DIMTP
 40
0.0
  9
$DIMTM
 40
0.0
  9
$DIMTXT
 40
3.2000000000000002
  9
$DIMCEN
 40
0.09
  9
$DIMTSZ
 40
0.0
  9
$DIMTOL
 70
     0
  9
$DIMLIM
 70
     0
  9
$DIMTIH
 70
     0
  9
$DIMTOH
 70
     0
  9
$DIMSE1
 70
     0
  9
$DIMSE2
 70
     0
  9
$DIMTAD
 70
     1
  9
$DIMZIN
 70
     0
  9
$DIMBLK
  1

  9
$DIMASO
 70
     0
  9
$DIMSHO
 70
     0
  9
$DIMPOST
  1

  9
$DIMAPOST
  1

  9
$DIMALT
 70
     0
  9
$DIMALTD
 70
     2
  9
$DIMALTF
 40
25.399999999999999
  9
$DIMLFAC
 40
1.0
  9
$DIMTOFL
 70
     0
  9
$DIMTVP
 40
1.6000000000000001
  9
$DIMTIX
 70
     1
  9
$DIMSOXD
 70
     0
  9
$DIMSAH
 70
     0
  9
$DIMBLK1
  1

  9
$DIMBLK2
  1

  9
$DIMSTYLE
  2
STANDARD
  9
$DIMCLRD
 70
     0
  9
$DIMCLRE
 70
     0
  9
$DIMCLRT
 70
     0
  9
$DIMTFAC
 40
1.0
  9
$DIMGAP
 40
0.09
  9
$LUNITS
 70
     2
  9
$LUPREC
 70
     4
  9
$SKETCHINC
 40
0.1
  9
$FILLETRAD
 40
0.4
  9
$AUNITS
 70
     0
  9
$AUPREC
 70
     0
  9
$MENU
  1
E:\r13\win\SUPPORT\ACAD
  9
$ELEVATION
 40
0.0
  9
$PELEVATION
 40
0.0
  9
$THICKNESS
 40
0.0
  9
$LIMCHECK
 70
     0
  9
$BLIPMODE
 70
     0
  9
$CHAMFERA
 40
0.0
  9
$CHAMFERB
 40
0.0
  9
$SKPOLY
 70
     0
  9
$TDCREATE
 40
2451824.6906229062
  9
$TDUPDATE
 40
2456598.6894250461
  9
$TDINDWG
 40
0.012616794
  9
$TDUSRTIMER
 40
0.012616794
  9
$USRTIMER
 70
     1
  9
$ANGBASE
 50
0.0
  9
$ANGDIR
 70
     0
  9
$PDMODE
 70
     0
  9
$PDSIZE
 40
0.0
  9
$PLINEWID
 40
0.0
  9
$COORDS
 70
     1
  9
$SPLFRAME
 70
     0
  9
$SPLINETYPE
 70
     6
  9
$SPLINESEGS
 70
     8
  9
$ATTDIA
 70
     0
  9
$ATTREQ
 70
     1
  9
$HANDLING
 70
     1
  9
$HANDSEED
  5
235
  9
$SURFTAB1
 70
     6
  9
$SURFTAB2
 70
     6
  9
$SURFTYPE
 70
     6
  9
$SURFU
 70
     6
  9
$SURFV
 70
     6
  9
$UCSNAME
  2

  9
$UCSORG
 10
0.0
 20
0.0
 30
0.0
  9
$UCSXDIR
 10
1.0
 20
0.0
 30
0.0
  9
$UCSYDIR
 10
0.0
 20
1.0
 30
0.0
  9
$PUCSNAME
  2

  9
$PUCSORG
 10
0.0
 20
0.0
 30
0.0
  9
$PUCSXDIR
 10
1.0
 20
0.0
 30
0.0
  9
$PUCSYDIR
 10
0.0
 20
1.0
 30
0.0
  9
$USERI1
 70
     0
  9
$USERI2
 70
     1
  9
$USERI3
 70
     0
  9
$USERI4
 70
     0
  9
$USERI5
 70
     0
  9
$USERR1
 40
0.0
  9
$USERR2
 40
0.0
  9
$USERR3
 40
0.0
  9
$USERR4
 40
0.0
  9
$USERR5
 40
0.0
  9
$WORLDVIEW
 70
     1
  9
$SHADEDGE
 70
     3
  9
$SHADEDIF
 70
    70
  9
$TILEMODE
 70
     1
  9
$MAXACTVP
 70
    16
  9
$PLIMCHECK
 70
     0
  9
$PEXTMIN
 10
1.0000000000000000E+020
 20
1.0000000000000000E+020
 30
1.0000000000000000E+020
  9
$PEXTMAX
 10
-1.0000000000000000E+020
 20
-1.0000000000000000E+020
 30
-1.0000000000000000E+020
  9
$PLIMMIN
 10
0.0
 20
0.0
  9
$PLIMMAX
 10
12.0
 20
9.0
  9
$UNITMODE
 70
     0
  9
$VISRETAIN
 70
     0
  9
$PLINEGEN
 70
     0
  9
$PSLTSCALE
 70
     0
  0
ENDSEC
  0
SECTION
  2
TABLES
  0
TABLE
  2
VPORT
 70
     1
  0
VPORT
  2
*ACTIVE
 70
     0
 10
0.0
 20
0.0
 11
1.0
 21
1.0
 12
93.74713919532617
 22
66.313465060797697
 13
0.0
 23
0.0
 14
5.0
 24
5.0
 15
5.0
 25
5.0
 16
0.0
 26
0.0
 36
1.0
 17
0.0
 27
0.0
 37
0.0
 40
140.15365342376049
 41
2.304913294797688
 42
50.0
 43
0.0
 44
0.0
 50
0.0
 51
0.0
 71
     0
 72
   500
 73
     1
 74
     0
 75
     0
 76
     0
 77
     0
 78
     2
  0
ENDTAB
  0
TABLE
  2
LTYPE
 70
     4
  0
LTYPE
  2
CONTINUOUS
 70
     0
  3
Solid Line
 72
    65
 73
     0
 40
0.0
  0
LTYPE
  2
CENTER
 70
     0
  3
____ _ ____ _ ____ _ ____ _ ____ _ ____ _ ____
 72
    65
 73
     4
 40
2.0
 49
1.25
 49
-0.25
 49
0.25
 49
-0.25
  0
LTYPE
  2
HIDDEN
 70
     0
  3
__ __ __ __ __ __ __ __ __ __ __ __ __ __ __ __
 72
    65
 73
     2
 40
0.375
 49
0.25
 49
-0.125
  0
LTYPE
  2
PHANTOM2
 70
     0
  3
___ _ _ ___ _ _ ___ _ _ ___ _ _
 72
    65
 73
     6
 40
1.25
 49
0.625
 49
-0.125
 49
0.125
 49
-0.125
 49
0.125
 49
-0.125
  0
ENDTAB
  0
TABLE
  2
LAYER
 70
     3
  0
LAYER
  2
0
 70
     0
 62
     7
  6
CONTINUOUS
  0
LAYER
  2
1
 70
     0
 62
     1
  6
CENTER
  0
LAYER
  2
2
 70
     0
 62
     2
  6
HIDDEN
  0
ENDTAB
  0
TABLE
  2
STYLE
 70
     2
  0
STYLE
  2
STANDARD
 70
     0
 40
0.0
 41
1.0
 50
0.0
 71
     0
 42
0.2
  3
TXT
  4
BIGFONT
  0
STYLE
  2
STANDARD1
 70
     0
 40
0.0
 41
1.0
 50
0.0
 71
     0
 42
3.0
  3
txt
  4

  0
ENDTAB
  0
TABLE
  2
VIEW
 70
     0
  0
ENDTAB
  0
TABLE
  2
UCS
 70
     0
  0
ENDTAB
  0
TABLE
  2
APPID
 70
     3
  0
APPID
  2
ACAD
 70
     0
  0
APPID
  2
ACAD_MLEADERVER
 70
     0
  0
APPID
  2
ACAD_NAV_VCDISPLAY
 70
     0
  0
ENDTAB
  0
TABLE
  2
DIMSTYLE
 70
     1
  0
DIMSTYLE
  2
STANDARD
 70
     0
  3

  4

  5

  6

  7

 40
1.0
 41
0.18
 42
0.0625
 43
0.38
 44
0.18
 45
0.0
 46
0.0
 47
0.0
 48
0.0
140
0.18
141
0.09
142
0.0
143
25.399999999999999
144
1.0
145
0.0
146
1.0
147
0.09
 71
     0
 72
     0
 73
     1
 74
     1
 75
     0
 76
     0
 77
     0
 78
     0
170
     0
171
     2
172
     0
173
     0
174
     0
175
     0
176
     0
177
     0
178
     0
  0
ENDTAB
  0
ENDSEC
  0
SECTION
  2
BLOCKS
  0
BLOCK
  8
0
  2
$MODEL_SPACE
 70
     0
 10
0.0
 20
0.0
 30
0.0
  3
$MODEL_SPACE
  1

  0
ENDBLK
  5
9
  8
0
  0
BLOCK
 67
     1
  8
0
  2
$PAPER_SPACE
 70
     0
 10
0.0
 20
0.0
 30
0.0
  3
$PAPER_SPACE
  1

  0
ENDBLK
  5
E
 67
     1
  8
0
  0
ENDSEC
  0
SECTION
  2
ENTITIES
  0
ARC
  5
B2
  8
0
 10
42.218860228105527
 20
50.372758798570203
 30
0.0
 40
7.6500000000000901
 50
45.848778434530139
 51
314.15122156546988
  0
CIRCLE
  5
B3
  8
2
 10
41.468860228105541
 20
50.372758798570203
 30
0.0
 40
8.9000000000000892
  0
CIRCLE
  5
B4
  8
0
 10
41.468860228105541
 20
50.372758798570203
 30
0.0
 40
3.0
  0
CIRCLE
  5
B5
  8
0
 10
41.468860228105541
 20
50.372758798570203
 30
0.0
 40
8.5
  0
CIRCLE
  5
B6
  8
0
 10
41.468860228105541
 20
50.372758798570203
 30
0.0
 40
11.0
  0
LINE
  5
B7
  8
1
 10
57.468860228105541
 20
50.372758798570203
 30
0.0
 11
25.468860228105541
 21
50.372758798570203
 31
0.0
  0
LINE
  5
B9
  8
1
 10
41.468860228105541
 20
66.372758798570203
 30
0.0
 11
41.468860228105541
 21
34.37275879857021
 31
0.0
  0
LINE
  5
BA
  8
1
 10
81.468860228105527
 20
50.372758798570203
 30
0.0
 11
103.468860228106
 21
50.372758798570203
 31
0.0
  0
ARC
  5
BB
  8
0
 10
47.054724082515229
 20
47.147758798570173
 30
0.0
 40
1.3499999999999719
 50
72.081469884704561
 51
227.91853011529301
  0
LINE
  5
BC
  8
0
 10
47.470070966241217
 20
48.43227698301871
 30
0.0
 11
49.556567315374451
 21
47.75761175288801
 31
0.0
  0
CIRCLE
  5
BD
  8
0
 10
47.054724082515229
 20
47.147758798570173
 30
0.0
 40
0.85
  0
LINE
  5
BE
  8
0
 10
46.14997214502273
 20
46.14579875365655
 30
0.0
 11
47.547502248963212
 21
44.883854152509109
 31
0.0
  0
LINE
  5
BF
  8
2
 10
49.556567315374451
 20
47.75761175288801
 30
0.0
 11
49.937165295951893
 21
47.634546009561738
 31
0.0
  0
LINE
  5
C0
  8
0
 10
47.470070966241217
 20
52.313240614121703
 30
0.0
 11
49.556567315374451
 21
52.987905844252403
 31
0.0
  0
ARC
  5
C1
  8
0
 10
47.054724082515229
 20
53.597758798570219
 30
0.0
 40
1.3499999999999719
 50
132.08146988470699
 51
287.91853011529503
  0
CIRCLE
  5
C2
  8
0
 10
47.054724082515229
 20
53.597758798570219
 30
0.0
 40
0.85
  0
LINE
  5
C3
  8
0
 10
46.14997214502273
 20
54.599718843483849
 30
0.0
 11
47.547502248963212
 21
55.86166344463129
 31
0.0
  0
LINE
  5
C4
  8
2
 10
49.556567315374451
 20
52.987905844252403
 30
0.0
 11
49.937165295951893
 21
53.110971587578661
 31
0.0
  0
LINE
  5
C5
  8
2
 10
87.468860228105555
 20
58.872758798570203
 30
0.0
 11
86.468860228105527
 21
59.450109067760188
 31
0.0
  0
LINE
  5
C6
  8
0
 10
86.468860228105527
 20
39.772758798570209
 30
0.0
 11
86.468860228105527
 21
60.97275879857019
 31
0.0
  0
LINE
  5
C7
  8
0
 10
98.468860228105996
 20
39.772758798570209
 30
0.0
 11
98.468860228105996
 21
60.97275879857019
 31
0.0
  0
LINE
  5
C8
  8
2
 10
88.468860228105541
 20
59.272758798570287
 30
0.0
 11
88.468860228105541
 21
41.472758798570567
 31
0.0
  0
LINE
  5
C9
  8
2
 10
87.468860228105555
 20
41.872758798570203
 30
0.0
 11
87.468860228105555
 21
58.872758798570203
 31
0.0
  0
LINE
  5
CA
  8
2
 10
88.31886022810545
 20
41.472758798570567
 30
0.0
 11
88.31886022810545
 21
59.272758798570287
 31
0.0
  0
LINE
  5
CB
  8
2
 10
89.468860228105541
 20
41.472758798570567
 30
0.0
 11
89.468860228105541
 21
59.272758798570287
 31
0.0
  0
LINE
  5
CC
  8
2
 10
95.468860228105541
 20
42.072758798570469
 30
0.0
 11
95.468860228105541
 21
58.672758798570392
 31
0.0
  0
CIRCLE
  5
CD
  8
2
 10
92.468860228105996
 20
44.622758798570203
 30
0.0
 40
1.5
  0
LINE
  5
CE
  8
2
 10
89.768860228105737
 20
47.372758798570203
 30
0.0
 11
95.168860228105814
 21
47.372758798570203
 31
0.0
  0
LINE
  5
CF
  8
2
 10
89.468860228105541
 20
41.872758798570203
 30
0.0
 11
95.268860228105723
 21
41.872758798570203
 31
0.0
  0
LINE
  5
D0
  8
0
 10
98.068860228106004
 20
39.37275879857021
 30
0.0
 11
86.868860228105547
 21
39.37275879857021
 31
0.0
  0
LINE
  5
D1
  8
2
 10
88.468860228105541
 20
42.759612274300473
 30
0.0
 11
89.468860228105541
 21
42.759612274300473
 31
0.0
  0
LINE
  5
D2
  8
2
 10
88.31886022810545
 20
41.472758798570567
 30
0.0
 11
89.468860228105541
 21
41.472758798570567
 31
0.0
  0
LINE
  5
D3
  8
2
 10
87.468860228105555
 20
41.872758798570203
 30
0.0
 11
86.468860228105527
 21
41.295408529380659
 31
0.0
  0
LINE
  5
D4
  8
2
 10
87.468860228105555
 20
41.872758798570203
 30
0.0
 11
88.31886022810545
 21
41.872758798570203
 31
0.0
  0
ARC
  5
D5
  8
0
 10
86.868860228105547
 20
39.772758798570209
 30
0.0
 40
0.4
 50
180.0
 51
270.0
  0
ARC
  5
D6
  8
2
 10
89.768860228105737
 20
42.172758798570378
 30
0.0
 40
0.3
 50
180.0
 51
270.0
  0
ARC
  5
D7
  8
2
 10
89.768860228105737
 20
47.072758798570021
 30
0.0
 40
0.3
 50
90.0
 51
180.0
  0
LINE
  5
D8
  8
2
 10
89.468860228105996
 20
43.772758798570287
 30
0.0
 11
91.232939518674584
 21
43.772758798570287
 31
0.0
  0
LINE
  5
D9
  8
2
 10
89.468860228105996
 20
45.47275879857056
 30
0.0
 11
91.232939518675494
 21
45.47275879857056
 31
0.0
  0
ARC
  5
DA
  8
2
 10
95.168860228105814
 20
42.172758798570378
 30
0.0
 40
0.3
 50
270.0
 51
0.0
  0
ARC
  5
DB
  8
2
 10
95.268860228105723
 20
42.072758798570469
 30
0.0
 40
0.2
 50
270.0
 51
0.0
  0
ARC
  5
DC
  8
0
 10
98.068860228106004
 20
39.772758798570209
 30
0.0
 40
0.4
 50
270.0
 51
0.0
  0
LINE
  5
DD
  8
2
 10
95.468860228105541
 20
43.872758798570203
 30
0.0
 11
98.468860228105996
 21
43.872758798570203
 31
0.0
  0
ARC
  5
DE
  8
2
 10
95.168860228105814
 20
47.072758798570469
 30
0.0
 40
0.3
 50
0.0
 51
90.0
  0
LINE
  5
DF
  8
2
 10
93.704780937536498
 20
43.772758798570287
 30
0.0
 11
95.468860228105996
 21
43.772758798570287
 31
0.0
  0
LINE
  5
E0
  8
2
 10
93.704780937535588
 20
45.47275879857056
 30
0.0
 11
95.468860228105996
 21
45.47275879857056
 31
0.0
  0
CIRCLE
  5
E1
  8
2
 10
92.468860228105996
 20
56.122758798570203
 30
0.0
 40
1.5
  0
LINE
  5
E2
  8
2
 10
89.768860228105737
 20
53.37275879857021
 30
0.0
 11
95.168860228105814
 21
53.37275879857021
 31
0.0
  0
LINE
  5
E3
  8
2
 10
89.468860228105541
 20
58.872758798570203
 30
0.0
 11
95.268860228105723
 21
58.872758798570203
 31
0.0
  0
ARC
  5
E4
  8
2
 10
89.768860228105737
 20
53.672758798570392
 30
0.0
 40
0.3
 50
180.0
 51
270.0
  0
LINE
  5
E5
  8
2
 10
88.31886022810545
 20
59.272758798570287
 30
0.0
 11
89.468860228105541
 21
59.272758798570287
 31
0.0
  0
LINE
  5
E6
  8
2
 10
88.468860228105541
 20
57.985905322839919
 30
0.0
 11
89.468860228105541
 21
57.985905322839919
 31
0.0
  0
LINE
  5
E7
  8
2
 10
87.468860228105555
 20
58.872758798570203
 30
0.0
 11
88.31886022810545
 21
58.872758798570203
 31
0.0
  0
ARC
  5
E8
  8
2
 10
89.768860228105737
 20
58.572758798570483
 30
0.0
 40
0.3
 50
90.0
 51
180.0
  0
LINE
  5
E9
  8
2
 10
89.468860228105996
 20
55.272758798570287
 30
0.0
 11
91.232939518675494
 21
55.272758798570287
 31
0.0
  0
LINE
  5
EA
  8
2
 10
89.468860228105996
 20
56.97275879857056
 30
0.0
 11
91.232939518674584
 21
56.97275879857056
 31
0.0
  0
ARC
  5
EB
  8
2
 10
95.168860228105814
 20
53.672758798570392
 30
0.0
 40
0.3
 50
270.0
 51
0.0
  0
LINE
  5
EC
  8
2
 10
95.468860228105541
 20
56.872758798570203
 30
0.0
 11
98.468860228105996
 21
56.872758798570203
 31
0.0
  0
ARC
  5
ED
  8
2
 10
95.168860228105814
 20
58.572758798570483
 30
0.0
 40
0.3
 50
0.0
 51
90.0
  0
ARC
  5
EE
  8
2
 10
95.268860228105723
 20
58.672758798570392
 30
0.0
 40
0.2
 50
0.0
 51
90.0
  0
LINE
  5
EF
  8
2
 10
93.704780937535588
 20
55.272758798570287
 30
0.0
 11
95.468860228105996
 21
55.272758798570287
 31
0.0
  0
LINE
  5
F0
  8
2
 10
93.704780937536498
 20
56.97275879857056
 30
0.0
 11
95.468860228105996
 21
56.97275879857056
 31
0.0
  0
LINE
  5
F1
  8
0
 10
86.868860228105547
 20
61.372758798570203
 30
0.0
 11
98.068860228106004
 21
61.372758798570203
 31
0.0
  0
ARC
  5
F2
  8
0
 10
86.868860228105547
 20
60.97275879857019
 30
0.0
 40
0.4
 50
90.0
 51
180.0
  0
ARC
  5
F3
  8
0
 10
98.068860228106004
 20
60.97275879857019
 30
0.0
 40
0.4
 50
0.0
 51
90.0
  0
TEXT
  5
1A0
  8
0
 62
     3
 10
0.0
 20
0.0
 30
0.0
 40
10.0
  1
GRL30S-F
  7
STANDARD1
  0
ENDSEC
  0
EOF
