  0
SECTION
  2
HEADER
  9
$ACADVER
  1
AC1009
  9
$INSBASE
 10
0.0
 20
0.0
 30
0.0
  9
$EXTMIN
 10
0.0
 20
-2.960436562073669
 30
0.0
  9
$EXTMAX
 10
127.8445479652425
 20
95.576540912107333
 30
0.0
  9
$LIMMIN
 10
0.0
 20
0.0
  9
$LIMMAX
 10
187.5
 20
135.0
  9
$ORTHOMODE
 70
     0
  9
$REGENMODE
 70
     1
  9
$FILLMODE
 70
     1
  9
$QTEXTMODE
 70
     0
  9
$MIRRTEXT
 70
     0
  9
$DRAGMODE
 70
     2
  9
$LTSCALE
 40
5.0
  9
$OSMODE
 70
  3071
  9
$ATTMODE
 70
     1
  9
$TEXTSIZE
 40
0.2
  9
$TRACEWID
 40
0.05
  9
$TEXTSTYLE
  7
STANDARD
  9
$CLAYER
  8
0
  9
$CELTYPE
  6
BYLAYER
  9
$CECOLOR
 62
   256
  9
$DIMSCALE
 40
0.5
  9
$DIMASZ
 40
3.0
  9
$DIMEXO
 40
2.0
  9
$DIMDLI
 40
0.3799999999999999
  9
$DIMRND
 40
0.0
  9
$DIMDLE
 40
0.0
  9
$DIMEXE
 40
2.0
  9
$DIMTP
 40
0.0
  9
$DIMTM
 40
0.0
  9
$DIMTXT
 40
3.2000000000000002
  9
$DIMCEN
 40
0.09
  9
$DIMTSZ
 40
0.0
  9
$DIMTOL
 70
     0
  9
$DIMLIM
 70
     0
  9
$DIMTIH
 70
     0
  9
$DIMTOH
 70
     0
  9
$DIMSE1
 70
     0
  9
$DIMSE2
 70
     0
  9
$DIMTAD
 70
     1
  9
$DIMZIN
 70
     0
  9
$DIMBLK
  1

  9
$DIMASO
 70
     0
  9
$DIMSHO
 70
     0
  9
$DIMPOST
  1

  9
$DIMAPOST
  1

  9
$DIMALT
 70
     0
  9
$DIMALTD
 70
     2
  9
$DIMALTF
 40
25.399999999999999
  9
$DIMLFAC
 40
1.0
  9
$DIMTOFL
 70
     0
  9
$DIMTVP
 40
1.6000000000000001
  9
$DIMTIX
 70
     1
  9
$DIMSOXD
 70
     0
  9
$DIMSAH
 70
     0
  9
$DIMBLK1
  1

  9
$DIMBLK2
  1

  9
$DIMSTYLE
  2
STANDARD
  9
$DIMCLRD
 70
     0
  9
$DIMCLRE
 70
     0
  9
$DIMCLRT
 70
     0
  9
$DIMTFAC
 40
1.0
  9
$DIMGAP
 40
0.09
  9
$LUNITS
 70
     2
  9
$LUPREC
 70
     4
  9
$SKETCHINC
 40
0.1
  9
$FILLETRAD
 40
0.4
  9
$AUNITS
 70
     0
  9
$AUPREC
 70
     0
  9
$MENU
  1
E:\r13\win\SUPPORT\ACAD
  9
$ELEVATION
 40
0.0
  9
$PELEVATION
 40
0.0
  9
$THICKNESS
 40
0.0
  9
$LIMCHECK
 70
     0
  9
$BLIPMODE
 70
     0
  9
$CHAMFERA
 40
0.0
  9
$CHAMFERB
 40
0.0
  9
$SKPOLY
 70
     0
  9
$TDCREATE
 40
2451824.6906229062
  9
$TDUPDATE
 40
2456598.6895365752
  9
$TDINDWG
 40
0.0149418519
  9
$TDUSRTIMER
 40
0.0149418519
  9
$USRTIMER
 70
     1
  9
$ANGBASE
 50
0.0
  9
$ANGDIR
 70
     0
  9
$PDMODE
 70
     0
  9
$PDSIZE
 40
0.0
  9
$PLINEWID
 40
0.0
  9
$COORDS
 70
     1
  9
$SPLFRAME
 70
     0
  9
$SPLINETYPE
 70
     6
  9
$SPLINESEGS
 70
     8
  9
$ATTDIA
 70
     0
  9
$ATTREQ
 70
     1
  9
$HANDLING
 70
     1
  9
$HANDSEED
  5
285
  9
$SURFTAB1
 70
     6
  9
$SURFTAB2
 70
     6
  9
$SURFTYPE
 70
     6
  9
$SURFU
 70
     6
  9
$SURFV
 70
     6
  9
$UCSNAME
  2

  9
$UCSORG
 10
0.0
 20
0.0
 30
0.0
  9
$UCSXDIR
 10
1.0
 20
0.0
 30
0.0
  9
$UCSYDIR
 10
0.0
 20
1.0
 30
0.0
  9
$PUCSNAME
  2

  9
$PUCSORG
 10
0.0
 20
0.0
 30
0.0
  9
$PUCSXDIR
 10
1.0
 20
0.0
 30
0.0
  9
$PUCSYDIR
 10
0.0
 20
1.0
 30
0.0
  9
$USERI1
 70
     0
  9
$USERI2
 70
     1
  9
$USERI3
 70
     0
  9
$USERI4
 70
     0
  9
$USERI5
 70
     0
  9
$USERR1
 40
0.0
  9
$USERR2
 40
0.0
  9
$USERR3
 40
0.0
  9
$USERR4
 40
0.0
  9
$USERR5
 40
0.0
  9
$WORLDVIEW
 70
     1
  9
$SHADEDGE
 70
     3
  9
$SHADEDIF
 70
    70
  9
$TILEMODE
 70
     1
  9
$MAXACTVP
 70
    16
  9
$PLIMCHECK
 70
     0
  9
$PEXTMIN
 10
1.0000000000000000E+020
 20
1.0000000000000000E+020
 30
1.0000000000000000E+020
  9
$PEXTMAX
 10
-1.0000000000000000E+020
 20
-1.0000000000000000E+020
 30
-1.0000000000000000E+020
  9
$PLIMMIN
 10
0.0
 20
0.0
  9
$PLIMMAX
 10
12.0
 20
9.0
  9
$UNITMODE
 70
     0
  9
$VISRETAIN
 70
     0
  9
$PLINEGEN
 70
     0
  9
$PSLTSCALE
 70
     0
  0
ENDSEC
  0
SECTION
  2
TABLES
  0
TABLE
  2
VPORT
 70
     1
  0
VPORT
  2
*ACTIVE
 70
     0
 10
0.0
 20
0.0
 11
1.0
 21
1.0
 12
93.74713919532617
 22
66.313465060797697
 13
0.0
 23
0.0
 14
5.0
 24
5.0
 15
5.0
 25
5.0
 16
0.0
 26
0.0
 36
1.0
 17
0.0
 27
0.0
 37
0.0
 40
140.15365342376049
 41
2.304913294797688
 42
50.0
 43
0.0
 44
0.0
 50
0.0
 51
0.0
 71
     0
 72
   500
 73
     1
 74
     0
 75
     0
 76
     0
 77
     0
 78
     2
  0
ENDTAB
  0
TABLE
  2
LTYPE
 70
     4
  0
LTYPE
  2
CONTINUOUS
 70
     0
  3
Solid Line
 72
    65
 73
     0
 40
0.0
  0
LTYPE
  2
CENTER
 70
     0
  3
____ _ ____ _ ____ _ ____ _ ____ _ ____ _ ____
 72
    65
 73
     4
 40
2.0
 49
1.25
 49
-0.25
 49
0.25
 49
-0.25
  0
LTYPE
  2
HIDDEN
 70
     0
  3
__ __ __ __ __ __ __ __ __ __ __ __ __ __ __ __
 72
    65
 73
     2
 40
0.375
 49
0.25
 49
-0.125
  0
LTYPE
  2
PHANTOM2
 70
     0
  3
___ _ _ ___ _ _ ___ _ _ ___ _ _
 72
    65
 73
     6
 40
1.25
 49
0.625
 49
-0.125
 49
0.125
 49
-0.125
 49
0.125
 49
-0.125
  0
ENDTAB
  0
TABLE
  2
LAYER
 70
     3
  0
LAYER
  2
0
 70
     0
 62
     7
  6
CONTINUOUS
  0
LAYER
  2
1
 70
     0
 62
     1
  6
CENTER
  0
LAYER
  2
2
 70
     0
 62
     2
  6
HIDDEN
  0
ENDTAB
  0
TABLE
  2
STYLE
 70
     2
  0
STYLE
  2
STANDARD
 70
     0
 40
0.0
 41
1.0
 50
0.0
 71
     0
 42
0.2
  3
TXT
  4
BIGFONT
  0
STYLE
  2
STANDARD1
 70
     0
 40
0.0
 41
1.0
 50
0.0
 71
     0
 42
3.0
  3
txt
  4

  0
ENDTAB
  0
TABLE
  2
VIEW
 70
     0
  0
ENDTAB
  0
TABLE
  2
UCS
 70
     0
  0
ENDTAB
  0
TABLE
  2
APPID
 70
     3
  0
APPID
  2
ACAD
 70
     0
  0
APPID
  2
ACAD_MLEADERVER
 70
     0
  0
APPID
  2
ACAD_NAV_VCDISPLAY
 70
     0
  0
ENDTAB
  0
TABLE
  2
DIMSTYLE
 70
     1
  0
DIMSTYLE
  2
STANDARD
 70
     0
  3

  4

  5

  6

  7

 40
1.0
 41
0.18
 42
0.0625
 43
0.38
 44
0.18
 45
0.0
 46
0.0
 47
0.0
 48
0.0
140
0.18
141
0.09
142
0.0
143
25.399999999999999
144
1.0
145
0.0
146
1.0
147
0.09
 71
     0
 72
     0
 73
     1
 74
     1
 75
     0
 76
     0
 77
     0
 78
     0
170
     0
171
     2
172
     0
173
     0
174
     0
175
     0
176
     0
177
     0
178
     0
  0
ENDTAB
  0
ENDSEC
  0
SECTION
  2
BLOCKS
  0
BLOCK
  8
0
  2
$MODEL_SPACE
 70
     0
 10
0.0
 20
0.0
 30
0.0
  3
$MODEL_SPACE
  1

  0
ENDBLK
  5
9
  8
0
  0
BLOCK
 67
     1
  8
0
  2
$PAPER_SPACE
 70
     0
 10
0.0
 20
0.0
 30
0.0
  3
$PAPER_SPACE
  1

  0
ENDBLK
  5
E
 67
     1
  8
0
  0
ENDSEC
  0
SECTION
  2
ENTITIES
  0
LINE
  5
103
  8
1
 10
76.844547965242725
 20
75.576540912107333
 30
0.0
 11
36.844547965242732
 21
75.576540912107333
 31
0.0
  0
CIRCLE
  5
104
  8
0
 10
56.844547965242718
 20
75.576540912107333
 30
0.0
 40
15.0
  0
CIRCLE
  5
105
  8
2
 10
56.844547965242718
 20
75.576540912107333
 30
0.0
 40
11.5
  0
CIRCLE
  5
106
  8
0
 10
56.844547965242718
 20
75.576540912107333
 30
0.0
 40
11.0
  0
ARC
  5
107
  8
0
 10
57.594547965241759
 20
75.576540912107333
 30
0.0
 40
9.75
 50
42.834156958487483
 51
317.16584304151252
  0
LINE
  5
108
  8
1
 10
56.844547965242718
 20
95.576540912107333
 30
0.0
 11
56.844547965242718
 21
55.576540912107333
 31
0.0
  0
CIRCLE
  5
109
  8
0
 10
56.844547965242718
 20
75.576540912107333
 30
0.0
 40
4.0
  0
LINE
  5
10A
  8
2
 10
118.3445479652425
 20
84.576540912107319
 30
0.0
 11
122.8445479652425
 21
84.576540912107319
 31
0.0
  0
LINE
  5
10B
  8
1
 10
101.8445479652427
 20
75.576540912107333
 30
0.0
 11
127.8445479652425
 21
75.576540912107333
 31
0.0
  0
LINE
  5
10C
  8
0
 10
107.24454796524191
 20
90.576540912107916
 30
0.0
 11
122.4445479652419
 21
90.576540912108328
 31
0.0
  0
LINE
  5
10D
  8
2
 10
118.3445479652425
 20
66.576540912107333
 30
0.0
 11
122.8445479652425
 21
66.576540912107333
 31
0.0
  0
LINE
  5
10E
  8
0
 10
107.24454796524191
 20
60.576540912108129
 30
0.0
 11
122.4445479652419
 21
60.576540912107767
 31
0.0
  0
CIRCLE
  5
10F
  8
2
 10
114.8445479652425
 20
68.076540912107333
 30
0.0
 40
2.0
  0
LINE
  5
110
  8
2
 10
118.3445479652425
 20
86.376540912107515
 30
0.0
 11
118.3445479652425
 21
64.776540912107151
 31
0.0
  0
LINE
  5
111
  8
2
 10
111.3445479652425
 20
87.076540912107319
 30
0.0
 11
111.3445479652425
 21
64.076540912107333
 31
0.0
  0
LINE
  5
112
  8
2
 10
109.9945479652426
 20
87.076540912107319
 30
0.0
 11
109.9945479652426
 21
64.076540912107333
 31
0.0
  0
LINE
  5
113
  8
2
 10
107.844547965243
 20
86.576540912107333
 30
0.0
 11
107.844547965243
 21
64.576540912107333
 31
0.0
  0
LINE
  5
114
  8
2
 10
110.3445479652425
 20
64.076540912107333
 30
0.0
 11
110.3445479652425
 21
87.076540912107319
 31
0.0
  0
LINE
  5
115
  8
0
 10
106.8445479652419
 20
60.976540912108121
 30
0.0
 11
106.84454796524361
 21
90.176540912107171
 31
0.0
  0
LINE
  5
116
  8
2
 10
111.3445479652425
 20
64.576540912107333
 30
0.0
 11
118.14454796524259
 21
64.576540912107333
 31
0.0
  0
ARC
  5
117
  8
0
 10
107.24454796524191
 20
60.976540912108092
 30
0.0
 40
0.4
 50
180.00000000000651
 51
270.00000000000648
  0
LINE
  5
118
  8
2
 10
107.844547965243
 20
64.576540912107333
 30
0.0
 11
109.9945479652426
 21
64.576540912107333
 31
0.0
  0
LINE
  5
119
  8
2
 10
107.844547965243
 20
64.576540912107333
 30
0.0
 11
106.8445479652429
 21
63.999190642917789
 31
0.0
  0
LINE
  5
11A
  8
2
 10
109.9945479652426
 20
64.076540912107333
 30
0.0
 11
111.3445479652425
 21
64.076540912107333
 31
0.0
  0
LINE
  5
11B
  8
2
 10
110.3445479652425
 20
65.855429864495449
 30
0.0
 11
111.3445479652425
 21
65.855429864495449
 31
0.0
  0
ARC
  5
11C
  8
2
 10
111.64454796524259
 20
64.876540912107401
 30
0.0
 40
0.3
 50
180.0
 51
270.0
  0
LINE
  5
11D
  8
2
 10
111.3445479652425
 20
66.976540912107424
 30
0.0
 11
113.1742186563948
 21
66.976540912107424
 31
0.0
  0
LINE
  5
11E
  8
2
 10
116.5148772740902
 20
66.976540912107424
 30
0.0
 11
118.3445479652425
 21
66.976540912107424
 31
0.0
  0
ARC
  5
11F
  8
2
 10
118.14454796524259
 20
64.776540912107151
 30
0.0
 40
0.2
 50
270.0
 51
0.0
  0
ARC
  5
120
  8
2
 10
118.0445479652423
 20
64.876540912107401
 30
0.0
 40
0.3
 50
270.0
 51
0.0
  0
LINE
  5
121
  8
0
 10
65.336829123077621
 20
78.667478474579042
 30
0.0
 11
67.181166793887513
 21
79.338762488689639
 31
0.0
  0
ARC
  5
122
  8
0
 10
64.613585155491592
 20
80.061996625241676
 30
0.0
 40
1.570911426267553
 50
122.5872283088592
 51
297.41277169114159
  0
LINE
  5
123
  8
0
 10
65.336829123077621
 20
72.485603349635625
 30
0.0
 11
67.181166793887229
 21
71.814319335525141
 31
0.0
  0
ARC
  5
124
  8
0
 10
64.613585155491592
 20
71.091085198973218
 30
0.0
 40
1.570911426267553
 50
62.58722830885835
 51
237.41277169114079
  0
CIRCLE
  5
125
  8
0
 10
64.552173233018607
 20
71.126539481595586
 30
0.0
 40
1.0
  0
LINE
  5
126
  8
0
 10
63.767518994772217
 20
69.767478474578269
 30
0.0
 11
64.744463636851833
 21
68.947724585728423
 31
0.0
  0
LINE
  5
127
  8
0
 10
67.65101310428031
 20
71.643309263862392
 30
0.0
 11
67.181166793887229
 21
71.814319335525141
 31
0.0
  0
LINE
  5
128
  8
0
 10
63.767518994772217
 20
81.385603349636511
 30
0.0
 11
64.744463636851833
 21
82.205357238486243
 31
0.0
  0
CIRCLE
  5
129
  8
0
 10
64.552173233018607
 20
80.026542342619194
 30
0.0
 40
1.0
  0
LINE
  5
12A
  8
0
 10
67.181166793887513
 20
79.338762488689639
 30
0.0
 11
67.651013104280594
 21
79.509772560352616
 31
0.0
  0
LINE
  5
12B
  8
2
 10
111.64454796524259
 20
71.576540912107333
 30
0.0
 11
118.0445479652423
 21
71.576540912107333
 31
0.0
  0
ARC
  5
12C
  8
2
 10
111.64454796524259
 20
71.276540912107151
 30
0.0
 40
0.3
 50
90.0
 51
180.0
  0
LINE
  5
12D
  8
2
 10
111.3445479652425
 20
69.176540912107242
 30
0.0
 11
113.174218656394
 21
69.176540912107242
 31
0.0
  0
LINE
  5
12E
  8
2
 10
116.51487727409101
 20
69.176540912107242
 30
0.0
 11
118.3445479652425
 21
69.176540912107242
 31
0.0
  0
ARC
  5
12F
  8
2
 10
118.0445479652423
 20
71.276540912107151
 30
0.0
 40
0.3
 50
0.0
 51
90.0
  0
LINE
  5
130
  8
2
 10
111.64454796524259
 20
79.576540912107333
 30
0.0
 11
118.0445479652423
 21
79.576540912107333
 31
0.0
  0
CIRCLE
  5
131
  8
2
 10
114.8445479652425
 20
83.076540912107333
 30
0.0
 40
2.0
  0
LINE
  5
132
  8
2
 10
111.3445479652425
 20
86.576540912107333
 30
0.0
 11
118.14454796524259
 21
86.576540912107333
 31
0.0
  0
LINE
  5
133
  8
2
 10
111.3445479652425
 20
81.976540912107424
 30
0.0
 11
113.174218656394
 21
81.976540912107424
 31
0.0
  0
LINE
  5
134
  8
2
 10
111.3445479652425
 20
84.176540912107242
 30
0.0
 11
113.1742186563948
 21
84.176540912107242
 31
0.0
  0
ARC
  5
135
  8
2
 10
111.64454796524259
 20
79.87654091210706
 30
0.0
 40
0.3
 50
180.0
 51
270.0
  0
LINE
  5
136
  8
2
 10
107.844547965243
 20
86.576540912107333
 30
0.0
 11
109.9945479652426
 21
86.576540912107333
 31
0.0
  0
LINE
  5
137
  8
2
 10
107.844547965243
 20
86.576540912107333
 30
0.0
 11
106.8445479652429
 21
87.153891181296757
 31
0.0
  0
LINE
  5
138
  8
2
 10
110.3445479652425
 20
85.297651959719218
 30
0.0
 11
111.3445479652425
 21
85.297651959719218
 31
0.0
  0
LINE
  5
139
  8
2
 10
109.9945479652426
 20
87.076540912107319
 30
0.0
 11
111.3445479652425
 21
87.076540912107319
 31
0.0
  0
ARC
  5
13A
  8
2
 10
111.6445479652422
 20
86.276540912107151
 30
0.0
 40
0.3
 50
90.0
 51
180.0
  0
LINE
  5
13B
  8
2
 10
116.5148772740902
 20
84.176540912107242
 30
0.0
 11
118.3445479652425
 21
84.176540912107242
 31
0.0
  0
LINE
  5
13C
  8
2
 10
116.51487727409101
 20
81.976540912107424
 30
0.0
 11
118.3445479652425
 21
81.976540912107424
 31
0.0
  0
ARC
  5
13D
  8
2
 10
118.0445479652423
 20
79.876540912107401
 30
0.0
 40
0.3
 50
270.0
 51
0.0
  0
ARC
  5
13E
  8
2
 10
118.14454796524259
 20
86.376540912107515
 30
0.0
 40
0.2
 50
0.0
 51
90.0
  0
ARC
  5
13F
  8
2
 10
118.14454796524259
 20
86.376540912107515
 30
0.0
 40
0.2
 50
0.0
 51
90.0
  0
ARC
  5
140
  8
2
 10
118.0445479652423
 20
86.276540912107151
 30
0.0
 40
0.3
 50
0.0
 51
90.0
  0
ARC
  5
141
  8
0
 10
107.24454796524191
 20
90.176540912107129
 30
0.0
 40
0.4
 50
89.999999999993491
 51
179.99999999999349
  0
LINE
  5
142
  8
0
 10
122.8445479652418
 20
60.976540912107787
 30
0.0
 11
122.8445479652419
 21
90.176540912107441
 31
0.0
  0
ARC
  5
143
  8
0
 10
122.4445479652419
 20
60.976540912107787
 30
0.0
 40
0.4
 50
270.00000000000648
 51
0.0
  0
ARC
  5
144
  8
0
 10
122.4445479652419
 20
90.176540912107441
 30
0.0
 40
0.4
 50
0.0
 51
89.999999999993491
  0
TEXT
  5
1F0
  8
0
 62
     3
 10
0.0
 20
0.0
 30
0.0
 40
10.0
  1
GRL40J-F
  7
STANDARD1
  0
ENDSEC
  0
EOF
