  0
SECTION
  2
HEADER
  9
$ACADVER
  1
AC1009
  9
$INSBASE
 10
0.0
 20
0.0
 30
0.0
  9
$EXTMIN
 10
0.0
 20
-2.960436562073669
 30
0.0
  9
$EXTMAX
 10
139.96171797968799
 20
99.622641304901435
 30
0.0
  9
$LIMMIN
 10
0.0
 20
0.0
  9
$LIMMAX
 10
187.5
 20
135.0
  9
$ORTHOMODE
 70
     0
  9
$REGENMODE
 70
     1
  9
$FILLMODE
 70
     1
  9
$QTEXTMODE
 70
     0
  9
$MIRRTEXT
 70
     0
  9
$DRAGMODE
 70
     2
  9
$LTSCALE
 40
5.0
  9
$OSMODE
 70
  3071
  9
$ATTMODE
 70
     1
  9
$TEXTSIZE
 40
0.2
  9
$TRACEWID
 40
0.05
  9
$TEXTSTYLE
  7
STANDARD
  9
$CLAYER
  8
0
  9
$CELTYPE
  6
BYLAYER
  9
$CECOLOR
 62
   256
  9
$DIMSCALE
 40
0.5
  9
$DIMASZ
 40
3.0
  9
$DIMEXO
 40
2.0
  9
$DIMDLI
 40
0.3799999999999999
  9
$DIMRND
 40
0.0
  9
$DIMDLE
 40
0.0
  9
$DIMEXE
 40
2.0
  9
$DIMTP
 40
0.0
  9
$DIMTM
 40
0.0
  9
$DIMTXT
 40
3.2000000000000002
  9
$DIMCEN
 40
0.09
  9
$DIMTSZ
 40
0.0
  9
$DIMTOL
 70
     0
  9
$DIMLIM
 70
     0
  9
$DIMTIH
 70
     0
  9
$DIMTOH
 70
     0
  9
$DIMSE1
 70
     0
  9
$DIMSE2
 70
     0
  9
$DIMTAD
 70
     1
  9
$DIMZIN
 70
     0
  9
$DIMBLK
  1

  9
$DIMASO
 70
     0
  9
$DIMSHO
 70
     0
  9
$DIMPOST
  1

  9
$DIMAPOST
  1

  9
$DIMALT
 70
     0
  9
$DIMALTD
 70
     2
  9
$DIMALTF
 40
25.399999999999999
  9
$DIMLFAC
 40
1.0
  9
$DIMTOFL
 70
     0
  9
$DIMTVP
 40
1.6000000000000001
  9
$DIMTIX
 70
     1
  9
$DIMSOXD
 70
     0
  9
$DIMSAH
 70
     0
  9
$DIMBLK1
  1

  9
$DIMBLK2
  1

  9
$DIMSTYLE
  2
STANDARD
  9
$DIMCLRD
 70
     0
  9
$DIMCLRE
 70
     0
  9
$DIMCLRT
 70
     0
  9
$DIMTFAC
 40
1.0
  9
$DIMGAP
 40
0.09
  9
$LUNITS
 70
     2
  9
$LUPREC
 70
     4
  9
$SKETCHINC
 40
0.1
  9
$FILLETRAD
 40
0.4
  9
$AUNITS
 70
     0
  9
$AUPREC
 70
     0
  9
$MENU
  1
E:\r13\win\SUPPORT\ACAD
  9
$ELEVATION
 40
0.0
  9
$PELEVATION
 40
0.0
  9
$THICKNESS
 40
0.0
  9
$LIMCHECK
 70
     0
  9
$BLIPMODE
 70
     0
  9
$CHAMFERA
 40
0.0
  9
$CHAMFERB
 40
0.0
  9
$SKPOLY
 70
     0
  9
$TDCREATE
 40
2451824.6906229062
  9
$TDUPDATE
 40
2456598.6896103942
  9
$TDINDWG
 40
0.0229829167
  9
$TDUSRTIMER
 40
0.0229829167
  9
$USRTIMER
 70
     1
  9
$ANGBASE
 50
0.0
  9
$ANGDIR
 70
     0
  9
$PDMODE
 70
     0
  9
$PDSIZE
 40
0.0
  9
$PLINEWID
 40
0.0
  9
$COORDS
 70
     1
  9
$SPLFRAME
 70
     0
  9
$SPLINETYPE
 70
     6
  9
$SPLINESEGS
 70
     8
  9
$ATTDIA
 70
     0
  9
$ATTREQ
 70
     1
  9
$HANDLING
 70
     1
  9
$HANDSEED
  5
1D4
  9
$SURFTAB1
 70
     6
  9
$SURFTAB2
 70
     6
  9
$SURFTYPE
 70
     6
  9
$SURFU
 70
     6
  9
$SURFV
 70
     6
  9
$UCSNAME
  2

  9
$UCSORG
 10
0.0
 20
0.0
 30
0.0
  9
$UCSXDIR
 10
1.0
 20
0.0
 30
0.0
  9
$UCSYDIR
 10
0.0
 20
1.0
 30
0.0
  9
$PUCSNAME
  2

  9
$PUCSORG
 10
0.0
 20
0.0
 30
0.0
  9
$PUCSXDIR
 10
1.0
 20
0.0
 30
0.0
  9
$PUCSYDIR
 10
0.0
 20
1.0
 30
0.0
  9
$USERI1
 70
     0
  9
$USERI2
 70
     1
  9
$USERI3
 70
     0
  9
$USERI4
 70
     0
  9
$USERI5
 70
     0
  9
$USERR1
 40
0.0
  9
$USERR2
 40
0.0
  9
$USERR3
 40
0.0
  9
$USERR4
 40
0.0
  9
$USERR5
 40
0.0
  9
$WORLDVIEW
 70
     1
  9
$SHADEDGE
 70
     3
  9
$SHADEDIF
 70
    70
  9
$TILEMODE
 70
     1
  9
$MAXACTVP
 70
    16
  9
$PLIMCHECK
 70
     0
  9
$PEXTMIN
 10
1.0000000000000000E+020
 20
1.0000000000000000E+020
 30
1.0000000000000000E+020
  9
$PEXTMAX
 10
-1.0000000000000000E+020
 20
-1.0000000000000000E+020
 30
-1.0000000000000000E+020
  9
$PLIMMIN
 10
0.0
 20
0.0
  9
$PLIMMAX
 10
12.0
 20
9.0
  9
$UNITMODE
 70
     0
  9
$VISRETAIN
 70
     0
  9
$PLINEGEN
 70
     0
  9
$PSLTSCALE
 70
     0
  0
ENDSEC
  0
SECTION
  2
TABLES
  0
TABLE
  2
VPORT
 70
     1
  0
VPORT
  2
*ACTIVE
 70
     0
 10
0.0
 20
0.0
 11
1.0
 21
1.0
 12
93.74713919532617
 22
66.313465060797697
 13
0.0
 23
0.0
 14
5.0
 24
5.0
 15
5.0
 25
5.0
 16
0.0
 26
0.0
 36
1.0
 17
0.0
 27
0.0
 37
0.0
 40
140.15365342376049
 41
2.304913294797688
 42
50.0
 43
0.0
 44
0.0
 50
0.0
 51
0.0
 71
     0
 72
   500
 73
     1
 74
     0
 75
     0
 76
     0
 77
     0
 78
     2
  0
ENDTAB
  0
TABLE
  2
LTYPE
 70
     4
  0
LTYPE
  2
CONTINUOUS
 70
     0
  3
Solid Line
 72
    65
 73
     0
 40
0.0
  0
LTYPE
  2
CENTER
 70
     0
  3
____ _ ____ _ ____ _ ____ _ ____ _ ____ _ ____
 72
    65
 73
     4
 40
2.0
 49
1.25
 49
-0.25
 49
0.25
 49
-0.25
  0
LTYPE
  2
HIDDEN
 70
     0
  3
__ __ __ __ __ __ __ __ __ __ __ __ __ __ __ __
 72
    65
 73
     2
 40
0.375
 49
0.25
 49
-0.125
  0
LTYPE
  2
PHANTOM2
 70
     0
  3
___ _ _ ___ _ _ ___ _ _ ___ _ _
 72
    65
 73
     6
 40
1.25
 49
0.625
 49
-0.125
 49
0.125
 49
-0.125
 49
0.125
 49
-0.125
  0
ENDTAB
  0
TABLE
  2
LAYER
 70
     3
  0
LAYER
  2
0
 70
     0
 62
     7
  6
CONTINUOUS
  0
LAYER
  2
1
 70
     0
 62
     1
  6
CENTER
  0
LAYER
  2
2
 70
     0
 62
     2
  6
HIDDEN
  0
ENDTAB
  0
TABLE
  2
STYLE
 70
     2
  0
STYLE
  2
STANDARD
 70
     0
 40
0.0
 41
1.0
 50
0.0
 71
     0
 42
0.2
  3
TXT
  4
BIGFONT
  0
STYLE
  2
STANDARD1
 70
     0
 40
0.0
 41
1.0
 50
0.0
 71
     0
 42
3.0
  3
txt
  4

  0
ENDTAB
  0
TABLE
  2
VIEW
 70
     0
  0
ENDTAB
  0
TABLE
  2
UCS
 70
     0
  0
ENDTAB
  0
TABLE
  2
APPID
 70
     3
  0
APPID
  2
ACAD
 70
     0
  0
APPID
  2
ACAD_MLEADERVER
 70
     0
  0
APPID
  2
ACAD_NAV_VCDISPLAY
 70
     0
  0
ENDTAB
  0
TABLE
  2
DIMSTYLE
 70
     1
  0
DIMSTYLE
  2
STANDARD
 70
     0
  3

  4

  5

  6

  7

 40
1.0
 41
0.18
 42
0.0625
 43
0.38
 44
0.18
 45
0.0
 46
0.0
 47
0.0
 48
0.0
140
0.18
141
0.09
142
0.0
143
25.399999999999999
144
1.0
145
0.0
146
1.0
147
0.09
 71
     0
 72
     0
 73
     1
 74
     1
 75
     0
 76
     0
 77
     0
 78
     0
170
     0
171
     2
172
     0
173
     0
174
     0
175
     0
176
     0
177
     0
178
     0
  0
ENDTAB
  0
ENDSEC
  0
SECTION
  2
BLOCKS
  0
BLOCK
  8
0
  2
$MODEL_SPACE
 70
     0
 10
0.0
 20
0.0
 30
0.0
  3
$MODEL_SPACE
  1

  0
ENDBLK
  5
9
  8
0
  0
BLOCK
 67
     1
  8
0
  2
$PAPER_SPACE
 70
     0
 10
0.0
 20
0.0
 30
0.0
  3
$PAPER_SPACE
  1

  0
ENDBLK
  5
E
 67
     1
  8
0
  0
ENDSEC
  0
SECTION
  2
ENTITIES
  0
LINE
  5
26
  8
0
 10
123.82825031770069
 20
89.622641519882379
 30
0.0
 11
134.96171784809371
 21
89.622641519883729
 31
0.0
  0
LINE
  5
28
  8
0
 10
123.429772438464
 20
89.987779222783274
 30
0.0
 11
123.0242745304637
 21
94.622641519882265
 31
0.0
  0
LINE
  5
29
  8
0
 10
118.9617178480941
 20
94.622641519882265
 30
0.0
 11
123.0242745304637
 21
94.622641519882265
 31
0.0
  0
ARC
  5
2A
  8
0
 10
123.82825031770069
 20
90.022641519882384
 30
0.0
 40
0.4
 50
185.00000000000631
 51
270.00000000000648
  0
ARC
  5
2B
  8
0
 10
123.82825031770069
 20
59.222641519882167
 30
0.0
 40
0.4
 50
89.999999999993491
 51
174.99999999999361
  0
LINE
  5
2C
  8
0
 10
123.429772438464
 20
59.257503816981277
 30
0.0
 11
123.0242745304637
 21
54.622641519882293
 31
0.0
  0
LINE
  5
2D
  8
0
 10
123.82825031770069
 20
59.62264151988218
 30
0.0
 11
134.96171784809371
 21
59.62264151988083
 31
0.0
  0
LINE
  5
2E
  8
0
 10
118.9617178480941
 20
54.622641519882279
 30
0.0
 11
123.0242745304637
 21
54.622641519882293
 31
0.0
  0
LINE
  5
2F
  8
1
 10
83.961717979688274
 20
74.622641304901435
 30
0.0
 11
33.961717979688281
 21
74.622641304901435
 31
0.0
  0
LINE
  5
32
  8
1
 10
58.961717979688267
 20
99.622641304901435
 30
0.0
 11
58.961717979688267
 21
49.622641304901443
 31
0.0
  0
CIRCLE
  5
33
  8
2
 10
58.961717979688267
 20
74.622641304901435
 30
0.0
 40
15.0
  0
CIRCLE
  5
36
  8
0
 10
58.961717979688267
 20
74.622641304901435
 30
0.0
 40
20.0
  0
CIRCLE
  5
37
  8
2
 10
58.961717979688267
 20
74.622641304901435
 30
0.0
 40
11.5
  0
CIRCLE
  5
38
  8
0
 10
58.961717979688267
 20
74.622641304901435
 30
0.0
 40
11.0
  0
ARC
  5
39
  8
0
 10
59.711717979687307
 20
74.622641304901435
 30
0.0
 40
9.75
 50
42.834156958489928
 51
317.16584304151093
  0
LINE
  5
3A
  8
0
 10
65.884689009217709
 20
80.431703742430642
 30
0.0
 11
66.861633651297424
 21
81.251457631280346
 31
0.0
  0
LINE
  5
3B
  8
0
 10
67.453999137523169
 20
77.713578867373087
 30
0.0
 11
69.298336808333062
 21
78.38486288148377
 31
0.0
  0
CIRCLE
  5
3C
  8
0
 10
66.669343247464212
 20
79.072642735413325
 30
0.0
 40
1.0
  0
ARC
  5
3D
  8
0
 10
66.730755169937083
 20
79.10809701803575
 30
0.0
 40
1.570911426267553
 50
122.58722830885699
 51
297.41277169114261
  0
ARC
  5
3E
  8
0
 10
66.730755169937083
 20
70.137185591767263
 30
0.0
 40
1.570911426267553
 50
62.587228308857398
 51
237.41277169114289
  0
CIRCLE
  5
3F
  8
0
 10
66.669343247464212
 20
70.172639874389688
 30
0.0
 40
1.0
  0
LINE
  5
40
  8
0
 10
67.453999137523169
 20
71.531703742429784
 30
0.0
 11
69.298336808332778
 21
70.860419728319243
 31
0.0
  0
LINE
  5
41
  8
0
 10
65.884689009217709
 20
68.813578867372371
 30
0.0
 11
66.861633651297424
 21
67.993824978522525
 31
0.0
  0
LINE
  5
42
  8
2
 10
69.298336808333062
 20
78.38486288148377
 30
0.0
 11
69.768183118726085
 21
78.555872953146661
 31
0.0
  0
LINE
  5
43
  8
2
 10
69.768183118725858
 20
70.689409656656494
 30
0.0
 11
69.298336808332778
 21
70.860419728319243
 31
0.0
  0
CIRCLE
  5
44
  8
0
 10
58.961717979688267
 20
74.622641304901435
 30
0.0
 40
4.0
  0
LINE
  5
45
  8
1
 10
113.9617179796883
 20
74.622641304901435
 30
0.0
 11
139.96171797968799
 21
74.622641304901435
 31
0.0
  0
LINE
  5
46
  8
0
 10
118.961717979688
 20
54.622641304901443
 30
0.0
 11
118.9617179796885
 21
94.622641304901435
 31
0.0
1001
ACAD
1000
ASC_BOUNDS
1002
{
1070
    19
1005
0
1005
0
1005
0
1002
}
  0
LINE
  5
47
  8
0
 10
134.96171784809371
 20
59.62264151988083
 30
0.0
 11
134.96171797968799
 21
89.622641519883729
 31
0.0
1001
ACAD
1000
ASC_BOUNDS
1002
{
1070
    19
1005
0
1005
0
1002
}
  0
LINE
  5
48
  8
2
 10
119.9617179796885
 20
63.622641304901492
 30
0.0
 11
122.11171797968809
 21
63.622641304901492
 31
0.0
1001
ACAD
1000
ASC_BOUNDS
1002
{
1070
    19
1005
0
1002
}
  0
LINE
  5
49
  8
2
 10
122.11171797968809
 20
63.122641304901379
 30
0.0
 11
123.461717979688
 21
63.122641304901379
 31
0.0
1001
ACAD
1000
ASC_BOUNDS
1002
{
1070
    19
1005
0
1005
0
1002
}
  0
LINE
  5
4A
  8
2
 10
123.461717979688
 20
63.622641304901492
 30
0.0
 11
130.2617179796882
 21
63.622641304901492
 31
0.0
1001
ACAD
1000
ASC_BOUNDS
1002
{
1070
    19
1005
0
1002
}
  0
LINE
  5
4B
  8
2
 10
119.9617179796885
 20
63.622641304901492
 30
0.0
 11
118.9617179796885
 21
63.04529103571187
 31
0.0
1001
ACAD
1000
ASC_BOUNDS
1002
{
1070
    19
1005
0
1002
}
  0
ARC
  5
4C
  8
2
 10
130.2617179796882
 20
63.82264130490131
 30
0.0
 40
0.2
 50
270.0
 51
359.99999999999989
1001
ACAD
1000
ASC_BOUNDS
1002
{
1070
    19
1005
0
1002
}
  0
LINE
  5
4D
  8
2
 10
123.461717979688
 20
81.022641304901583
 30
0.0
 11
125.2913886708395
 21
81.022641304901583
 31
0.0
  0
LINE
  5
4E
  8
2
 10
123.461717979688
 20
83.222641304901288
 30
0.0
 11
125.29138867084031
 21
83.222641304901288
 31
0.0
  0
CIRCLE
  5
4F
  8
2
 10
126.9617179796881
 20
82.122641304901435
 30
0.0
 40
2.0
  0
LINE
  5
50
  8
2
 10
128.63204728853569
 20
83.222641304901288
 30
0.0
 11
130.46171797968799
 21
83.222641304901288
 31
0.0
  0
LINE
  5
51
  8
2
 10
128.63204728853651
 20
81.022641304901583
 30
0.0
 11
130.46171797968799
 21
81.022641304901583
 31
0.0
  0
ARC
  5
52
  8
2
 10
123.7617179796882
 20
78.922641304901219
 30
0.0
 40
0.3
 50
180.0
 51
270.0
  0
ARC
  5
53
  8
2
 10
130.16171797968789
 20
78.922641304901504
 30
0.0
 40
0.3
 50
270.0
 51
0.0
  0
ARC
  5
54
  8
2
 10
130.16171797968789
 20
70.322641304901225
 30
0.0
 40
0.3
 50
0.0
 51
90.0
  0
ARC
  5
55
  8
2
 10
123.7617179796882
 20
70.322641304901225
 30
0.0
 40
0.3
 50
90.0
 51
180.00000000000011
  0
ARC
  5
56
  8
2
 10
130.16171797968789
 20
63.922641304901511
 30
0.0
 40
0.3
 50
270.0
 51
0.0
  0
ARC
  5
57
  8
2
 10
123.7617179796882
 20
63.922641304901511
 30
0.0
 40
0.3
 50
180.0
 51
270.0
  0
LINE
  5
58
  8
2
 10
128.63204728853651
 20
68.222641304901288
 30
0.0
 11
130.46171797968799
 21
68.222641304901288
 31
0.0
  0
LINE
  5
59
  8
2
 10
128.63204728853569
 20
66.022641304901583
 30
0.0
 11
130.46171797968799
 21
66.022641304901583
 31
0.0
  0
CIRCLE
  5
5A
  8
2
 10
126.9617179796881
 20
67.122641304901435
 30
0.0
 40
2.0
  0
LINE
  5
5B
  8
2
 10
123.461717979688
 20
66.022641304901583
 30
0.0
 11
125.29138867084031
 21
66.022641304901583
 31
0.0
  0
LINE
  5
5C
  8
2
 10
123.461717979688
 20
68.222641304901288
 30
0.0
 11
125.2913886708395
 21
68.222641304901288
 31
0.0
  0
LINE
  5
5D
  8
2
 10
123.7617179796882
 20
78.622641304901492
 30
0.0
 11
130.16171797968789
 21
78.622641304901492
 31
0.0
  0
LINE
  5
5E
  8
2
 10
123.7617179796882
 20
70.622641304901379
 30
0.0
 11
130.16171797968789
 21
70.622641304901379
 31
0.0
  0
LINE
  5
5F
  8
2
 10
122.4617179796881
 20
84.343752352513263
 30
0.0
 11
123.461717979688
 21
84.343752352513263
 31
0.0
  0
LINE
  5
60
  8
2
 10
122.4617179796881
 20
64.901530257289608
 30
0.0
 11
123.461717979688
 21
64.901530257289608
 31
0.0
  0
LINE
  5
61
  8
2
 10
130.46171797968799
 20
65.622641304901379
 30
0.0
 11
134.96171797968799
 21
65.622641304901379
 31
0.0
1001
ACAD
1000
ASC_BOUNDS
1002
{
1070
    19
1005
0
1002
}
  0
LINE
  5
62
  8
2
 10
130.46171797968799
 20
83.622641304901492
 30
0.0
 11
134.96171797968799
 21
83.622641304901492
 31
0.0
1001
ACAD
1000
ASC_BOUNDS
1002
{
1070
    19
1005
0
1002
}
  0
LINE
  5
63
  8
2
 10
119.9617179796885
 20
85.622641304901379
 30
0.0
 11
122.11171797968809
 21
85.622641304901379
 31
0.0
1001
ACAD
1000
ASC_BOUNDS
1002
{
1070
    19
1005
0
1002
}
  0
LINE
  5
64
  8
2
 10
122.11171797968809
 20
86.122641304901492
 30
0.0
 11
123.461717979688
 21
86.122641304901492
 31
0.0
1001
ACAD
1000
ASC_BOUNDS
1002
{
1070
    19
1005
0
1002
}
  0
LINE
  5
65
  8
2
 10
123.461717979688
 20
85.622641304901379
 30
0.0
 11
130.2617179796882
 21
85.622641304901379
 31
0.0
1001
ACAD
1000
ASC_BOUNDS
1002
{
1070
    19
1005
0
1002
}
  0
LINE
  5
66
  8
2
 10
119.9617179796885
 20
85.622641304901379
 30
0.0
 11
118.9617179796885
 21
86.199991574090859
 31
0.0
  0
ARC
  5
67
  8
2
 10
130.2617179796882
 20
85.42264130490156
 30
0.0
 40
0.2
 50
359.99999999999977
 51
90.0
1001
ACAD
1000
ASC_BOUNDS
1002
{
1070
    19
1005
0
1002
}
  0
ARC
  5
68
  8
2
 10
130.2617179796882
 20
85.42264130490156
 30
0.0
 40
0.2
 50
359.99999999999977
 51
90.0
  0
ARC
  5
69
  8
2
 10
130.16171797968789
 20
85.322641304901225
 30
0.0
 40
0.3
 50
0.0
 51
90.0
  0
ARC
  5
6A
  8
2
 10
123.7617179796878
 20
85.322641304901225
 30
0.0
 40
0.3
 50
90.0
 51
180.0000000000002
  0
LINE
  5
6B
  8
2
 10
130.46171797968799
 20
85.42264130490156
 30
0.0
 11
130.46171797968799
 21
63.82264130490131
 31
0.0
1001
ACAD
1000
ASC_BOUNDS
1002
{
1070
    19
1005
0
1005
0
1002
}
  0
LINE
  5
6C
  8
2
 10
123.461717979688
 20
86.122641304901492
 30
0.0
 11
123.461717979688
 21
63.122641304901379
 31
0.0
1001
ACAD
1000
ASC_BOUNDS
1002
{
1070
    19
1005
0
1005
0
1002
}
  0
LINE
  5
6D
  8
2
 10
122.11171797968809
 20
86.122641304901492
 30
0.0
 11
122.11171797968809
 21
63.122641304901379
 31
0.0
1001
ACAD
1000
ASC_BOUNDS
1002
{
1070
    19
1005
0
1005
0
1002
}
  0
LINE
  5
6E
  8
2
 10
119.9617179796885
 20
85.622641304901379
 30
0.0
 11
119.9617179796885
 21
63.622641304901492
 31
0.0
  0
LINE
  5
6F
  8
2
 10
122.4617179796881
 20
63.122641304901379
 30
0.0
 11
122.4617179796881
 21
86.122641304901492
 31
0.0
  0
LINE
  5
8F
  8
0
 10
123.0242745304637
 20
94.622641519882265
 30
0.0
 11
123.0242745304637
 21
54.622641519882293
 31
0.0
  0
LINE
  5
90
  8
0
 10
123.55801423465449
 20
59.517552454606253
 30
0.0
 11
123.55801423465449
 21
89.727730585158298
 31
0.0
  0
TEXT
  5
13F
  8
0
 62
     3
 10
0.0
 20
0.0
 30
0.0
 40
10.0
  1
GRL40S-L
  7
STANDARD1
  0
ENDSEC
  0
EOF
