  0
SECTION
  2
HEADER
  9
$ACADVER
  1
AC1009
  9
$INSBASE
 10
0.0
 20
0.0
 30
0.0
  9
$EXTMIN
 10
23.000000098950579
 20
20.039563512778169
 30
0.0
  9
$EXTMAX
 10
150.00000009895049
 20
96.000000074851854
 30
0.0
  9
$LIMMIN
 10
0.0
 20
0.0
  9
$LIMMAX
 10
750.0
 20
540.0
  9
$ORTHOMODE
 70
     1
  9
$REGENMODE
 70
     1
  9
$FILLMODE
 70
     1
  9
$QTEXTMODE
 70
     0
  9
$MIRRTEXT
 70
     0
  9
$DRAGMODE
 70
     2
  9
$LTSCALE
 40
10.0
  9
$OSMODE
 70
  3071
  9
$ATTMODE
 70
     1
  9
$TEXTSIZE
 40
0.2
  9
$TRACEWID
 40
0.05
  9
$TEXTSTYLE
  7
STANDARD
  9
$CLAYER
  8
0
  9
$CELTYPE
  6
BYLAYER
  9
$CECOLOR
 62
   256
  9
$DIMSCALE
 40
1.0
  9
$DIMASZ
 40
3.0
  9
$DIMEXO
 40
2.0
  9
$DIMDLI
 40
0.38
  9
$DIMRND
 40
0.0
  9
$DIMDLE
 40
0.0
  9
$DIMEXE
 40
2.0
  9
$DIMTP
 40
0.0
  9
$DIMTM
 40
0.0
  9
$DIMTXT
 40
3.2000000000000002
  9
$DIMCEN
 40
0.0
  9
$DIMTSZ
 40
0.0
  9
$DIMTOL
 70
     0
  9
$DIMLIM
 70
     0
  9
$DIMTIH
 70
     0
  9
$DIMTOH
 70
     0
  9
$DIMSE1
 70
     0
  9
$DIMSE2
 70
     0
  9
$DIMTAD
 70
     1
  9
$DIMZIN
 70
     0
  9
$DIMBLK
  1

  9
$DIMASO
 70
     0
  9
$DIMSHO
 70
     0
  9
$DIMPOST
  1

  9
$DIMAPOST
  1

  9
$DIMALT
 70
     0
  9
$DIMALTD
 70
     2
  9
$DIMALTF
 40
25.399999999999999
  9
$DIMLFAC
 40
1.0
  9
$DIMTOFL
 70
     0
  9
$DIMTVP
 40
1.6000000000000001
  9
$DIMTIX
 70
     1
  9
$DIMSOXD
 70
     0
  9
$DIMSAH
 70
     0
  9
$DIMBLK1
  1

  9
$DIMBLK2
  1

  9
$DIMSTYLE
  2
STANDARD
  9
$DIMCLRD
 70
     0
  9
$DIMCLRE
 70
     0
  9
$DIMCLRT
 70
     0
  9
$DIMTFAC
 40
1.0
  9
$DIMGAP
 40
0.09
  9
$LUNITS
 70
     2
  9
$LUPREC
 70
     4
  9
$SKETCHINC
 40
0.1
  9
$FILLETRAD
 40
0.0
  9
$AUNITS
 70
     0
  9
$AUPREC
 70
     4
  9
$MENU
  1
E:\r13\win\SUPPORT\ACAD
  9
$ELEVATION
 40
0.0
  9
$PELEVATION
 40
0.0
  9
$THICKNESS
 40
0.0
  9
$LIMCHECK
 70
     0
  9
$BLIPMODE
 70
     0
  9
$CHAMFERA
 40
0.0
  9
$CHAMFERB
 40
0.0
  9
$SKPOLY
 70
     0
  9
$TDCREATE
 40
2449840.6227546302
  9
$TDUPDATE
 40
2456602.6117617129
  9
$TDINDWG
 40
0.0130870718
  9
$TDUSRTIMER
 40
2456598.431458334
  9
$USRTIMER
 70
     1
  9
$ANGBASE
 50
0.0
  9
$ANGDIR
 70
     0
  9
$PDMODE
 70
     0
  9
$PDSIZE
 40
0.0
  9
$PLINEWID
 40
0.0
  9
$COORDS
 70
     1
  9
$SPLFRAME
 70
     0
  9
$SPLINETYPE
 70
     6
  9
$SPLINESEGS
 70
     8
  9
$ATTDIA
 70
     0
  9
$ATTREQ
 70
     1
  9
$HANDLING
 70
     1
  9
$HANDSEED
  5
4D9
  9
$SURFTAB1
 70
     6
  9
$SURFTAB2
 70
     6
  9
$SURFTYPE
 70
     6
  9
$SURFU
 70
     6
  9
$SURFV
 70
     6
  9
$UCSNAME
  2

  9
$UCSORG
 10
0.0
 20
0.0
 30
0.0
  9
$UCSXDIR
 10
1.0
 20
0.0
 30
0.0
  9
$UCSYDIR
 10
0.0
 20
1.0
 30
0.0
  9
$PUCSNAME
  2

  9
$PUCSORG
 10
0.0
 20
0.0
 30
0.0
  9
$PUCSXDIR
 10
1.0
 20
0.0
 30
0.0
  9
$PUCSYDIR
 10
0.0
 20
1.0
 30
0.0
  9
$USERI1
 70
     0
  9
$USERI2
 70
     1
  9
$USERI3
 70
     0
  9
$USERI4
 70
     0
  9
$USERI5
 70
     0
  9
$USERR1
 40
0.0
  9
$USERR2
 40
0.0
  9
$USERR3
 40
0.0
  9
$USERR4
 40
0.0
  9
$USERR5
 40
0.0
  9
$WORLDVIEW
 70
     1
  9
$SHADEDGE
 70
     3
  9
$SHADEDIF
 70
    70
  9
$TILEMODE
 70
     1
  9
$MAXACTVP
 70
    16
  9
$PLIMCHECK
 70
     0
  9
$PEXTMIN
 10
1.0000000000000000E+020
 20
1.0000000000000000E+020
 30
1.0000000000000000E+020
  9
$PEXTMAX
 10
-1.0000000000000000E+020
 20
-1.0000000000000000E+020
 30
-1.0000000000000000E+020
  9
$PLIMMIN
 10
0.0
 20
0.0
  9
$PLIMMAX
 10
12.0
 20
9.0
  9
$UNITMODE
 70
     0
  9
$VISRETAIN
 70
     0
  9
$PLINEGEN
 70
     0
  9
$PSLTSCALE
 70
     0
  0
ENDSEC
  0
SECTION
  2
TABLES
  0
TABLE
  2
VPORT
 70
     1
  0
VPORT
  2
*ACTIVE
 70
     0
 10
0.0
 20
0.0
 11
1.0
 21
1.0
 12
177.58334063086471
 22
30.149954952435081
 13
0.0
 23
0.0
 14
20.0
 24
20.0
 15
20.0
 25
20.0
 16
0.0
 26
0.0
 36
1.0
 17
0.0
 27
0.0
 37
0.0
 40
280.41939284328379
 41
1.8318713450292401
 42
50.0
 43
0.0
 44
0.0
 50
0.0
 51
0.0
 71
    16
 72
   100
 73
     1
 74
     0
 75
     0
 76
     0
 77
     0
 78
     2
  0
ENDTAB
  0
TABLE
  2
LTYPE
 70
     7
  0
LTYPE
  2
CONTINUOUS
 70
     0
  3
Solid Line
 72
    65
 73
     0
 40
0.0
  0
LTYPE
  2
CENTER
 70
     0
  3
____ _ ____ _ ____ _ ____ _ ____ _ ____ _ ____
 72
    65
 73
     4
 40
2.0
 49
1.25
 49
-0.25
 49
0.25
 49
-0.25
  0
LTYPE
  2
HIDDEN
 70
     0
  3
_ _ _ _ _ _ _ _ _ _ _ _ _ _ _ _ _ _ _ _ _ _ _
 72
    65
 73
     2
 40
0.375
 49
0.25
 49
-0.125
  0
LTYPE
  2
PHANTOM2
 70
     0
  3
___ _ _ ___ _ _ ___ _ _ ___ _ _
 72
    65
 73
     6
 40
1.25
 49
0.625
 49
-0.125
 49
0.125
 49
-0.125
 49
0.125
 49
-0.125
  0
LTYPE
  2
CNS_SOLID
 70
     0
  3

 72
    65
 73
     0
 40
0.0
  0
LTYPE
  2
CNS_DASHED
 70
     0
  3

 72
    65
 73
     2
 40
2.0
 49
1.0
 49
-1.0
  0
LTYPE
  2
CNS_CENTER
 70
     0
  3

 72
    65
 73
     4
 40
2.0
 49
0.45
 49
-0.5
 49
0.05
 49
-0.5
  0
ENDTAB
  0
TABLE
  2
LAYER
 70
     4
  0
LAYER
  2
0
 70
     0
 62
     7
  6
CONTINUOUS
  0
LAYER
  2
1
 70
     0
 62
     1
  6
CENTER
  0
LAYER
  2
2
 70
     0
 62
     2
  6
HIDDEN
  0
LAYER
  2
3
 70
     0
 62
     3
  6
CONTINUOUS
  0
ENDTAB
  0
TABLE
  2
STYLE
 70
     2
  0
STYLE
  2
STANDARD
 70
     0
 40
0.0
 41
1.0
 50
0.0
 71
     0
 42
0.2
  3
TXT
  4
BIGFONT
  0
STYLE
  2
STANDARD1
 70
     0
 40
0.0
 41
1.0
 50
0.0
 71
     0
 42
3.0
  3
txt
  4

  0
ENDTAB
  0
TABLE
  2
VIEW
 70
     1
  0
VIEW
  2
ALL
 70
     0
 40
540.0
 10
441.98319299999991
 20
270.0
 41
0.0
 11
0.0
 21
0.0
 31
1.0
 12
0.0
 22
0.0
 32
0.0
 42
0.0
 43
0.0
 44
0.0
 50
0.0
 71
     0
  0
ENDTAB
  0
TABLE
  2
UCS
 70
     0
  0
ENDTAB
  0
TABLE
  2
APPID
 70
     7
  0
APPID
  2
ACAD
 70
     0
  0
APPID
  2
ACAD_NAV_VCDISPLAY
 70
     0
  0
APPID
  2
ACAD_EXEMPT_FROM_CAD_STANDARDS
 70
     0
  0
APPID
  2
ACAD_DSTYLE_DIMJAG
 70
     0
  0
APPID
  2
ACAD_DSTYLE_DIMTALN
 70
     0
  0
APPID
  2
ACAD_MLEADERVER
 70
     0
  0
APPID
  2
ACAD_DSTYLE_DIMRADIAL_EXTENSION
 70
     0
  0
ENDTAB
  0
TABLE
  2
DIMSTYLE
 70
     2
  0
DIMSTYLE
  2
STANDARD
 70
     0
  3

  4

  5

  6

  7

 40
1.0
 41
0.18
 42
0.0625
 43
0.38
 44
0.18
 45
0.0
 46
0.0
 47
0.0
 48
0.0
140
0.18
141
0.09
142
0.0
143
25.399999999999999
144
1.0
145
0.0
146
1.0
147
0.09
 71
     0
 72
     0
 73
     1
 74
     1
 75
     0
 76
     0
 77
     0
 78
     0
170
     0
171
     2
172
     0
173
     0
174
     0
175
     0
176
     0
177
     0
178
     0
  0
DIMSTYLE
  2
ISO-25
 70
     0
  3

  4

  5

  6

  7

 40
1.0
 41
2.5
 42
0.625
 43
3.75
 44
1.25
 45
0.0
 46
0.0
 47
0.0
 48
0.0
140
2.5
141
2.5
142
0.0
143
0.03937007874016
144
1.0
145
0.0
146
1.0
147
0.625
 71
     0
 72
     0
 73
     0
 74
     0
 75
     0
 76
     0
 77
     1
 78
     8
170
     0
171
     3
172
     1
173
     0
174
     0
175
     0
176
     0
177
     0
178
     0
  0
ENDTAB
  0
ENDSEC
  0
SECTION
  2
BLOCKS
  0
BLOCK
  8
0
  2
$MODEL_SPACE
 70
     0
 10
0.0
 20
0.0
 30
0.0
  3
$MODEL_SPACE
  1

  0
ENDBLK
  5
11D
  8
0
  0
BLOCK
 67
     1
  8
0
  2
$PAPER_SPACE
 70
     0
 10
0.0
 20
0.0
 30
0.0
  3
$PAPER_SPACE
  1

  0
ENDBLK
  5
11B
 67
     1
  8
0
  0
ENDSEC
  0
SECTION
  2
ENTITIES
  0
CIRCLE
  5
382
  8
0
 10
73.000000098950565
 20
73.00000007485184
 30
0.0
 40
18.0
  0
LINE
  5
383
  8
0
 10
83.971081542081535
 20
76.193019964146941
 30
0.0
 11
83.622703569240286
 21
76.091628272432416
 31
0.0
  0
ARC
  5
384
  8
0
 10
82.979980058850288
 20
78.300000074851795
 30
0.0
 40
2.3000000000000611
 50
152.31511920495589
 51
286.22709122288302
  0
ARC
  5
385
  8
0
 10
78.906605274798139
 20
80.437198677848556
 30
0.0
 40
2.300000000000292
 50
332.31511920496331
 51
55.264375387000911
  0
ARC
  5
386
  8
0
 10
73.75000009895048
 20
73.000000074851826
 30
0.0
 40
11.350000000000049
 50
55.26437361110613
 51
304.7356268402288
  0
ARC
  5
387
  8
0
 10
78.906605274798181
 20
65.562801471855025
 30
0.0
 40
2.3000000000002352
 50
304.73562684023318
 51
27.684877825392309
  0
ARC
  5
388
  8
0
 10
82.979980058850302
 20
67.700000074851815
 30
0.0
 40
2.3000000000001242
 50
73.772908777118147
 51
207.68488376469139
  0
CIRCLE
  5
389
  8
0
 10
82.979980058850288
 20
78.300000074851795
 30
0.0
 40
0.9999999999999431
  0
ARC
  5
38A
  8
0
 10
83.412191106155547
 20
67.886656899444716
 30
0.0
 40
2.0000000000000382
 50
22.846580400801351
 51
73.772908777137573
  0
LINE
  5
38B
  8
0
 10
83.622703569240286
 20
69.908371877271264
 30
0.0
 11
83.971081542081535
 21
69.806980185556739
 31
0.0
  0
ARC
  5
38C
  8
0
 10
83.412191106155547
 20
78.11334325025895
 30
0.0
 40
2.000000000000032
 50
286.2270912228629
 51
337.15341959919863
  0
CIRCLE
  5
38D
  8
0
 10
82.979980058850302
 20
67.700000074851815
 30
0.0
 40
1.0
  0
CIRCLE
  5
38E
  8
0
 10
73.000000098950565
 20
73.00000007485184
 30
0.0
 40
5.0
  0
CIRCLE
  5
38F
  8
0
 10
73.000000098950565
 20
73.00000007485184
 30
0.0
 40
13.0
  0
LINE
  5
390
  8
2
 10
131.49999974877329
 20
61.6748065057877
 30
0.0
 11
130.29999992460699
 21
61.6748065057877
 31
0.0
  0
LINE
  5
391
  8
2
 10
130.29999992460699
 20
84.325193643915981
 30
0.0
 11
131.49999974877329
 21
84.325193643915981
 31
0.0
  0
LINE
  5
392
  8
2
 10
130.29999992460699
 20
86.600000255155905
 30
0.0
 11
130.29999992460699
 21
59.39999989454779
 31
0.0
  0
LINE
  5
393
  8
2
 10
137.2070511259007
 20
64.99999969487223
 30
0.0
 11
139.5000001287529
 21
64.99999969487223
 31
0.0
  0
LINE
  5
394
  8
2
 10
131.49999974877329
 20
64.99999969487223
 30
0.0
 11
133.74294907200041
 21
64.99999969487223
 31
0.0
  0
LINE
  5
395
  8
2
 10
139.5000001287529
 20
68.000000186610549
 30
0.0
 11
131.49999974877329
 21
68.000000186610549
 31
0.0
  0
LINE
  5
396
  8
2
 10
139.5000001287529
 20
81.000000454831451
 30
0.0
 11
137.2070511259007
 21
81.000000454831437
 31
0.0
  0
LINE
  5
397
  8
2
 10
131.49999974877329
 20
77.999999963093131
 30
0.0
 11
139.5000001287529
 21
77.999999963093131
 31
0.0
  0
LINE
  5
398
  8
2
 10
133.74294907200041
 20
81.000000454831465
 30
0.0
 11
131.49999974877329
 21
81.000000454831451
 31
0.0
  0
LINE
  5
399
  8
2
 10
131.49999974877329
 20
59.999999806630939
 30
0.0
 11
139.5000001287529
 21
59.999999806630939
 31
0.0
  0
LINE
  5
39A
  8
2
 10
139.5000001287529
 20
86.000000343072756
 30
0.0
 11
131.49999974877329
 21
86.000000343072756
 31
0.0
  0
LINE
  5
39B
  8
2
 10
131.49999974877329
 20
82.999999851334422
 30
0.0
 11
133.7429491623339
 21
82.999999851334437
 31
0.0
  0
LINE
  5
39C
  8
2
 10
137.2070510355673
 20
82.999999851334408
 30
0.0
 11
139.5000001287529
 21
82.999999851334422
 31
0.0
  0
LINE
  5
39D
  8
2
 10
139.5000001287529
 20
63.000000298369258
 30
0.0
 11
137.2070510355673
 21
63.000000298369258
 31
0.0
  0
LINE
  5
39E
  8
2
 10
133.7429491623339
 20
63.000000298369258
 30
0.0
 11
131.49999974877329
 21
63.000000298369258
 31
0.0
  0
CIRCLE
  5
39F
  8
2
 10
135.4750000989506
 20
82.000000074851826
 30
0.0
 40
2.0
  0
CIRCLE
  5
3A0
  8
2
 10
135.4750000989506
 20
64.00000007485184
 30
0.0
 40
2.0
  0
LINE
  5
3A1
  8
0
 10
144.50000007520191
 20
55.405822798955768
 30
0.0
 11
145.00000009895049
 21
55.69449926947388
 31
0.0
  0
LINE
  5
3A2
  8
0
 10
145.00000009895049
 20
90.305500880229815
 30
0.0
 11
144.50000007520191
 21
90.594177350747927
 31
0.0
  0
LINE
  5
3A3
  8
2
 10
131.49999974877329
 20
86.600000255155905
 30
0.0
 11
131.49999974877329
 21
59.39999989454779
 31
0.0
  0
LINE
  5
3A4
  8
2
 10
130.15000017941691
 20
86.600000255155905
 30
0.0
 11
131.49999974877329
 21
86.600000255155905
 31
0.0
  0
LINE
  5
3A5
  8
2
 10
127.000000873811
 20
86.000000343072756
 30
0.0
 11
130.15000017941691
 21
86.000000343072756
 31
0.0
  0
LINE
  5
3A6
  8
2
 10
126.0000007098982
 20
86.577350490141257
 30
0.0
 11
127.000000873811
 21
86.000000343072756
 31
0.0
  0
LINE
  5
3A7
  8
0
 10
126.499999860532
 20
90.594177350747927
 30
0.0
 11
126.0000007098982
 21
90.305500880229815
 31
0.0
  0
ARC
  5
3A8
  8
0
 10
135.50000009895061
 20
-8.9999999251481313
 30
0.0
 40
99.999999999999943
 50
84.836392909153403
 51
95.163607090846583
  0
LINE
  5
3A9
  8
2
 10
139.5000001287529
 20
84.000000015247196
 30
0.0
 11
145.00000009895061
 21
84.000000015247196
 31
0.0
  0
LINE
  5
3AA
  8
2
 10
145.00000009895061
 20
62.000000134456492
 30
0.0
 11
139.5000001287529
 21
62.000000134456492
 31
0.0
  0
LINE
  5
3AB
  8
0
 10
145.00000009895049
 20
55.69449926947388
 30
0.0
 11
145.00000009895049
 21
90.305500880229815
 31
0.0
  0
ARC
  5
3AC
  8
0
 10
135.50000009895061
 20
155.00000007485181
 30
0.0
 40
99.999999999999986
 50
264.83639290915431
 51
275.16360709084728
  0
LINE
  5
3AD
  8
0
 10
126.0000007098982
 20
55.69449926947388
 30
0.0
 11
126.499999860532
 21
55.405822798955768
 31
0.0
  0
LINE
  5
3AE
  8
0
 10
126.0000007098982
 20
55.69449926947388
 30
0.0
 11
126.0000007098982
 21
90.305500880229815
 31
0.0
  0
LINE
  5
3AF
  8
2
 10
127.000000873811
 20
59.999999806630939
 30
0.0
 11
126.0000007098982
 21
59.422649659562438
 31
0.0
  0
LINE
  5
3B0
  8
2
 10
130.15000017941691
 20
59.999999806630939
 30
0.0
 11
127.000000873811
 21
59.999999806630939
 31
0.0
  0
LINE
  5
3B1
  8
2
 10
130.15000017941691
 20
59.39999989454779
 30
0.0
 11
130.15000017941691
 21
86.600000255155905
 31
0.0
  0
LINE
  5
3B2
  8
2
 10
131.49999974877329
 20
59.39999989454779
 30
0.0
 11
130.15000017941691
 21
59.39999989454779
 31
0.0
  0
LINE
  5
3B3
  8
2
 10
139.5000001287529
 20
86.000000343072756
 30
0.0
 11
139.5000001287529
 21
59.999999806630939
 31
0.0
  0
LINE
  5
3B4
  8
2
 10
127.000000873811
 20
59.999999806630939
 30
0.0
 11
127.000000873811
 21
86.000000343072756
 31
0.0
  0
LINE
  5
3B5
  8
1
 10
50.000000098950579
 20
73.00000007485184
 30
0.0
 11
96.000000098950579
 21
73.00000007485184
 31
0.0
  0
LINE
  5
3B6
  8
1
 10
73.000000098950565
 20
96.000000074851854
 30
0.0
 11
73.000000098950565
 21
50.00000007485184
 31
0.0
  0
LINE
  5
3B7
  8
1
 10
121.0000007098982
 20
73.000000074851854
 30
0.0
 11
150.00000009895049
 21
73.000000074851854
 31
0.0
  0
CIRCLE
  5
3B8
  8
2
 10
73.000000098950565
 20
73.00000007485184
 30
0.0
 40
13.600000180304059
  0
ARC
  5
3B9
  8
2
 10
83.412191576671489
 20
78.113343481325558
 30
0.0
 40
1.999999656112188
 50
337.15340826541041
 51
26.155283065160109
  0
ARC
  5
3BA
  8
2
 10
83.412191576671489
 20
67.886656668378123
 30
0.0
 40
1.999999656112188
 50
333.84471693483903
 51
22.84659173458963
  0
TEXT
  5
46F
  8
0
 62
     3
 10
23.000000098950579
 20
23.00000007485184
 30
0.0
 40
10.0
  1
GRL50S-C
  7
STANDARD1
  0
ENDSEC
  0
EOF
