  0
SECTION
  2
HEADER
  9
$ACADVER
  1
AC1009
  9
$INSBASE
 10
0.0
 20
0.0
 30
0.0
  9
$EXTMIN
 10
0.0
 20
-2.960436562073669
 30
0.0
  9
$EXTMAX
 10
172.25556965373221
 20
124.83130414797439
 30
0.0
  9
$LIMMIN
 10
0.0
 20
0.0
  9
$LIMMAX
 10
187.5
 20
135.0
  9
$ORTHOMODE
 70
     0
  9
$REGENMODE
 70
     1
  9
$FILLMODE
 70
     1
  9
$QTEXTMODE
 70
     0
  9
$MIRRTEXT
 70
     0
  9
$DRAGMODE
 70
     2
  9
$LTSCALE
 40
10.0
  9
$OSMODE
 70
  3071
  9
$ATTMODE
 70
     1
  9
$TEXTSIZE
 40
0.2
  9
$TRACEWID
 40
0.05
  9
$TEXTSTYLE
  7
STANDARD
  9
$CLAYER
  8
0
  9
$CELTYPE
  6
BYLAYER
  9
$CECOLOR
 62
   256
  9
$DIMSCALE
 40
0.5
  9
$DIMASZ
 40
3.0
  9
$DIMEXO
 40
2.0
  9
$DIMDLI
 40
0.3799999999999999
  9
$DIMRND
 40
0.0
  9
$DIMDLE
 40
0.0
  9
$DIMEXE
 40
2.0
  9
$DIMTP
 40
0.0
  9
$DIMTM
 40
0.0
  9
$DIMTXT
 40
3.2000000000000002
  9
$DIMCEN
 40
0.09
  9
$DIMTSZ
 40
0.0
  9
$DIMTOL
 70
     0
  9
$DIMLIM
 70
     0
  9
$DIMTIH
 70
     0
  9
$DIMTOH
 70
     0
  9
$DIMSE1
 70
     0
  9
$DIMSE2
 70
     0
  9
$DIMTAD
 70
     1
  9
$DIMZIN
 70
     0
  9
$DIMBLK
  1

  9
$DIMASO
 70
     0
  9
$DIMSHO
 70
     0
  9
$DIMPOST
  1

  9
$DIMAPOST
  1

  9
$DIMALT
 70
     0
  9
$DIMALTD
 70
     2
  9
$DIMALTF
 40
25.399999999999999
  9
$DIMLFAC
 40
1.0
  9
$DIMTOFL
 70
     0
  9
$DIMTVP
 40
1.6000000000000001
  9
$DIMTIX
 70
     1
  9
$DIMSOXD
 70
     0
  9
$DIMSAH
 70
     0
  9
$DIMBLK1
  1

  9
$DIMBLK2
  1

  9
$DIMSTYLE
  2
STANDARD
  9
$DIMCLRD
 70
     0
  9
$DIMCLRE
 70
     0
  9
$DIMCLRT
 70
     0
  9
$DIMTFAC
 40
1.0
  9
$DIMGAP
 40
0.09
  9
$LUNITS
 70
     2
  9
$LUPREC
 70
     4
  9
$SKETCHINC
 40
0.1
  9
$FILLETRAD
 40
0.4
  9
$AUNITS
 70
     0
  9
$AUPREC
 70
     0
  9
$MENU
  1
E:\r13\win\SUPPORT\ACAD
  9
$ELEVATION
 40
0.0
  9
$PELEVATION
 40
0.0
  9
$THICKNESS
 40
0.0
  9
$LIMCHECK
 70
     0
  9
$BLIPMODE
 70
     0
  9
$CHAMFERA
 40
0.0
  9
$CHAMFERB
 40
0.0
  9
$SKPOLY
 70
     0
  9
$TDCREATE
 40
2451824.6906229062
  9
$TDUPDATE
 40
2456598.6899399771
  9
$TDINDWG
 40
0.0342612037
  9
$TDUSRTIMER
 40
0.0342612037
  9
$USRTIMER
 70
     1
  9
$ANGBASE
 50
0.0
  9
$ANGDIR
 70
     0
  9
$PDMODE
 70
     0
  9
$PDSIZE
 40
0.0
  9
$PLINEWID
 40
0.0
  9
$COORDS
 70
     1
  9
$SPLFRAME
 70
     0
  9
$SPLINETYPE
 70
     6
  9
$SPLINESEGS
 70
     8
  9
$ATTDIA
 70
     0
  9
$ATTREQ
 70
     1
  9
$HANDLING
 70
     1
  9
$HANDSEED
  5
1F5
  9
$SURFTAB1
 70
     6
  9
$SURFTAB2
 70
     6
  9
$SURFTYPE
 70
     6
  9
$SURFU
 70
     6
  9
$SURFV
 70
     6
  9
$UCSNAME
  2

  9
$UCSORG
 10
0.0
 20
0.0
 30
0.0
  9
$UCSXDIR
 10
1.0
 20
0.0
 30
0.0
  9
$UCSYDIR
 10
0.0
 20
1.0
 30
0.0
  9
$PUCSNAME
  2

  9
$PUCSORG
 10
0.0
 20
0.0
 30
0.0
  9
$PUCSXDIR
 10
1.0
 20
0.0
 30
0.0
  9
$PUCSYDIR
 10
0.0
 20
1.0
 30
0.0
  9
$USERI1
 70
     0
  9
$USERI2
 70
     1
  9
$USERI3
 70
     0
  9
$USERI4
 70
     0
  9
$USERI5
 70
     0
  9
$USERR1
 40
0.0
  9
$USERR2
 40
0.0
  9
$USERR3
 40
0.0
  9
$USERR4
 40
0.0
  9
$USERR5
 40
0.0
  9
$WORLDVIEW
 70
     1
  9
$SHADEDGE
 70
     3
  9
$SHADEDIF
 70
    70
  9
$TILEMODE
 70
     1
  9
$MAXACTVP
 70
    16
  9
$PLIMCHECK
 70
     0
  9
$PEXTMIN
 10
1.0000000000000000E+020
 20
1.0000000000000000E+020
 30
1.0000000000000000E+020
  9
$PEXTMAX
 10
-1.0000000000000000E+020
 20
-1.0000000000000000E+020
 30
-1.0000000000000000E+020
  9
$PLIMMIN
 10
0.0
 20
0.0
  9
$PLIMMAX
 10
12.0
 20
9.0
  9
$UNITMODE
 70
     0
  9
$VISRETAIN
 70
     0
  9
$PLINEGEN
 70
     0
  9
$PSLTSCALE
 70
     0
  0
ENDSEC
  0
SECTION
  2
TABLES
  0
TABLE
  2
VPORT
 70
     1
  0
VPORT
  2
*ACTIVE
 70
     0
 10
0.0
 20
0.0
 11
1.0
 21
1.0
 12
93.74713919532617
 22
66.313465060797697
 13
0.0
 23
0.0
 14
5.0
 24
5.0
 15
5.0
 25
5.0
 16
0.0
 26
0.0
 36
1.0
 17
0.0
 27
0.0
 37
0.0
 40
140.15365342376049
 41
2.304913294797688
 42
50.0
 43
0.0
 44
0.0
 50
0.0
 51
0.0
 71
     0
 72
   500
 73
     1
 74
     0
 75
     0
 76
     0
 77
     0
 78
     2
  0
ENDTAB
  0
TABLE
  2
LTYPE
 70
     5
  0
LTYPE
  2
CONTINUOUS
 70
     0
  3
Solid Line
 72
    65
 73
     0
 40
0.0
  0
LTYPE
  2
CENTER
 70
     0
  3
____ _ ____ _ ____ _ ____ _ ____ _ ____ _ ____
 72
    65
 73
     4
 40
2.0
 49
1.25
 49
-0.25
 49
0.25
 49
-0.25
  0
LTYPE
  2
HIDDEN
 70
     0
  3
__ __ __ __ __ __ __ __ __ __ __ __ __ __ __ __
 72
    65
 73
     2
 40
0.375
 49
0.25
 49
-0.125
  0
LTYPE
  2
PHANTOM
 70
     0
  3
_____ _ _ _____ _ _ _____ _ _ _____ _ _ ____
 72
    65
 73
     6
 40
2.5
 49
1.25
 49
-0.25
 49
0.25
 49
-0.25
 49
0.25
 49
-0.25
  0
LTYPE
  2
PHANTOM2
 70
     0
  3
___ _ _ ___ _ _ ___ _ _ ___ _ _
 72
    65
 73
     6
 40
1.25
 49
0.625
 49
-0.125
 49
0.125
 49
-0.125
 49
0.125
 49
-0.125
  0
ENDTAB
  0
TABLE
  2
LAYER
 70
     4
  0
LAYER
  2
0
 70
     0
 62
     7
  6
CONTINUOUS
  0
LAYER
  2
1
 70
     0
 62
     1
  6
CENTER
  0
LAYER
  2
2
 70
     0
 62
     2
  6
HIDDEN
  0
LAYER
  2
5
 70
     0
 62
     3
  6
PHANTOM
  0
ENDTAB
  0
TABLE
  2
STYLE
 70
     2
  0
STYLE
  2
STANDARD
 70
     0
 40
0.0
 41
1.0
 50
0.0
 71
     0
 42
0.2
  3
TXT
  4
BIGFONT
  0
STYLE
  2
STANDARD1
 70
     0
 40
0.0
 41
1.0
 50
0.0
 71
     0
 42
3.0
  3
txt
  4

  0
ENDTAB
  0
TABLE
  2
VIEW
 70
     0
  0
ENDTAB
  0
TABLE
  2
UCS
 70
     0
  0
ENDTAB
  0
TABLE
  2
APPID
 70
     3
  0
APPID
  2
ACAD
 70
     0
  0
APPID
  2
ACAD_MLEADERVER
 70
     0
  0
APPID
  2
ACAD_NAV_VCDISPLAY
 70
     0
  0
ENDTAB
  0
TABLE
  2
DIMSTYLE
 70
     1
  0
DIMSTYLE
  2
STANDARD
 70
     0
  3

  4

  5

  6

  7

 40
1.0
 41
0.18
 42
0.0625
 43
0.38
 44
0.18
 45
0.0
 46
0.0
 47
0.0
 48
0.0
140
0.18
141
0.09
142
0.0
143
25.399999999999999
144
1.0
145
0.0
146
1.0
147
0.09
 71
     0
 72
     0
 73
     1
 74
     1
 75
     0
 76
     0
 77
     0
 78
     0
170
     0
171
     2
172
     0
173
     0
174
     0
175
     0
176
     0
177
     0
178
     0
  0
ENDTAB
  0
ENDSEC
  0
SECTION
  2
BLOCKS
  0
BLOCK
  8
0
  2
$MODEL_SPACE
 70
     0
 10
0.0
 20
0.0
 30
0.0
  3
$MODEL_SPACE
  1

  0
ENDBLK
  5
9
  8
0
  0
BLOCK
 67
     1
  8
0
  2
$PAPER_SPACE
 70
     0
 10
0.0
 20
0.0
 30
0.0
  3
$PAPER_SPACE
  1

  0
ENDBLK
  5
E
 67
     1
  8
0
  0
ENDSEC
  0
SECTION
  2
ENTITIES
  0
LINE
  5
26
  8
1
 10
139.89877067022019
 20
109.83130414797439
 30
0.0
 11
169.89877067022019
 21
109.83130414797439
 31
0.0
  0
CIRCLE
  5
29
  8
5
 10
154.89877067022019
 20
109.83130414797439
 30
0.0
 40
12.5
  0
LINE
  5
2C
  8
0
 10
153.8987706702203
 20
94.352812662497826
 30
0.0
 11
144.83648724052571
 21
101.9569713459791
 31
0.0
  0
LINE
  5
2D
  8
0
 10
155.8987706702207
 20
94.352812662498621
 30
0.0
 11
164.96105409991489
 21
101.9569713459791
 31
0.0
  0
LINE
  5
2E
  8
0
 10
153.8987706702203
 20
92.956971345978872
 30
0.0
 11
155.8987706702203
 21
92.956971345979326
 31
0.0
1001
ACAD
1000
ASC_BOUNDS
1002
{
1070
    19
1002
}
  0
LINE
  5
31
  8
0
 10
143.3987706702203
 20
101.9569713459791
 30
0.0
 11
144.83648724052571
 21
101.9569713459791
 31
0.0
1001
ACAD
1000
ASC_BOUNDS
1002
{
1070
    19
1002
}
  0
LINE
  5
33
  8
0
 10
164.96105409991489
 20
101.9569713459791
 30
0.0
 11
166.3987706702203
 21
101.9569713459791
 31
0.0
1001
ACAD
1000
ASC_BOUNDS
1002
{
1070
    19
1002
}
  0
LINE
  5
34
  8
1
 10
154.89877067022019
 20
124.83130414797439
 30
0.0
 11
154.8987706702203
 21
29.456971345979209
 31
0.0
  0
CIRCLE
  5
35
  8
5
 10
154.8987706702203
 20
39.956971345979213
 30
0.0
 40
8.0
  0
LINE
  5
36
  8
0
 10
164.96105409991489
 20
41.956971345979213
 30
0.0
 11
166.3987706702203
 21
41.956971345979213
 31
0.0
1001
ACAD
1000
ASC_BOUNDS
1002
{
1070
    19
1002
}
  0
LINE
  5
37
  8
0
 10
155.89877067020609
 20
94.352812662486372
 30
0.0
 11
155.8987706702207
 21
49.561130029459697
 31
0.0
  0
LINE
  5
38
  8
0
 10
143.3987706702203
 20
41.956971345979213
 30
0.0
 11
144.83648724052571
 21
41.956971345979213
 31
0.0
1001
ACAD
1000
ASC_BOUNDS
1002
{
1070
    19
1002
}
  0
LINE
  5
39
  8
0
 10
153.8987706702203
 20
94.35281266249784
 30
0.0
 11
153.8987706702203
 21
49.5611300294605
 31
0.0
  0
LINE
  5
3A
  8
0
 10
153.8987706702203
 20
50.956971345979447
 30
0.0
 11
155.8987706702203
 21
50.956971345978999
 31
0.0
1001
ACAD
1000
ASC_BOUNDS
1002
{
1070
    19
1002
}
  0
LINE
  5
3B
  8
0
 10
155.8987706702207
 20
49.561130029459697
 30
0.0
 11
164.96105409991489
 21
41.956971345979213
 31
0.0
  0
LINE
  5
3C
  8
0
 10
153.8987706702203
 20
49.5611300294605
 30
0.0
 11
144.83648724052571
 21
41.956971345979213
 31
0.0
  0
LINE
  5
3D
  8
1
 10
144.3987706702203
 20
39.956971345979213
 30
0.0
 11
165.3987706702203
 21
39.956971345979213
 31
0.0
  0
LINE
  5
3E
  8
1
 10
98.898770670220415
 20
71.956971345979156
 30
0.0
 11
28.898770670220411
 21
71.956971345979156
 31
0.0
  0
LINE
  5
3F
  8
1
 10
63.898770670220408
 20
106.9569713459791
 30
0.0
 11
63.898770670220408
 21
36.956971345979163
 31
0.0
  0
CIRCLE
  5
43
  8
0
 10
63.898770670220408
 20
71.956971345979156
 30
0.0
 40
30.0
  0
CIRCLE
  5
44
  8
0
 10
63.898770670220408
 20
71.956971345979156
 30
0.0
 40
6.0
  0
CIRCLE
  5
45
  8
2
 10
63.898770670220301
 20
71.956971345979156
 30
0.0
 40
16.850000000000001
  0
CIRCLE
  5
46
  8
0
 10
63.898770670220301
 20
71.956971345979156
 30
0.0
 40
16.0
  0
ARC
  5
47
  8
0
 10
65.098770670220347
 20
71.956971345979156
 30
0.0
 40
14.550000000000001
 50
37.711404397752432
 51
322.2885956022476
  0
LINE
  5
48
  8
0
 10
75.25268758481036
 20
79.907069557781881
 30
0.0
 11
76.60930180680981
 21
80.856981062468464
 31
0.0
  0
LINE
  5
49
  8
0
 10
77.287056341730874
 20
75.544351679697513
 30
0.0
 11
79.353583890845471
 21
76.098076067619417
 31
0.0
  0
ARC
  5
4A
  8
0
 10
76.676122362591798
 20
77.91514829107166
 30
0.0
 40
2.448247720180674
 50
125.54974902690699
 51
284.45025097309468
  0
ARC
  5
4B
  8
0
 10
76.676122362591798
 20
65.998794400886652
 30
0.0
 40
2.448247720180674
 50
75.549749026905303
 51
234.45025097309301
  0
LINE
  5
4C
  8
0
 10
75.25268758481036
 20
64.006873134176431
 30
0.0
 11
76.60930180680981
 21
63.05696162948999
 31
0.0
  0
LINE
  5
4D
  8
0
 10
77.287056341730874
 20
68.369591012260798
 30
0.0
 11
79.353583890845471
 21
67.815866624338895
 31
0.0
  0
LINE
  5
4E
  8
2
 10
79.353583890845471
 20
76.098076067619417
 30
0.0
 11
80.174620843191178
 21
76.318072255956594
 31
0.0
  0
LINE
  5
4F
  8
2
 10
79.353583890845471
 20
67.815866624338895
 30
0.0
 11
80.174620843191178
 21
67.595870436001718
 31
0.0
  0
CIRCLE
  5
50
  8
0
 10
76.269871963270646
 20
77.725710618739697
 30
0.0
 40
1.25
  0
CIRCLE
  5
51
  8
0
 10
76.269871963270646
 20
66.188232073218614
 30
0.0
 40
1.25
  0
LINE
  5
52
  8
0
 10
143.3987706702203
 20
101.9569713459791
 30
0.0
 11
143.3987706702203
 21
41.956971345979213
 31
0.0
  0
LINE
  5
53
  8
2
 10
149.8987706702203
 20
88.806971345979179
 30
0.0
 11
149.8987706702203
 21
55.106971345979133
 31
0.0
  0
LINE
  5
54
  8
0
 10
166.39877067022039
 20
101.9569713459791
 30
0.0
 11
166.39877067022039
 21
41.956971345979213
 31
0.0
  0
LINE
  5
55
  8
2
 10
159.8987706702203
 20
87.356971345979076
 30
0.0
 11
159.8987706702203
 21
56.356971345979197
 31
0.0
  0
LINE
  5
56
  8
2
 10
148.54877067022039
 20
88.806971345979179
 30
0.0
 11
148.54877067022039
 21
55.106971345979133
 31
0.0
  0
LINE
  5
57
  8
2
 10
148.69877067022031
 20
88.806971345979179
 30
0.0
 11
148.69877067022031
 21
55.106971345979133
 31
0.0
  0
LINE
  5
58
  8
2
 10
150.49877067022041
 20
77.956971345979099
 30
0.0
 11
159.29877067022031
 21
77.956971345979099
 31
0.0
  0
LINE
  5
59
  8
2
 10
149.8987706702203
 20
81.456971345979184
 30
0.0
 11
152.8987706702205
 21
81.456971345979184
 31
0.0
  0
LINE
  5
5A
  8
2
 10
149.8987706702203
 20
84.456971345979156
 30
0.0
 11
152.8987706702205
 21
84.456971345979156
 31
0.0
  0
CIRCLE
  5
5B
  8
2
 10
154.8987706702203
 20
82.956971345979099
 30
0.0
 40
2.5
  0
LINE
  5
5C
  8
2
 10
156.8987706702205
 20
84.456971345979156
 30
0.0
 11
159.8987706702203
 21
84.456971345979156
 31
0.0
  0
LINE
  5
5D
  8
2
 10
156.8987706702205
 20
81.456971345979184
 30
0.0
 11
159.8987706702203
 21
81.456971345979184
 31
0.0
  0
ARC
  5
5E
  8
2
 10
150.49877067022041
 20
87.356971345979076
 30
0.0
 40
0.6
 50
90.0
 51
180.0
  0
ARC
  5
5F
  8
2
 10
159.29877067022031
 20
87.356971345979076
 30
0.0
 40
0.6
 50
0.0
 51
90.0
  0
ARC
  5
60
  8
2
 10
159.29877067022031
 20
78.556971345979122
 30
0.0
 40
0.6
 50
270.0
 51
0.0
  0
ARC
  5
61
  8
2
 10
150.49877067022041
 20
78.556971345979122
 30
0.0
 40
0.6
 50
180.0
 51
270.0
  0
ARC
  5
62
  8
2
 10
150.49877067022041
 20
65.35697134597919
 30
0.0
 40
0.6
 50
90.0
 51
180.0
  0
ARC
  5
63
  8
2
 10
159.29877067022031
 20
65.35697134597919
 30
0.0
 40
0.6
 50
0.0
 51
90.0
  0
LINE
  5
64
  8
2
 10
156.8987706702205
 20
62.456971345979127
 30
0.0
 11
159.8987706702203
 21
62.456971345979127
 31
0.0
  0
LINE
  5
65
  8
2
 10
156.8987706702205
 20
59.456971345979149
 30
0.0
 11
159.8987706702203
 21
59.456971345979149
 31
0.0
  0
CIRCLE
  5
66
  8
2
 10
154.8987706702203
 20
60.956971345979142
 30
0.0
 40
2.5
  0
LINE
  5
67
  8
2
 10
149.8987706702203
 20
59.456971345979149
 30
0.0
 11
152.8987706702205
 21
59.456971345979149
 31
0.0
  0
LINE
  5
68
  8
2
 10
149.8987706702203
 20
62.456971345979127
 30
0.0
 11
152.8987706702205
 21
62.456971345979127
 31
0.0
  0
LINE
  5
69
  8
2
 10
150.49877067022041
 20
65.956971345979213
 30
0.0
 11
159.29877067022031
 21
65.956971345979142
 31
0.0
  0
ARC
  5
6A
  8
2
 10
150.49877067022041
 20
56.556971345979157
 30
0.0
 40
0.6
 50
180.0
 51
270.0
  0
ARC
  5
6B
  8
2
 10
159.29877067022031
 20
56.556971345979157
 30
0.0
 40
0.6
 50
270.0
 51
0.0
  0
LINE
  5
6C
  8
2
 10
148.69877067022031
 20
86.45740237405542
 30
0.0
 11
149.8987706702203
 21
86.45740237405542
 31
0.0
  0
LINE
  5
6D
  8
2
 10
148.69877067022031
 20
57.45654031790275
 30
0.0
 11
149.8987706702203
 21
57.45654031790275
 31
0.0
  0
ARC
  5
6E
  8
2
 10
159.49877067022041
 20
56.356971345979197
 30
0.0
 40
0.4000000000000001
 50
270.0
 51
0.0
  0
ARC
  5
6F
  8
2
 10
159.49877067022041
 20
87.556971345979179
 30
0.0
 40
0.4000000000000001
 50
0.0
 51
90.0
  0
LINE
  5
70
  8
2
 10
166.39877067022039
 20
58.956971345979177
 30
0.0
 11
159.89877067022061
 21
58.956971345979177
 31
0.0
  0
LINE
  5
71
  8
2
 10
144.3987706702205
 20
87.956971345979099
 30
0.0
 11
148.54877067022039
 21
87.956971345979241
 31
0.0
  0
LINE
  5
72
  8
2
 10
166.39877067022039
 20
84.956971345979127
 30
0.0
 11
159.8987706702203
 21
84.956971345979127
 31
0.0
  0
LINE
  5
73
  8
2
 10
149.8987706702203
 20
88.806971345979179
 30
0.0
 11
148.54877067022039
 21
88.806971345979179
 31
0.0
  0
LINE
  5
74
  8
2
 10
149.8987706702203
 20
87.956971345979099
 30
0.0
 11
159.49877067022041
 21
87.956971345979099
 31
0.0
  0
LINE
  5
75
  8
2
 10
144.3987706702205
 20
87.956971345979099
 30
0.0
 11
143.3987706702203
 21
88.534321615168864
 31
0.0
  0
LINE
  5
76
  8
2
 10
144.3987706702205
 20
55.956971345979213
 30
0.0
 11
144.3987706702197
 21
87.956971345979099
 31
0.0
  0
LINE
  5
77
  8
2
 10
144.3987706702205
 20
55.956971345979213
 30
0.0
 11
143.3987706702203
 21
55.37962107678959
 31
0.0
  0
LINE
  5
78
  8
2
 10
149.8987706702203
 20
55.956971345979142
 30
0.0
 11
159.49877067022041
 21
55.956971345979213
 31
0.0
  0
LINE
  5
79
  8
2
 10
149.8987706702203
 20
55.106971345979133
 30
0.0
 11
148.54877067022039
 21
55.106971345979133
 31
0.0
  0
LINE
  5
7A
  8
2
 10
144.3987706702205
 20
55.956971345979213
 30
0.0
 11
148.54877067022039
 21
55.956971345979071
 31
0.0
  0
LINE
  5
7B
  8
1
 10
138.89877067022039
 20
71.956971345979156
 30
0.0
 11
172.25556965373221
 21
71.956971345979156
 31
0.0
  0
LINE
  5
97
  8
0
 10
164.96105409991489
 20
101.9569713459791
 30
0.0
 11
164.96105409991489
 21
41.956971345979213
 31
0.0
  0
LINE
  5
98
  8
0
 10
144.83648724052571
 20
101.9569713459791
 30
0.0
 11
144.83648724052571
 21
41.956971345979198
 31
0.0
  0
CIRCLE
  5
B4
  8
2
 10
63.898770670220408
 20
71.956971345979156
 30
0.0
 40
20.999999999999929
  0
TEXT
  5
15E
  8
0
 62
     3
 10
0.0
 20
0.0
 30
0.0
 40
10.0
  1
GRL60-Y-SUS
  7
STANDARD1
  0
ENDSEC
  0
EOF
