  0
SECTION
  2
HEADER
  9
$ACADVER
  1
AC1009
  9
$INSBASE
 10
0.0
 20
0.0
 30
0.0
  9
$EXTMIN
 10
0.0
 20
-2.960436562073669
 30
-0.0000000000000071
  9
$EXTMAX
 10
187.6328304756604
 20
207.99056826696901
 30
0.0000000000000141
  9
$LIMMIN
 10
0.0
 20
0.0
  9
$LIMMAX
 10
375.0
 20
270.0
  9
$ORTHOMODE
 70
     1
  9
$REGENMODE
 70
     1
  9
$FILLMODE
 70
     1
  9
$QTEXTMODE
 70
     0
  9
$MIRRTEXT
 70
     0
  9
$DRAGMODE
 70
     2
  9
$LTSCALE
 40
10.0
  9
$OSMODE
 70
    37
  9
$ATTMODE
 70
     1
  9
$TEXTSIZE
 40
0.2
  9
$TRACEWID
 40
0.05
  9
$TEXTSTYLE
  7
STANDARD
  9
$CLAYER
  8
0
  9
$CELTYPE
  6
BYLAYER
  9
$CECOLOR
 62
   256
  9
$DIMSCALE
 40
1.0
  9
$DIMASZ
 40
3.0
  9
$DIMEXO
 40
2.0
  9
$DIMDLI
 40
0.38
  9
$DIMRND
 40
0.0
  9
$DIMDLE
 40
0.0
  9
$DIMEXE
 40
2.0
  9
$DIMTP
 40
0.0
  9
$DIMTM
 40
0.0
  9
$DIMTXT
 40
3.2000000000000002
  9
$DIMCEN
 40
0.0
  9
$DIMTSZ
 40
0.0
  9
$DIMTOL
 70
     0
  9
$DIMLIM
 70
     0
  9
$DIMTIH
 70
     0
  9
$DIMTOH
 70
     0
  9
$DIMSE1
 70
     0
  9
$DIMSE2
 70
     0
  9
$DIMTAD
 70
     1
  9
$DIMZIN
 70
     0
  9
$DIMBLK
  1

  9
$DIMASO
 70
     0
  9
$DIMSHO
 70
     0
  9
$DIMPOST
  1

  9
$DIMAPOST
  1

  9
$DIMALT
 70
     0
  9
$DIMALTD
 70
     2
  9
$DIMALTF
 40
25.399999999999999
  9
$DIMLFAC
 40
1.0
  9
$DIMTOFL
 70
     0
  9
$DIMTVP
 40
1.6000000000000001
  9
$DIMTIX
 70
     1
  9
$DIMSOXD
 70
     0
  9
$DIMSAH
 70
     0
  9
$DIMBLK1
  1

  9
$DIMBLK2
  1

  9
$DIMSTYLE
  2
STANDARD
  9
$DIMCLRD
 70
     4
  9
$DIMCLRE
 70
     4
  9
$DIMCLRT
 70
     4
  9
$DIMTFAC
 40
1.0
  9
$DIMGAP
 40
0.09
  9
$LUNITS
 70
     2
  9
$LUPREC
 70
     1
  9
$SKETCHINC
 40
0.1
  9
$FILLETRAD
 40
0.0
  9
$AUNITS
 70
     0
  9
$AUPREC
 70
     1
  9
$MENU
  1
E:\r13\win\SUPPORT\ACAD
  9
$ELEVATION
 40
0.0
  9
$PELEVATION
 40
0.0
  9
$THICKNESS
 40
0.0
  9
$LIMCHECK
 70
     0
  9
$BLIPMODE
 70
     0
  9
$CHAMFERA
 40
0.0
  9
$CHAMFERB
 40
0.0
  9
$SKPOLY
 70
     0
  9
$TDCREATE
 40
2449840.6508564819
  9
$TDUPDATE
 40
2457968.425360451
  9
$TDINDWG
 40
0.1184078704
  9
$TDUSRTIMER
 40
0.1184078704
  9
$USRTIMER
 70
     1
  9
$ANGBASE
 50
0.0
  9
$ANGDIR
 70
     0
  9
$PDMODE
 70
     0
  9
$PDSIZE
 40
0.0
  9
$PLINEWID
 40
0.0
  9
$COORDS
 70
     1
  9
$SPLFRAME
 70
     0
  9
$SPLINETYPE
 70
     6
  9
$SPLINESEGS
 70
     8
  9
$ATTDIA
 70
     0
  9
$ATTREQ
 70
     1
  9
$HANDLING
 70
     1
  9
$HANDSEED
  5
14B3
  9
$SURFTAB1
 70
     6
  9
$SURFTAB2
 70
     6
  9
$SURFTYPE
 70
     6
  9
$SURFU
 70
     6
  9
$SURFV
 70
     6
  9
$UCSNAME
  2

  9
$UCSORG
 10
0.0
 20
0.0
 30
0.0
  9
$UCSXDIR
 10
1.0
 20
0.0
 30
0.0
  9
$UCSYDIR
 10
0.0
 20
1.0
 30
0.0
  9
$PUCSNAME
  2

  9
$PUCSORG
 10
0.0
 20
0.0
 30
0.0
  9
$PUCSXDIR
 10
1.0
 20
0.0
 30
0.0
  9
$PUCSYDIR
 10
0.0
 20
1.0
 30
0.0
  9
$USERI1
 70
     0
  9
$USERI2
 70
     1
  9
$USERI3
 70
     1
  9
$USERI4
 70
     0
  9
$USERI5
 70
     0
  9
$USERR1
 40
0.0
  9
$USERR2
 40
0.0
  9
$USERR3
 40
0.0
  9
$USERR4
 40
0.0
  9
$USERR5
 40
0.0
  9
$WORLDVIEW
 70
     1
  9
$SHADEDGE
 70
     3
  9
$SHADEDIF
 70
    70
  9
$TILEMODE
 70
     1
  9
$MAXACTVP
 70
    16
  9
$PLIMCHECK
 70
     0
  9
$PEXTMIN
 10
1.0000000000000000E+020
 20
1.0000000000000000E+020
 30
1.0000000000000000E+020
  9
$PEXTMAX
 10
-1.0000000000000000E+020
 20
-1.0000000000000000E+020
 30
-1.0000000000000000E+020
  9
$PLIMMIN
 10
0.0
 20
0.0
  9
$PLIMMAX
 10
12.0
 20
9.0
  9
$UNITMODE
 70
     0
  9
$VISRETAIN
 70
     0
  9
$PLINEGEN
 70
     0
  9
$PSLTSCALE
 70
     0
  0
ENDSEC
  0
SECTION
  2
TABLES
  0
TABLE
  2
VPORT
 70
     1
  0
VPORT
  2
*ACTIVE
 70
     0
 10
0.0
 20
0.0
 11
1.0
 21
1.0
 12
272.4358974358974
 22
150.0
 13
0.0
 23
0.0
 14
10.0
 24
10.0
 15
10.0
 25
10.0
 16
0.0
 26
0.0
 36
1.0
 17
0.0
 27
0.0
 37
0.0
 40
300.0
 41
1.816239316239316
 42
50.0
 43
0.0
 44
0.0
 50
0.0
 51
0.0
 71
     0
 72
   500
 73
     1
 74
     0
 75
     0
 76
     0
 77
     0
 78
     2
  0
ENDTAB
  0
TABLE
  2
LTYPE
 70
     3
  0
LTYPE
  2
CONTINUOUS
 70
     0
  3
Solid Line
 72
    65
 73
     0
 40
0.0
  0
LTYPE
  2
CENTER
 70
     0
  3
____ _ ____ _ ____ _ ____ _ ____ _ ____ _ ____
 72
    65
 73
     4
 40
2.0
 49
1.25
 49
-0.25
 49
0.25
 49
-0.25
  0
LTYPE
  2
PHANTOM2
 70
     0
  3
___ _ _ ___ _ _ ___ _ _ ___ _ _
 72
    65
 73
     6
 40
1.25
 49
0.625
 49
-0.125
 49
0.125
 49
-0.125
 49
0.125
 49
-0.125
  0
ENDTAB
  0
TABLE
  2
LAYER
 70
     2
  0
LAYER
  2
0
 70
     0
 62
     7
  6
CONTINUOUS
  0
LAYER
  2
1
 70
     0
 62
     1
  6
CENTER
  0
ENDTAB
  0
TABLE
  2
STYLE
 70
     2
  0
STYLE
  2
STANDARD
 70
     0
 40
0.0
 41
1.0
 50
0.0
 71
     0
 42
0.2
  3
TXT
  4
BIGFONT
  0
STYLE
  2
STANDARD1
 70
     0
 40
0.0
 41
1.0
 50
0.0
 71
     0
 42
3.0
  3
txt
  4

  0
ENDTAB
  0
TABLE
  2
VIEW
 70
     1
  0
VIEW
  2
ALL
 70
     0
 40
270.0
 10
220.99159663865549
 20
135.0
 41
0.0
 11
0.0
 21
0.0
 31
1.0
 12
0.0
 22
0.0
 32
0.0
 42
0.0
 43
0.0
 44
0.0
 50
0.0
 71
     0
  0
ENDTAB
  0
TABLE
  2
UCS
 70
     0
  0
ENDTAB
  0
TABLE
  2
APPID
 70
    13
  0
APPID
  2
ACAD
 70
     0
  0
APPID
  2
GENIUS_GENODEF_13
 70
     0
  0
APPID
  2
GENIUS_GENOENT_13
 70
     0
  0
APPID
  2
GENIUS_GENOBJ_13
 70
     0
  0
APPID
  2
GENIUS_GENOLIS_13
 70
     0
  0
APPID
  2
GENIUS_GENOREF_13
 70
     0
  0
APPID
  2
GENIUS_GENOBJ-N-FIL_13
 70
     0
  0
APPID
  2
ACAD_MLEADERVER
 70
     0
  0
APPID
  2
ACAD_DSTYLE_DIMJAG
 70
     0
  0
APPID
  2
ACAD_DSTYLE_DIMTALN
 70
     0
  0
APPID
  2
ACAD_NAV_VCDISPLAY
 70
     0
  0
APPID
  2
ACAD_EXEMPT_FROM_CAD_STANDARDS
 70
     0
  0
APPID
  2
ACADANNOTATIVE
 70
     0
  0
ENDTAB
  0
TABLE
  2
DIMSTYLE
 70
     1
  0
DIMSTYLE
  2
STANDARD
 70
     0
  3

  4

  5

  6

  7

 40
1.0
 41
0.18
 42
0.0625
 43
0.38
 44
0.18
 45
0.0
 46
0.0
 47
0.0
 48
0.0
140
0.18
141
0.09
142
0.0
143
25.399999999999999
144
1.0
145
0.0
146
1.0
147
0.09
 71
     0
 72
     0
 73
     1
 74
     1
 75
     0
 76
     0
 77
     0
 78
     0
170
     0
171
     2
172
     0
173
     0
174
     0
175
     0
176
     0
177
     0
178
     0
  0
ENDTAB
  0
ENDSEC
  0
SECTION
  2
BLOCKS
  0
BLOCK
  8
0
  2
$MODEL_SPACE
 70
     0
 10
0.0
 20
0.0
 30
0.0
  3
$MODEL_SPACE
  1

  0
ENDBLK
  5
DC
  8
0
  0
BLOCK
 67
     1
  8
0
  2
$PAPER_SPACE
 70
     0
 10
0.0
 20
0.0
 30
0.0
  3
$PAPER_SPACE
  1

  0
ENDBLK
  5
DA
 67
     1
  8
0
  0
ENDSEC
  0
SECTION
  2
ENTITIES
  0
TEXT
  5
452
  8
0
 62
     3
 10
0.0
 20
0.0
 30
0.0
 40
10.0
  1
GRPD25-BKT
  7
STANDARD1
  0
CIRCLE
  5
10C7
  8
0
 10
92.632830475660427
 20
187.99056826696901
 30
0.0
 40
12.50000000000002
  0
LINE
  5
10C8
  8
0
 10
99.372193346259223
 20
174.43424545809509
 30
0.0
 11
99.214010307001956
 21
174.5113964813012
 31
0.0
  0
LINE
  5
10CB
  8
0
 10
78.80075564523699
 20
184.7235044650869
 30
0.0
 11
51.134853979289907
 21
127.9999999999999
 31
0.0
  0
ARC
  5
10D5
  8
0
 10
92.632830475660427
 20
187.99056826696901
 30
0.0
 40
15.00000000000002
 50
296.02385512363747
 51
190.8698976453031
  0
LINE
  5
10D6
  8
0
 10
77.901961598942023
 20
185.16187561188451
 30
0.0
 11
78.800755645237018
 21
184.72350446508699
 31
0.0
  0
ARC
  5
10D7
  8
0
 10
94.248948176906694
 20
193.97623143654769
 30
0.0
 40
0.4000000071238635
 50
180.3211584204131
 51
254.89052610089121
  0
LINE
  5
10D8
  8
0
 10
93.848954458374564
 20
193.97398933953281
 30
0.0
 11
93.842842922541081
 21
195.06429803937209
 31
0.0
  0
ARC
  5
10D9
  8
0
 10
96.342803645590465
 20
195.07831112994131
 30
0.0
 40
2.5000000002968972
 50
62.370862622548138
 51
180.32115806118409
  0
ARC
  5
10DA
  8
0
 10
96.342803648188465
 20
180.90282539585269
 30
0.0
 40
2.5000000024160398
 50
179.67884202070499
 51
297.62913735011261
  0
LINE
  5
10DB
  8
0
 10
93.842842920618523
 20
180.91683848287411
 30
0.0
 11
93.84895445234713
 21
182.0071471862824
 31
0.0
  0
ARC
  5
10DC
  8
0
 10
94.248948167095904
 20
182.00490509092651
 30
0.0
 40
0.4000000030203299
 50
105.1094738172623
 51
179.67884181417929
  0
ARC
  5
10DD
  8
0
 10
92.632830462288808
 20
187.9905682623646
 30
0.0
 40
5.8000000000201757
 50
285.10947384901573
 51
297.04142490446361
  0
ARC
  5
10DE
  8
0
 10
95.451564858142461
 20
182.46836431576801
 30
0.0
 40
0.4000000046942775
 50
359.67884182580008
 51
117.04142513702401
  0
LINE
  5
10DF
  8
0
 10
95.85155857289169
 20
182.46612222049311
 30
0.0
 11
95.844534615885777
 21
181.21303504645451
 31
0.0
  0
ARC
  5
10E0
  8
0
 10
92.632830462288766
 20
187.9905682623648
 30
0.0
 40
7.500000004200011
 50
295.35510759151839
 51
64.002576323259447
  0
LINE
  5
10E1
  8
0
 10
95.920310952486545
 20
194.73167144282181
 30
0.0
 11
95.913286992583153
 21
193.47858426589491
 31
0.0
  0
ARC
  5
10E2
  8
0
 10
95.51329327783651
 20
193.48082636162769
 30
0.0
 40
0.4000000015901481
 50
242.31625884522231
 51
359.67884176019709
  0
ARC
  5
10E3
  8
0
 10
92.632830462288837
 20
187.99056826236489
 30
0.0
 40
5.8000000011237054
 50
62.316258983180752
 51
74.890526070131415
  0
ARC
  5
10E4
  8
0
 10
92.632830462288766
 20
187.9905682623648
 30
0.0
 40
10.500000001283979
 50
297.62913738727241
 51
62.370862621473059
  0
LINE
  5
10E5
  8
0
 10
76.724698610337185
 20
128.00000000000011
 30
0.0
 11
99.372193346259223
 21
174.43424545809509
 31
0.0
  0
LINE
  5
10E6
  8
0
 10
49.999999999999709
 20
127.9999999999994
 30
0.0
 11
76.724698610337185
 21
128.00000000000011
 31
0.0
  0
ARC
  5
10E7
  8
0
 10
91.016712774414117
 20
182.00490509739021
 30
0.0
 40
0.4000000071238845
 50
0.3211584204163996
 51
74.890526100887655
  0
LINE
  5
10E8
  8
0
 10
91.416706492946247
 20
182.00714719440521
 30
0.0
 11
91.422818028779972
 21
180.91683849456589
 31
0.0
  0
ARC
  5
10E9
  8
0
 10
88.922857305730389
 20
180.9028254039967
 30
0.0
 40
2.5000000002968981
 50
242.3708626225482
 51
0.3211580611841528
  0
ARC
  5
10EA
  8
0
 10
92.632830489032074
 20
187.99056827157321
 30
0.0
 40
10.500000001283979
 50
117.62913738727229
 51
242.37086262147301
  0
ARC
  5
10EB
  8
0
 10
88.922857303132332
 20
195.07831113808521
 30
0.0
 40
2.5000000024160141
 50
359.67884202070508
 51
117.62913735011109
  0
LINE
  5
10EC
  8
0
 10
91.422818030702317
 20
195.0642980510639
 30
0.0
 11
91.416706498973667
 21
193.97398934765559
 31
0.0
  0
ARC
  5
10ED
  8
0
 10
91.016712784224907
 20
193.9762314430115
 30
0.0
 40
0.4000000030203236
 50
285.10947381726749
 51
359.67884181418088
  0
ARC
  5
10EE
  8
0
 10
92.632830489032045
 20
187.9905682715733
 30
0.0
 40
5.8000000000202041
 50
105.1094738490156
 51
117.0414249044636
  0
ARC
  5
10EF
  8
0
 10
89.814096093178364
 20
193.51277221817011
 30
0.0
 40
0.4000000046942904
 50
179.6788418257984
 51
297.0414251370276
  0
LINE
  5
10F0
  8
0
 10
89.414102378429163
 20
193.51501431344491
 30
0.0
 11
89.421126335435048
 21
194.76810148748351
 31
0.0
  0
ARC
  5
10F1
  8
0
 10
92.632830489032074
 20
187.99056827157321
 30
0.0
 40
7.5000000042000119
 50
115.3551075915163
 51
244.00257632325949
  0
LINE
  5
10F2
  8
0
 10
89.345349998834294
 20
181.24946509111609
 30
0.0
 11
89.352373958737687
 21
182.50255226804299
 31
0.0
  0
ARC
  5
10F3
  8
0
 10
89.752367673484343
 20
182.50031017231029
 30
0.0
 40
0.4000000015901354
 50
62.316258845220489
 51
179.67884176019709
  0
ARC
  5
10F4
  8
0
 10
92.632830489031988
 20
187.99056827157301
 30
0.0
 40
5.8000000011237107
 50
242.31625898318069
 51
254.89052607013139
  0
CIRCLE
  5
10F5
  8
0
 10
92.632830475660427
 20
187.99056826696901
 30
0.0
 40
3.249999999999996
  0
LINE
  5
10F7
  8
0
 10
49.999999999999972
 20
128.0
 30
0.0
 11
77.226428997819767
 21
183.82245196537789
 31
0.0
  0
LINE
  5
10F8
  8
0
 10
77.226428997819767
 20
183.82245196537789
 30
0.0
 11
78.12522304411479
 21
183.3840808185804
 31
0.0
  0
LINE
  5
10FB
  8
0
 10
78.143198925040679
 20
183.37531339564441
 30
0.0
 11
78.12522304411479
 21
183.3840808185804
 31
0.0
  0
ARC
  5
10FC
  8
0
 10
158.33283047566039
 20
202.2905682669689
 30
0.0
 40
0.6999999999999887
 50
90.0
 51
180.0
  0
ARC
  5
10FD
  8
0
 10
184.9328304756603
 20
202.2905682669689
 30
0.0
 40
0.7000000000000455
 50
0.0
 51
90.0
  0
LINE
  5
10FE
  8
0
 10
184.9328304756603
 20
202.99056826696889
 30
0.0
 11
158.33283047566039
 21
202.99056826696889
 31
0.0
  0
POLYLINE
  5
1101
  8
0
 66
     1
 10
0.0
 20
0.0
 30
0.0
 70
   128
  0
VERTEX
  5
131F
  8
0
 10
158.33283047566039
 20
174.5281211222202
 30
0.0
  0
VERTEX
  5
1320
  8
0
 10
158.1370022253181
 20
174.54364273777389
 30
0.0
  0
VERTEX
  5
1321
  8
0
 10
157.96430690978889
 20
174.58644555179049
 30
0.0
  0
VERTEX
  5
1322
  8
0
 10
157.81791390295021
 20
174.6540311768255
 30
0.0
  0
VERTEX
  5
1323
  8
0
 10
157.6808013013393
 20
174.7776121806499
 30
0.0
  0
VERTEX
  5
1324
  8
0
 10
157.6328304756604
 20
174.92254998841639
 30
0.0
  0
SEQEND
  5
1325
  8
0
  0
POLYLINE
  5
1104
  8
0
 66
     1
 10
0.0
 20
0.0
 30
0.0
 70
   128
  0
VERTEX
  5
1326
  8
0
 10
185.6328304756604
 20
174.92254998841639
 30
0.0
  0
VERTEX
  5
1327
  8
0
 10
185.57879342828241
 20
174.76912008703729
 30
0.0
  0
VERTEX
  5
1328
  8
0
 10
185.4405540512862
 20
174.64972146829149
 30
0.0
  0
VERTEX
  5
1329
  8
0
 10
185.26747369150851
 20
174.57547507434001
 30
0.0
  0
VERTEX
  5
132A
  8
0
 10
185.0833501165832
 20
174.53721234913209
 30
0.0
  0
VERTEX
  5
132B
  8
0
 10
184.9328304756603
 20
174.5281211222202
 30
0.0
  0
SEQEND
  5
132C
  8
0
  0
LINE
  5
1105
  8
0
 10
158.33283047566039
 20
174.5281211222202
 30
0.0
 11
184.9328304756603
 21
174.5281211222202
 31
0.0
  0
LINE
  5
1110
  8
0
 10
157.6328304756604
 20
128.0
 30
0.0
 11
185.6328304756604
 21
128.0
 31
0.0
  0
LINE
  5
1111
  8
0
 10
185.6328304756604
 20
127.9999999999999
 30
0.0
 11
185.6328304756604
 21
202.2905682669689
 31
0.0
  0
LINE
  5
1113
  8
0
 10
157.6328304756604
 20
202.2905682669689
 30
0.0
 11
157.6328304756604
 21
127.9999999999999
 31
0.0
  0
ARC
  5
112C
  8
0
 10
106.9328304756604
 20
77.299999999999983
 30
0.0
 40
0.6999999999999993
 50
0.0
 51
90.0
  0
ARC
  5
112D
  8
0
 10
106.9328304756604
 20
50.699999999999989
 30
0.0
 40
0.6999999999999993
 50
270.0
 51
0.0
  0
LINE
  5
112E
  8
0
 10
107.6328304756604
 20
50.699999999999989
 30
0.0
 11
107.6328304756604
 21
77.299999999999983
 31
0.0
  0
POLYLINE
  5
112F
  8
0
 10
62.986723218781655
 20
67.2500000000081
 30
0.0000000000000015
 66
     1
 70
     8
  0
VERTEX
  8
0
  5
132D
 10
62.9867
 20
67.2500
 30
1.51018e-015
  70
    32
  0
VERTEX
  8
0
  5
132E
 10
62.9041
 20
67.2412
 30
1.83279e-015
  70
    32
  0
VERTEX
  8
0
  5
132F
 10
62.8217
 20
67.2307
 30
2.15444e-015
  70
    32
  0
VERTEX
  8
0
  5
1330
 10
62.7396
 20
67.2185
 30
2.47497e-015
  70
    32
  0
VERTEX
  8
0
  5
1331
 10
62.6579
 20
67.2046
 30
2.79420e-015
  70
    32
  0
VERTEX
  8
0
  5
1332
 10
62.5765
 20
67.1891
 30
3.11197e-015
  70
    32
  0
VERTEX
  8
0
  5
1333
 10
62.4955
 20
67.1719
 30
3.42811e-015
  70
    32
  0
VERTEX
  8
0
  5
1334
 10
62.4150
 20
67.1530
 30
3.74245e-015
  70
    32
  0
VERTEX
  8
0
  5
1335
 10
62.3350
 20
67.1324
 30
4.05484e-015
  70
    32
  0
VERTEX
  8
0
  5
1336
 10
62.2556
 20
67.1103
 30
4.36510e-015
  70
    32
  0
VERTEX
  8
0
  5
1337
 10
62.1767
 20
67.0865
 30
4.67308e-015
  70
    32
  0
VERTEX
  8
0
  5
1338
 10
62.0985
 20
67.0611
 30
4.97862e-015
  70
    32
  0
VERTEX
  8
0
  5
1339
 10
62.0209
 20
67.0340
 30
5.28154e-015
  70
    32
  0
VERTEX
  8
0
  5
133A
 10
61.9440
 20
67.0054
 30
5.58171e-015
  70
    32
  0
VERTEX
  8
0
  5
133B
 10
61.8679
 20
66.9753
 30
5.87895e-015
  70
    32
  0
VERTEX
  8
0
  5
133C
 10
61.7926
 20
66.9435
 30
6.17311e-015
  70
    32
  0
VERTEX
  8
0
  5
133D
 10
61.7181
 20
66.9102
 30
6.46405e-015
  70
    32
  0
VERTEX
  8
0
  5
133E
 10
61.6444
 20
66.8754
 30
6.75160e-015
  70
    32
  0
VERTEX
  8
0
  5
133F
 10
61.5717
 20
66.8391
 30
7.03561e-015
  70
    32
  0
VERTEX
  8
0
  5
1340
 10
61.4999
 20
66.8014
 30
7.31594e-015
  70
    32
  0
VERTEX
  8
0
  5
1341
 10
61.4291
 20
66.7621
 30
7.59245e-015
  70
    32
  0
VERTEX
  8
0
  5
1342
 10
61.3593
 20
66.7214
 30
7.86498e-015
  70
    32
  0
VERTEX
  8
0
  5
1343
 10
61.2905
 20
66.6793
 30
8.13339e-015
  70
    32
  0
VERTEX
  8
0
  5
1344
 10
61.2229
 20
66.6357
 30
8.39755e-015
  70
    32
  0
VERTEX
  8
0
  5
1345
 10
61.1564
 20
66.5908
 30
8.65731e-015
  70
    32
  0
VERTEX
  8
0
  5
1346
 10
61.0910
 20
66.5446
 30
8.91254e-015
  70
    32
  0
VERTEX
  8
0
  5
1347
 10
61.0268
 20
66.4970
 30
9.16310e-015
  70
    32
  0
VERTEX
  8
0
  5
1348
 10
60.9639
 20
66.4481
 30
9.40887e-015
  70
    32
  0
VERTEX
  8
0
  5
1349
 10
60.9022
 20
66.3979
 30
9.64971e-015
  70
    32
  0
VERTEX
  8
0
  5
134A
 10
60.8418
 20
66.3464
 30
9.88550e-015
  70
    32
  0
VERTEX
  8
0
  5
134B
 10
60.7828
 20
66.2938
 30
1.01161e-014
  70
    32
  0
VERTEX
  8
0
  5
134C
 10
60.7251
 20
66.2399
 30
1.03414e-014
  70
    32
  0
VERTEX
  8
0
  5
134D
 10
60.6687
 20
66.1849
 30
1.05614e-014
  70
    32
  0
VERTEX
  8
0
  5
134E
 10
60.6138
 20
66.1287
 30
1.07757e-014
  70
    32
  0
VERTEX
  8
0
  5
134F
 10
60.5604
 20
66.0714
 30
1.09845e-014
  70
    32
  0
VERTEX
  8
0
  5
1350
 10
60.5084
 20
66.0130
 30
1.11875e-014
  70
    32
  0
VERTEX
  8
0
  5
1351
 10
60.4579
 20
65.9535
 30
1.13846e-014
  70
    32
  0
VERTEX
  8
0
  5
1352
 10
60.4089
 20
65.8931
 30
1.15758e-014
  70
    32
  0
VERTEX
  8
0
  5
1353
 10
60.3615
 20
65.8316
 30
1.17609e-014
  70
    32
  0
VERTEX
  8
0
  5
1354
 10
60.3157
 20
65.7692
 30
1.19399e-014
  70
    32
  0
VERTEX
  8
0
  5
1355
 10
60.2715
 20
65.7059
 30
1.21126e-014
  70
    32
  0
VERTEX
  8
0
  5
1356
 10
60.2289
 20
65.6417
 30
1.22790e-014
  70
    32
  0
VERTEX
  8
0
  5
1357
 10
60.1879
 20
65.5766
 30
1.24389e-014
  70
    32
  0
VERTEX
  8
0
  5
1358
 10
60.1486
 20
65.5107
 30
1.25923e-014
  70
    32
  0
VERTEX
  8
0
  5
1359
 10
60.1110
 20
65.4440
 30
1.27392e-014
  70
    32
  0
VERTEX
  8
0
  5
135A
 10
60.0751
 20
65.3765
 30
1.28794e-014
  70
    32
  0
VERTEX
  8
0
  5
135B
 10
60.0409
 20
65.3083
 30
1.30128e-014
  70
    32
  0
VERTEX
  8
0
  5
135C
 10
60.0085
 20
65.2395
 30
1.31394e-014
  70
    32
  0
VERTEX
  8
0
  5
135D
 10
59.9778
 20
65.1699
 30
1.32592e-014
  70
    32
  0
VERTEX
  8
0
  5
135E
 10
59.9489
 20
65.0998
 30
1.33720e-014
  70
    32
  0
VERTEX
  8
0
  5
135F
 10
59.9219
 20
65.0291
 30
1.34778e-014
  70
    32
  0
VERTEX
  8
0
  5
1360
 10
59.8966
 20
64.9579
 30
1.35765e-014
  70
    32
  0
VERTEX
  8
0
  5
1361
 10
59.8731
 20
64.8861
 30
1.36682e-014
  70
    32
  0
VERTEX
  8
0
  5
1362
 10
59.8515
 20
64.8139
 30
1.37527e-014
  70
    32
  0
VERTEX
  8
0
  5
1363
 10
59.8317
 20
64.7413
 30
1.38300e-014
  70
    32
  0
VERTEX
  8
0
  5
1364
 10
59.8137
 20
64.6683
 30
1.39000e-014
  70
    32
  0
VERTEX
  8
0
  5
1365
 10
59.7976
 20
64.5949
 30
1.39628e-014
  70
    32
  0
VERTEX
  8
0
  5
1366
 10
59.7834
 20
64.5212
 30
1.40183e-014
  70
    32
  0
VERTEX
  8
0
  5
1367
 10
59.7711
 20
64.4473
 30
1.40664e-014
  70
    32
  0
VERTEX
  8
0
  5
1368
 10
59.7607
 20
64.3731
 30
1.41072e-014
  70
    32
  0
VERTEX
  8
0
  5
1369
 10
59.7521
 20
64.2987
 30
1.41406e-014
  70
    32
  0
VERTEX
  8
0
  5
136A
 10
59.7455
 20
64.2242
 30
1.41666e-014
  70
    32
  0
VERTEX
  8
0
  5
136B
 10
59.7407
 20
64.1495
 30
1.41851e-014
  70
    32
  0
VERTEX
  8
0
  5
136C
 10
59.7378
 20
64.0748
 30
1.41963e-014
  70
    32
  0
VERTEX
  8
0
  5
136D
 10
59.7369
 20
64.0000
 30
1.42000e-014
  70
    32
  0
VERTEX
  8
0
  5
136E
 10
59.7378
 20
63.9252
 30
1.41963e-014
  70
    32
  0
VERTEX
  8
0
  5
136F
 10
59.7407
 20
63.8505
 30
1.41851e-014
  70
    32
  0
VERTEX
  8
0
  5
1370
 10
59.7455
 20
63.7758
 30
1.41666e-014
  70
    32
  0
VERTEX
  8
0
  5
1371
 10
59.7521
 20
63.7013
 30
1.41406e-014
  70
    32
  0
VERTEX
  8
0
  5
1372
 10
59.7607
 20
63.6269
 30
1.41072e-014
  70
    32
  0
VERTEX
  8
0
  5
1373
 10
59.7711
 20
63.5527
 30
1.40664e-014
  70
    32
  0
VERTEX
  8
0
  5
1374
 10
59.7834
 20
63.4788
 30
1.40183e-014
  70
    32
  0
VERTEX
  8
0
  5
1375
 10
59.7976
 20
63.4051
 30
1.39628e-014
  70
    32
  0
VERTEX
  8
0
  5
1376
 10
59.8137
 20
63.3317
 30
1.39000e-014
  70
    32
  0
VERTEX
  8
0
  5
1377
 10
59.8317
 20
63.2587
 30
1.38300e-014
  70
    32
  0
VERTEX
  8
0
  5
1378
 10
59.8515
 20
63.1861
 30
1.37527e-014
  70
    32
  0
VERTEX
  8
0
  5
1379
 10
59.8731
 20
63.1139
 30
1.36682e-014
  70
    32
  0
VERTEX
  8
0
  5
137A
 10
59.8966
 20
63.0421
 30
1.35765e-014
  70
    32
  0
VERTEX
  8
0
  5
137B
 10
59.9219
 20
62.9709
 30
1.34778e-014
  70
    32
  0
VERTEX
  8
0
  5
137C
 10
59.9489
 20
62.9002
 30
1.33720e-014
  70
    32
  0
VERTEX
  8
0
  5
137D
 10
59.9778
 20
62.8301
 30
1.32592e-014
  70
    32
  0
VERTEX
  8
0
  5
137E
 10
60.0085
 20
62.7605
 30
1.31394e-014
  70
    32
  0
VERTEX
  8
0
  5
137F
 10
60.0409
 20
62.6917
 30
1.30128e-014
  70
    32
  0
VERTEX
  8
0
  5
1380
 10
60.0751
 20
62.6235
 30
1.28794e-014
  70
    32
  0
VERTEX
  8
0
  5
1381
 10
60.1110
 20
62.5560
 30
1.27392e-014
  70
    32
  0
VERTEX
  8
0
  5
1382
 10
60.1486
 20
62.4893
 30
1.25923e-014
  70
    32
  0
VERTEX
  8
0
  5
1383
 10
60.1879
 20
62.4234
 30
1.24389e-014
  70
    32
  0
VERTEX
  8
0
  5
1384
 10
60.2289
 20
62.3583
 30
1.22790e-014
  70
    32
  0
VERTEX
  8
0
  5
1385
 10
60.2715
 20
62.2941
 30
1.21126e-014
  70
    32
  0
VERTEX
  8
0
  5
1386
 10
60.3157
 20
62.2308
 30
1.19399e-014
  70
    32
  0
VERTEX
  8
0
  5
1387
 10
60.3615
 20
62.1684
 30
1.17609e-014
  70
    32
  0
VERTEX
  8
0
  5
1388
 10
60.4089
 20
62.1069
 30
1.15758e-014
  70
    32
  0
VERTEX
  8
0
  5
1389
 10
60.4579
 20
62.0465
 30
1.13846e-014
  70
    32
  0
VERTEX
  8
0
  5
138A
 10
60.5084
 20
61.9870
 30
1.11875e-014
  70
    32
  0
VERTEX
  8
0
  5
138B
 10
60.5604
 20
61.9286
 30
1.09845e-014
  70
    32
  0
VERTEX
  8
0
  5
138C
 10
60.6138
 20
61.8713
 30
1.07757e-014
  70
    32
  0
VERTEX
  8
0
  5
138D
 10
60.6687
 20
61.8151
 30
1.05614e-014
  70
    32
  0
VERTEX
  8
0
  5
138E
 10
60.7251
 20
61.7601
 30
1.03414e-014
  70
    32
  0
VERTEX
  8
0
  5
138F
 10
60.7828
 20
61.7062
 30
1.01161e-014
  70
    32
  0
VERTEX
  8
0
  5
1390
 10
60.8418
 20
61.6536
 30
9.88550e-015
  70
    32
  0
VERTEX
  8
0
  5
1391
 10
60.9022
 20
61.6021
 30
9.64971e-015
  70
    32
  0
VERTEX
  8
0
  5
1392
 10
60.9639
 20
61.5519
 30
9.40887e-015
  70
    32
  0
VERTEX
  8
0
  5
1393
 10
61.0268
 20
61.5030
 30
9.16310e-015
  70
    32
  0
VERTEX
  8
0
  5
1394
 10
61.0910
 20
61.4554
 30
8.91254e-015
  70
    32
  0
VERTEX
  8
0
  5
1395
 10
61.1564
 20
61.4092
 30
8.65731e-015
  70
    32
  0
VERTEX
  8
0
  5
1396
 10
61.2229
 20
61.3643
 30
8.39755e-015
  70
    32
  0
VERTEX
  8
0
  5
1397
 10
61.2905
 20
61.3207
 30
8.13339e-015
  70
    32
  0
VERTEX
  8
0
  5
1398
 10
61.3593
 20
61.2786
 30
7.86498e-015
  70
    32
  0
VERTEX
  8
0
  5
1399
 10
61.4291
 20
61.2379
 30
7.59245e-015
  70
    32
  0
VERTEX
  8
0
  5
139A
 10
61.4999
 20
61.1986
 30
7.31594e-015
  70
    32
  0
VERTEX
  8
0
  5
139B
 10
61.5717
 20
61.1609
 30
7.03561e-015
  70
    32
  0
VERTEX
  8
0
  5
139C
 10
61.6444
 20
61.1246
 30
6.75160e-015
  70
    32
  0
VERTEX
  8
0
  5
139D
 10
61.7181
 20
61.0898
 30
6.46405e-015
  70
    32
  0
VERTEX
  8
0
  5
139E
 10
61.7926
 20
61.0565
 30
6.17311e-015
  70
    32
  0
VERTEX
  8
0
  5
139F
 10
61.8679
 20
61.0247
 30
5.87895e-015
  70
    32
  0
VERTEX
  8
0
  5
13A0
 10
61.9440
 20
60.9946
 30
5.58171e-015
  70
    32
  0
VERTEX
  8
0
  5
13A1
 10
62.0209
 20
60.9660
 30
5.28154e-015
  70
    32
  0
VERTEX
  8
0
  5
13A2
 10
62.0985
 20
60.9389
 30
4.97862e-015
  70
    32
  0
VERTEX
  8
0
  5
13A3
 10
62.1767
 20
60.9135
 30
4.67308e-015
  70
    32
  0
VERTEX
  8
0
  5
13A4
 10
62.2556
 20
60.8897
 30
4.36510e-015
  70
    32
  0
VERTEX
  8
0
  5
13A5
 10
62.3350
 20
60.8676
 30
4.05484e-015
  70
    32
  0
VERTEX
  8
0
  5
13A6
 10
62.4150
 20
60.8470
 30
3.74245e-015
  70
    32
  0
VERTEX
  8
0
  5
13A7
 10
62.4955
 20
60.8281
 30
3.42811e-015
  70
    32
  0
VERTEX
  8
0
  5
13A8
 10
62.5765
 20
60.8109
 30
3.11197e-015
  70
    32
  0
VERTEX
  8
0
  5
13A9
 10
62.6579
 20
60.7954
 30
2.79420e-015
  70
    32
  0
VERTEX
  8
0
  5
13AA
 10
62.7396
 20
60.7815
 30
2.47497e-015
  70
    32
  0
VERTEX
  8
0
  5
13AB
 10
62.8217
 20
60.7693
 30
2.15444e-015
  70
    32
  0
VERTEX
  8
0
  5
13AC
 10
62.9041
 20
60.7588
 30
1.83279e-015
  70
    32
  0
VERTEX
  8
0
  5
13AD
 10
62.9867
 20
60.7500
 30
1.51018e-015
  70
    32
  0
SEQEND
  8
0
  5
13AE
  0
LINE
  5
1130
  8
0
 10
62.986723218781663
 20
60.749999999991871
 30
0.0
 11
69.636712958719642
 21
60.75
 31
0.0
  0
LINE
  5
1131
  8
0
 10
69.636712958719642
 20
60.75
 30
0.0
 11
69.636712958719642
 21
67.25
 31
0.0
  0
LINE
  5
1132
  8
0
 10
69.636712958719642
 20
67.25
 30
0.0
 11
62.986723218781663
 21
67.2500000000081
 31
0.0
  0
POLYLINE
  5
1133
  8
0
 10
76.724698610337128
 20
76.999999999999957
 30
-0.0000000000000071
 66
     1
 70
     8
  0
VERTEX
  8
0
  5
13AF
 10
76.7247
 20
77.0000
 30
-7.10000e-015
  70
    32
  0
VERTEX
  8
0
  5
13B0
 10
76.7246
 20
77.0123
 30
-7.09947e-015
  70
    32
  0
VERTEX
  8
0
  5
13B1
 10
76.7244
 20
77.0245
 30
-7.09786e-015
  70
    32
  0
VERTEX
  8
0
  5
13B2
 10
76.7239
 20
77.0368
 30
-7.09519e-015
  70
    32
  0
VERTEX
  8
0
  5
13B3
 10
76.7234
 20
77.0491
 30
-7.09145e-015
  70
    32
  0
VERTEX
  8
0
  5
13B4
 10
76.7226
 20
77.0613
 30
-7.08664e-015
  70
    32
  0
VERTEX
  8
0
  5
13B5
 10
76.7217
 20
77.0736
 30
-7.08076e-015
  70
    32
  0
VERTEX
  8
0
  5
13B6
 10
76.7206
 20
77.0858
 30
-7.07382e-015
  70
    32
  0
VERTEX
  8
0
  5
13B7
 10
76.7193
 20
77.0980
 30
-7.06581e-015
  70
    32
  0
VERTEX
  8
0
  5
13B8
 10
76.7179
 20
77.1102
 30
-7.05674e-015
  70
    32
  0
VERTEX
  8
0
  5
13B9
 10
76.7163
 20
77.1224
 30
-7.04660e-015
  70
    32
  0
VERTEX
  8
0
  5
13BA
 10
76.7146
 20
77.1346
 30
-7.03541e-015
  70
    32
  0
VERTEX
  8
0
  5
13BB
 10
76.7127
 20
77.1467
 30
-7.02315e-015
  70
    32
  0
VERTEX
  8
0
  5
13BC
 10
76.7106
 20
77.1589
 30
-7.00984e-015
  70
    32
  0
VERTEX
  8
0
  5
13BD
 10
76.7083
 20
77.1710
 30
-6.99547e-015
  70
    32
  0
VERTEX
  8
0
  5
13BE
 10
76.7059
 20
77.1830
 30
-6.98005e-015
  70
    32
  0
VERTEX
  8
0
  5
13BF
 10
76.7033
 20
77.1951
 30
-6.96358e-015
  70
    32
  0
VERTEX
  8
0
  5
13C0
 10
76.7006
 20
77.2071
 30
-6.94605e-015
  70
    32
  0
VERTEX
  8
0
  5
13C1
 10
76.6977
 20
77.2191
 30
-6.92749e-015
  70
    32
  0
VERTEX
  8
0
  5
13C2
 10
76.6946
 20
77.2311
 30
-6.90787e-015
  70
    32
  0
VERTEX
  8
0
  5
13C3
 10
76.6914
 20
77.2430
 30
-6.88722e-015
  70
    32
  0
VERTEX
  8
0
  5
13C4
 10
76.6880
 20
77.2549
 30
-6.86553e-015
  70
    32
  0
VERTEX
  8
0
  5
13C5
 10
76.6844
 20
77.2667
 30
-6.84281e-015
  70
    32
  0
VERTEX
  8
0
  5
13C6
 10
76.6807
 20
77.2785
 30
-6.81906e-015
  70
    32
  0
VERTEX
  8
0
  5
13C7
 10
76.6768
 20
77.2903
 30
-6.79428e-015
  70
    32
  0
VERTEX
  8
0
  5
13C8
 10
76.6727
 20
77.3020
 30
-6.76847e-015
  70
    32
  0
VERTEX
  8
0
  5
13C9
 10
76.6685
 20
77.3137
 30
-6.74165e-015
  70
    32
  0
VERTEX
  8
0
  5
13CA
 10
76.6642
 20
77.3253
 30
-6.71381e-015
  70
    32
  0
VERTEX
  8
0
  5
13CB
 10
76.6597
 20
77.3369
 30
-6.68496e-015
  70
    32
  0
VERTEX
  8
0
  5
13CC
 10
76.6550
 20
77.3484
 30
-6.65511e-015
  70
    32
  0
VERTEX
  8
0
  5
13CD
 10
76.6501
 20
77.3599
 30
-6.62425e-015
  70
    32
  0
VERTEX
  8
0
  5
13CE
 10
76.6452
 20
77.3713
 30
-6.59239e-015
  70
    32
  0
VERTEX
  8
0
  5
13CF
 10
76.6400
 20
77.3827
 30
-6.55954e-015
  70
    32
  0
VERTEX
  8
0
  5
13D0
 10
76.6347
 20
77.3940
 30
-6.52571e-015
  70
    32
  0
VERTEX
  8
0
  5
13D1
 10
76.6292
 20
77.4052
 30
-6.49089e-015
  70
    32
  0
VERTEX
  8
0
  5
13D2
 10
76.6236
 20
77.4164
 30
-6.45509e-015
  70
    32
  0
VERTEX
  8
0
  5
13D3
 10
76.6179
 20
77.4276
 30
-6.41832e-015
  70
    32
  0
VERTEX
  8
0
  5
13D4
 10
76.6120
 20
77.4386
 30
-6.38059e-015
  70
    32
  0
VERTEX
  8
0
  5
13D5
 10
76.6059
 20
77.4496
 30
-6.34189e-015
  70
    32
  0
VERTEX
  8
0
  5
13D6
 10
76.5997
 20
77.4605
 30
-6.30224e-015
  70
    32
  0
VERTEX
  8
0
  5
13D7
 10
76.5933
 20
77.4714
 30
-6.26164e-015
  70
    32
  0
VERTEX
  8
0
  5
13D8
 10
76.5868
 20
77.4822
 30
-6.22010e-015
  70
    32
  0
VERTEX
  8
0
  5
13D9
 10
76.5802
 20
77.4929
 30
-6.17762e-015
  70
    32
  0
VERTEX
  8
0
  5
13DA
 10
76.5734
 20
77.5035
 30
-6.13421e-015
  70
    32
  0
VERTEX
  8
0
  5
13DB
 10
76.5664
 20
77.5141
 30
-6.08987e-015
  70
    32
  0
VERTEX
  8
0
  5
13DC
 10
76.5593
 20
77.5246
 30
-6.04462e-015
  70
    32
  0
VERTEX
  8
0
  5
13DD
 10
76.5521
 20
77.5350
 30
-5.99846e-015
  70
    32
  0
VERTEX
  8
0
  5
13DE
 10
76.5447
 20
77.5453
 30
-5.95140e-015
  70
    32
  0
VERTEX
  8
0
  5
13DF
 10
76.5372
 20
77.5556
 30
-5.90343e-015
  70
    32
  0
VERTEX
  8
0
  5
13E0
 10
76.5295
 20
77.5657
 30
-5.85458e-015
  70
    32
  0
VERTEX
  8
0
  5
13E1
 10
76.5217
 20
77.5758
 30
-5.80485e-015
  70
    32
  0
VERTEX
  8
0
  5
13E2
 10
76.5138
 20
77.5858
 30
-5.75425e-015
  70
    32
  0
VERTEX
  8
0
  5
13E3
 10
76.5057
 20
77.5957
 30
-5.70277e-015
  70
    32
  0
VERTEX
  8
0
  5
13E4
 10
76.4975
 20
77.6055
 30
-5.65044e-015
  70
    32
  0
VERTEX
  8
0
  5
13E5
 10
76.4892
 20
77.6152
 30
-5.59726e-015
  70
    32
  0
VERTEX
  8
0
  5
13E6
 10
76.4807
 20
77.6249
 30
-5.54323e-015
  70
    32
  0
VERTEX
  8
0
  5
13E7
 10
76.4721
 20
77.6344
 30
-5.48837e-015
  70
    32
  0
VERTEX
  8
0
  5
13E8
 10
76.4634
 20
77.6438
 30
-5.43269e-015
  70
    32
  0
VERTEX
  8
0
  5
13E9
 10
76.4546
 20
77.6532
 30
-5.37618e-015
  70
    32
  0
VERTEX
  8
0
  5
13EA
 10
76.4456
 20
77.6624
 30
-5.31887e-015
  70
    32
  0
VERTEX
  8
0
  5
13EB
 10
76.4365
 20
77.6716
 30
-5.26075e-015
  70
    32
  0
VERTEX
  8
0
  5
13EC
 10
76.4272
 20
77.6806
 30
-5.20185e-015
  70
    32
  0
VERTEX
  8
0
  5
13ED
 10
76.4179
 20
77.6895
 30
-5.14215e-015
  70
    32
  0
VERTEX
  8
0
  5
13EE
 10
76.4084
 20
77.6984
 30
-5.08169e-015
  70
    32
  0
VERTEX
  8
0
  5
13EF
 10
76.3988
 20
77.7071
 30
-5.02046e-015
  70
    32
  0
VERTEX
  8
0
  5
13F0
 10
76.3891
 20
77.7157
 30
-4.95847e-015
  70
    32
  0
VERTEX
  8
0
  5
13F1
 10
76.3793
 20
77.7242
 30
-4.89574e-015
  70
    32
  0
VERTEX
  8
0
  5
13F2
 10
76.3693
 20
77.7327
 30
-4.83227e-015
  70
    32
  0
VERTEX
  8
0
  5
13F3
 10
76.3593
 20
77.7410
 30
-4.76807e-015
  70
    32
  0
VERTEX
  8
0
  5
13F4
 10
76.3491
 20
77.7491
 30
-4.70315e-015
  70
    32
  0
VERTEX
  8
0
  5
13F5
 10
76.3388
 20
77.7572
 30
-4.63753e-015
  70
    32
  0
VERTEX
  8
0
  5
13F6
 10
76.3284
 20
77.7652
 30
-4.57120e-015
  70
    32
  0
VERTEX
  8
0
  5
13F7
 10
76.3179
 20
77.7730
 30
-4.50419e-015
  70
    32
  0
VERTEX
  8
0
  5
13F8
 10
76.3073
 20
77.7807
 30
-4.43650e-015
  70
    32
  0
VERTEX
  8
0
  5
13F9
 10
76.2966
 20
77.7883
 30
-4.36814e-015
  70
    32
  0
VERTEX
  8
0
  5
13FA
 10
76.2858
 20
77.7958
 30
-4.29913e-015
  70
    32
  0
VERTEX
  8
0
  5
13FB
 10
76.2749
 20
77.8032
 30
-4.22947e-015
  70
    32
  0
VERTEX
  8
0
  5
13FC
 10
76.2639
 20
77.8105
 30
-4.15916e-015
  70
    32
  0
VERTEX
  8
0
  5
13FD
 10
76.2527
 20
77.8176
 30
-4.08824e-015
  70
    32
  0
VERTEX
  8
0
  5
13FE
 10
76.2415
 20
77.8246
 30
-4.01670e-015
  70
    32
  0
VERTEX
  8
0
  5
13FF
 10
76.2302
 20
77.8315
 30
-3.94455e-015
  70
    32
  0
VERTEX
  8
0
  5
1400
 10
76.2188
 20
77.8382
 30
-3.87181e-015
  70
    32
  0
VERTEX
  8
0
  5
1401
 10
76.2073
 20
77.8449
 30
-3.79848e-015
  70
    32
  0
VERTEX
  8
0
  5
1402
 10
76.1958
 20
77.8514
 30
-3.72459e-015
  70
    32
  0
VERTEX
  8
0
  5
1403
 10
76.1841
 20
77.8577
 30
-3.65013e-015
  70
    32
  0
VERTEX
  8
0
  5
1404
 10
76.1723
 20
77.8640
 30
-3.57512e-015
  70
    32
  0
VERTEX
  8
0
  5
1405
 10
76.1605
 20
77.8701
 30
-3.49958e-015
  70
    32
  0
VERTEX
  8
0
  5
1406
 10
76.1486
 20
77.8761
 30
-3.42350e-015
  70
    32
  0
VERTEX
  8
0
  5
1407
 10
76.1366
 20
77.8819
 30
-3.34692e-015
  70
    32
  0
VERTEX
  8
0
  5
1408
 10
76.1245
 20
77.8876
 30
-3.26982e-015
  70
    32
  0
VERTEX
  8
0
  5
1409
 10
76.1123
 20
77.8932
 30
-3.19224e-015
  70
    32
  0
VERTEX
  8
0
  5
140A
 10
76.1001
 20
77.8987
 30
-3.11418e-015
  70
    32
  0
VERTEX
  8
0
  5
140B
 10
76.0878
 20
77.9040
 30
-3.03564e-015
  70
    32
  0
VERTEX
  8
0
  5
140C
 10
76.0754
 20
77.9092
 30
-2.95665e-015
  70
    32
  0
VERTEX
  8
0
  5
140D
 10
76.0630
 20
77.9142
 30
-2.87721e-015
  70
    32
  0
VERTEX
  8
0
  5
140E
 10
76.0505
 20
77.9191
 30
-2.79734e-015
  70
    32
  0
VERTEX
  8
0
  5
140F
 10
76.0379
 20
77.9239
 30
-2.71705e-015
  70
    32
  0
VERTEX
  8
0
  5
1410
 10
76.0252
 20
77.9285
 30
-2.63635e-015
  70
    32
  0
VERTEX
  8
0
  5
1411
 10
76.0125
 20
77.9330
 30
-2.55525e-015
  70
    32
  0
VERTEX
  8
0
  5
1412
 10
75.9997
 20
77.9373
 30
-2.47377e-015
  70
    32
  0
VERTEX
  8
0
  5
1413
 10
75.9869
 20
77.9415
 30
-2.39192e-015
  70
    32
  0
VERTEX
  8
0
  5
1414
 10
75.9740
 20
77.9456
 30
-2.30970e-015
  70
    32
  0
VERTEX
  8
0
  5
1415
 10
75.9611
 20
77.9495
 30
-2.22714e-015
  70
    32
  0
VERTEX
  8
0
  5
1416
 10
75.9481
 20
77.9533
 30
-2.14424e-015
  70
    32
  0
VERTEX
  8
0
  5
1417
 10
75.9351
 20
77.9569
 30
-2.06102e-015
  70
    32
  0
VERTEX
  8
0
  5
1418
 10
75.9220
 20
77.9604
 30
-1.97749e-015
  70
    32
  0
VERTEX
  8
0
  5
1419
 10
75.9088
 20
77.9638
 30
-1.89366e-015
  70
    32
  0
VERTEX
  8
0
  5
141A
 10
75.8957
 20
77.9670
 30
-1.80955e-015
  70
    32
  0
VERTEX
  8
0
  5
141B
 10
75.8824
 20
77.9700
 30
-1.72516e-015
  70
    32
  0
VERTEX
  8
0
  5
141C
 10
75.8692
 20
77.9729
 30
-1.64051e-015
  70
    32
  0
VERTEX
  8
0
  5
141D
 10
75.8559
 20
77.9757
 30
-1.55562e-015
  70
    32
  0
VERTEX
  8
0
  5
141E
 10
75.8425
 20
77.9783
 30
-1.47049e-015
  70
    32
  0
VERTEX
  8
0
  5
141F
 10
75.8292
 20
77.9808
 30
-1.38514e-015
  70
    32
  0
VERTEX
  8
0
  5
1420
 10
75.8157
 20
77.9831
 30
-1.29958e-015
  70
    32
  0
VERTEX
  8
0
  5
1421
 10
75.8023
 20
77.9853
 30
-1.21383e-015
  70
    32
  0
VERTEX
  8
0
  5
1422
 10
75.7888
 20
77.9873
 30
-1.12789e-015
  70
    32
  0
VERTEX
  8
0
  5
1423
 10
75.7753
 20
77.9892
 30
-1.04179e-015
  70
    32
  0
VERTEX
  8
0
  5
1424
 10
75.7618
 20
77.9909
 30
-9.55523e-016
  70
    32
  0
VERTEX
  8
0
  5
1425
 10
75.7483
 20
77.9925
 30
-8.69116e-016
  70
    32
  0
VERTEX
  8
0
  5
1426
 10
75.7347
 20
77.9939
 30
-7.82578e-016
  70
    32
  0
VERTEX
  8
0
  5
1427
 10
75.7212
 20
77.9952
 30
-6.95922e-016
  70
    32
  0
VERTEX
  8
0
  5
1428
 10
75.7076
 20
77.9963
 30
-6.09161e-016
  70
    32
  0
VERTEX
  8
0
  5
1429
 10
75.6939
 20
77.9973
 30
-5.22308e-016
  70
    32
  0
VERTEX
  8
0
  5
142A
 10
75.6803
 20
77.9981
 30
-4.35377e-016
  70
    32
  0
VERTEX
  8
0
  5
142B
 10
75.6667
 20
77.9988
 30
-3.48380e-016
  70
    32
  0
VERTEX
  8
0
  5
142C
 10
75.6530
 20
77.9993
 30
-2.61331e-016
  70
    32
  0
VERTEX
  8
0
  5
142D
 10
75.6394
 20
77.9997
 30
-1.74243e-016
  70
    32
  0
VERTEX
  8
0
  5
142E
 10
75.6258
 20
77.9999
 30
-8.71279e-017
  70
    32
  0
VERTEX
  8
0
  5
142F
 10
75.6121
 20
78.0000
 30
8.69807e-029
  70
    32
  0
SEQEND
  8
0
  5
1430
  0
LINE
  5
1134
  8
0
 10
76.724698610337185
 20
76.999999999999972
 30
0.0
 11
76.724698610337185
 21
51.0
 31
0.0
  0
POLYLINE
  5
1135
  8
0
 10
75.61209666985684
 20
50.000000000000007
 30
0.0
 66
     1
 70
     8
  0
VERTEX
  8
0
  5
1431
 10
75.6121
 20
50.0000
 30
5.16430e-030
  70
    32
  0
VERTEX
  8
0
  5
1432
 10
75.6258
 20
50.0001
 30
-8.71279e-017
  70
    32
  0
VERTEX
  8
0
  5
1433
 10
75.6394
 20
50.0003
 30
-1.74243e-016
  70
    32
  0
VERTEX
  8
0
  5
1434
 10
75.6530
 20
50.0007
 30
-2.61331e-016
  70
    32
  0
VERTEX
  8
0
  5
1435
 10
75.6667
 20
50.0012
 30
-3.48380e-016
  70
    32
  0
VERTEX
  8
0
  5
1436
 10
75.6803
 20
50.0019
 30
-4.35377e-016
  70
    32
  0
VERTEX
  8
0
  5
1437
 10
75.6939
 20
50.0027
 30
-5.22308e-016
  70
    32
  0
VERTEX
  8
0
  5
1438
 10
75.7076
 20
50.0037
 30
-6.09161e-016
  70
    32
  0
VERTEX
  8
0
  5
1439
 10
75.7212
 20
50.0048
 30
-6.95922e-016
  70
    32
  0
VERTEX
  8
0
  5
143A
 10
75.7347
 20
50.0061
 30
-7.82578e-016
  70
    32
  0
VERTEX
  8
0
  5
143B
 10
75.7483
 20
50.0075
 30
-8.69116e-016
  70
    32
  0
VERTEX
  8
0
  5
143C
 10
75.7618
 20
50.0091
 30
-9.55523e-016
  70
    32
  0
VERTEX
  8
0
  5
143D
 10
75.7753
 20
50.0108
 30
-1.04179e-015
  70
    32
  0
VERTEX
  8
0
  5
143E
 10
75.7888
 20
50.0127
 30
-1.12789e-015
  70
    32
  0
VERTEX
  8
0
  5
143F
 10
75.8023
 20
50.0147
 30
-1.21383e-015
  70
    32
  0
VERTEX
  8
0
  5
1440
 10
75.8157
 20
50.0169
 30
-1.29958e-015
  70
    32
  0
VERTEX
  8
0
  5
1441
 10
75.8292
 20
50.0192
 30
-1.38514e-015
  70
    32
  0
VERTEX
  8
0
  5
1442
 10
75.8425
 20
50.0217
 30
-1.47049e-015
  70
    32
  0
VERTEX
  8
0
  5
1443
 10
75.8559
 20
50.0243
 30
-1.55562e-015
  70
    32
  0
VERTEX
  8
0
  5
1444
 10
75.8692
 20
50.0271
 30
-1.64051e-015
  70
    32
  0
VERTEX
  8
0
  5
1445
 10
75.8824
 20
50.0300
 30
-1.72516e-015
  70
    32
  0
VERTEX
  8
0
  5
1446
 10
75.8957
 20
50.0330
 30
-1.80955e-015
  70
    32
  0
VERTEX
  8
0
  5
1447
 10
75.9088
 20
50.0362
 30
-1.89366e-015
  70
    32
  0
VERTEX
  8
0
  5
1448
 10
75.9220
 20
50.0396
 30
-1.97749e-015
  70
    32
  0
VERTEX
  8
0
  5
1449
 10
75.9351
 20
50.0431
 30
-2.06102e-015
  70
    32
  0
VERTEX
  8
0
  5
144A
 10
75.9481
 20
50.0467
 30
-2.14424e-015
  70
    32
  0
VERTEX
  8
0
  5
144B
 10
75.9611
 20
50.0505
 30
-2.22714e-015
  70
    32
  0
VERTEX
  8
0
  5
144C
 10
75.9740
 20
50.0544
 30
-2.30970e-015
  70
    32
  0
VERTEX
  8
0
  5
144D
 10
75.9869
 20
50.0585
 30
-2.39192e-015
  70
    32
  0
VERTEX
  8
0
  5
144E
 10
75.9997
 20
50.0627
 30
-2.47377e-015
  70
    32
  0
VERTEX
  8
0
  5
144F
 10
76.0125
 20
50.0670
 30
-2.55525e-015
  70
    32
  0
VERTEX
  8
0
  5
1450
 10
76.0252
 20
50.0715
 30
-2.63635e-015
  70
    32
  0
VERTEX
  8
0
  5
1451
 10
76.0379
 20
50.0761
 30
-2.71705e-015
  70
    32
  0
VERTEX
  8
0
  5
1452
 10
76.0505
 20
50.0809
 30
-2.79734e-015
  70
    32
  0
VERTEX
  8
0
  5
1453
 10
76.0630
 20
50.0858
 30
-2.87721e-015
  70
    32
  0
VERTEX
  8
0
  5
1454
 10
76.0754
 20
50.0908
 30
-2.95665e-015
  70
    32
  0
VERTEX
  8
0
  5
1455
 10
76.0878
 20
50.0960
 30
-3.03564e-015
  70
    32
  0
VERTEX
  8
0
  5
1456
 10
76.1001
 20
50.1013
 30
-3.11418e-015
  70
    32
  0
VERTEX
  8
0
  5
1457
 10
76.1123
 20
50.1068
 30
-3.19224e-015
  70
    32
  0
VERTEX
  8
0
  5
1458
 10
76.1245
 20
50.1124
 30
-3.26982e-015
  70
    32
  0
VERTEX
  8
0
  5
1459
 10
76.1366
 20
50.1181
 30
-3.34692e-015
  70
    32
  0
VERTEX
  8
0
  5
145A
 10
76.1486
 20
50.1239
 30
-3.42350e-015
  70
    32
  0
VERTEX
  8
0
  5
145B
 10
76.1605
 20
50.1299
 30
-3.49958e-015
  70
    32
  0
VERTEX
  8
0
  5
145C
 10
76.1723
 20
50.1360
 30
-3.57512e-015
  70
    32
  0
VERTEX
  8
0
  5
145D
 10
76.1841
 20
50.1423
 30
-3.65013e-015
  70
    32
  0
VERTEX
  8
0
  5
145E
 10
76.1958
 20
50.1486
 30
-3.72459e-015
  70
    32
  0
VERTEX
  8
0
  5
145F
 10
76.2073
 20
50.1551
 30
-3.79848e-015
  70
    32
  0
VERTEX
  8
0
  5
1460
 10
76.2188
 20
50.1618
 30
-3.87181e-015
  70
    32
  0
VERTEX
  8
0
  5
1461
 10
76.2302
 20
50.1685
 30
-3.94455e-015
  70
    32
  0
VERTEX
  8
0
  5
1462
 10
76.2415
 20
50.1754
 30
-4.01670e-015
  70
    32
  0
VERTEX
  8
0
  5
1463
 10
76.2527
 20
50.1824
 30
-4.08824e-015
  70
    32
  0
VERTEX
  8
0
  5
1464
 10
76.2639
 20
50.1895
 30
-4.15916e-015
  70
    32
  0
VERTEX
  8
0
  5
1465
 10
76.2749
 20
50.1968
 30
-4.22947e-015
  70
    32
  0
VERTEX
  8
0
  5
1466
 10
76.2858
 20
50.2042
 30
-4.29913e-015
  70
    32
  0
VERTEX
  8
0
  5
1467
 10
76.2966
 20
50.2117
 30
-4.36814e-015
  70
    32
  0
VERTEX
  8
0
  5
1468
 10
76.3073
 20
50.2193
 30
-4.43650e-015
  70
    32
  0
VERTEX
  8
0
  5
1469
 10
76.3179
 20
50.2270
 30
-4.50419e-015
  70
    32
  0
VERTEX
  8
0
  5
146A
 10
76.3284
 20
50.2348
 30
-4.57120e-015
  70
    32
  0
VERTEX
  8
0
  5
146B
 10
76.3388
 20
50.2428
 30
-4.63753e-015
  70
    32
  0
VERTEX
  8
0
  5
146C
 10
76.3491
 20
50.2509
 30
-4.70315e-015
  70
    32
  0
VERTEX
  8
0
  5
146D
 10
76.3593
 20
50.2590
 30
-4.76807e-015
  70
    32
  0
VERTEX
  8
0
  5
146E
 10
76.3693
 20
50.2673
 30
-4.83227e-015
  70
    32
  0
VERTEX
  8
0
  5
146F
 10
76.3793
 20
50.2758
 30
-4.89574e-015
  70
    32
  0
VERTEX
  8
0
  5
1470
 10
76.3891
 20
50.2843
 30
-4.95847e-015
  70
    32
  0
VERTEX
  8
0
  5
1471
 10
76.3988
 20
50.2929
 30
-5.02046e-015
  70
    32
  0
VERTEX
  8
0
  5
1472
 10
76.4084
 20
50.3016
 30
-5.08169e-015
  70
    32
  0
VERTEX
  8
0
  5
1473
 10
76.4179
 20
50.3105
 30
-5.14215e-015
  70
    32
  0
VERTEX
  8
0
  5
1474
 10
76.4272
 20
50.3194
 30
-5.20185e-015
  70
    32
  0
VERTEX
  8
0
  5
1475
 10
76.4365
 20
50.3284
 30
-5.26075e-015
  70
    32
  0
VERTEX
  8
0
  5
1476
 10
76.4456
 20
50.3376
 30
-5.31887e-015
  70
    32
  0
VERTEX
  8
0
  5
1477
 10
76.4546
 20
50.3468
 30
-5.37618e-015
  70
    32
  0
VERTEX
  8
0
  5
1478
 10
76.4634
 20
50.3562
 30
-5.43269e-015
  70
    32
  0
VERTEX
  8
0
  5
1479
 10
76.4721
 20
50.3656
 30
-5.48837e-015
  70
    32
  0
VERTEX
  8
0
  5
147A
 10
76.4807
 20
50.3751
 30
-5.54323e-015
  70
    32
  0
VERTEX
  8
0
  5
147B
 10
76.4892
 20
50.3848
 30
-5.59726e-015
  70
    32
  0
VERTEX
  8
0
  5
147C
 10
76.4975
 20
50.3945
 30
-5.65044e-015
  70
    32
  0
VERTEX
  8
0
  5
147D
 10
76.5057
 20
50.4043
 30
-5.70277e-015
  70
    32
  0
VERTEX
  8
0
  5
147E
 10
76.5138
 20
50.4142
 30
-5.75425e-015
  70
    32
  0
VERTEX
  8
0
  5
147F
 10
76.5217
 20
50.4242
 30
-5.80485e-015
  70
    32
  0
VERTEX
  8
0
  5
1480
 10
76.5295
 20
50.4343
 30
-5.85458e-015
  70
    32
  0
VERTEX
  8
0
  5
1481
 10
76.5372
 20
50.4444
 30
-5.90343e-015
  70
    32
  0
VERTEX
  8
0
  5
1482
 10
76.5447
 20
50.4547
 30
-5.95140e-015
  70
    32
  0
VERTEX
  8
0
  5
1483
 10
76.5521
 20
50.4650
 30
-5.99846e-015
  70
    32
  0
VERTEX
  8
0
  5
1484
 10
76.5593
 20
50.4754
 30
-6.04462e-015
  70
    32
  0
VERTEX
  8
0
  5
1485
 10
76.5664
 20
50.4859
 30
-6.08987e-015
  70
    32
  0
VERTEX
  8
0
  5
1486
 10
76.5734
 20
50.4965
 30
-6.13421e-015
  70
    32
  0
VERTEX
  8
0
  5
1487
 10
76.5802
 20
50.5071
 30
-6.17762e-015
  70
    32
  0
VERTEX
  8
0
  5
1488
 10
76.5868
 20
50.5178
 30
-6.22010e-015
  70
    32
  0
VERTEX
  8
0
  5
1489
 10
76.5933
 20
50.5286
 30
-6.26164e-015
  70
    32
  0
VERTEX
  8
0
  5
148A
 10
76.5997
 20
50.5395
 30
-6.30224e-015
  70
    32
  0
VERTEX
  8
0
  5
148B
 10
76.6059
 20
50.5504
 30
-6.34189e-015
  70
    32
  0
VERTEX
  8
0
  5
148C
 10
76.6120
 20
50.5614
 30
-6.38059e-015
  70
    32
  0
VERTEX
  8
0
  5
148D
 10
76.6179
 20
50.5724
 30
-6.41832e-015
  70
    32
  0
VERTEX
  8
0
  5
148E
 10
76.6236
 20
50.5836
 30
-6.45509e-015
  70
    32
  0
VERTEX
  8
0
  5
148F
 10
76.6292
 20
50.5948
 30
-6.49089e-015
  70
    32
  0
VERTEX
  8
0
  5
1490
 10
76.6347
 20
50.6060
 30
-6.52571e-015
  70
    32
  0
VERTEX
  8
0
  5
1491
 10
76.6400
 20
50.6173
 30
-6.55954e-015
  70
    32
  0
VERTEX
  8
0
  5
1492
 10
76.6452
 20
50.6287
 30
-6.59239e-015
  70
    32
  0
VERTEX
  8
0
  5
1493
 10
76.6501
 20
50.6401
 30
-6.62425e-015
  70
    32
  0
VERTEX
  8
0
  5
1494
 10
76.6550
 20
50.6516
 30
-6.65511e-015
  70
    32
  0
VERTEX
  8
0
  5
1495
 10
76.6597
 20
50.6631
 30
-6.68496e-015
  70
    32
  0
VERTEX
  8
0
  5
1496
 10
76.6642
 20
50.6747
 30
-6.71381e-015
  70
    32
  0
VERTEX
  8
0
  5
1497
 10
76.6685
 20
50.6863
 30
-6.74165e-015
  70
    32
  0
VERTEX
  8
0
  5
1498
 10
76.6727
 20
50.6980
 30
-6.76847e-015
  70
    32
  0
VERTEX
  8
0
  5
1499
 10
76.6768
 20
50.7097
 30
-6.79428e-015
  70
    32
  0
VERTEX
  8
0
  5
149A
 10
76.6807
 20
50.7215
 30
-6.81906e-015
  70
    32
  0
VERTEX
  8
0
  5
149B
 10
76.6844
 20
50.7333
 30
-6.84281e-015
  70
    32
  0
VERTEX
  8
0
  5
149C
 10
76.6880
 20
50.7451
 30
-6.86553e-015
  70
    32
  0
VERTEX
  8
0
  5
149D
 10
76.6914
 20
50.7570
 30
-6.88722e-015
  70
    32
  0
VERTEX
  8
0
  5
149E
 10
76.6946
 20
50.7689
 30
-6.90787e-015
  70
    32
  0
VERTEX
  8
0
  5
149F
 10
76.6977
 20
50.7809
 30
-6.92749e-015
  70
    32
  0
VERTEX
  8
0
  5
14A0
 10
76.7006
 20
50.7929
 30
-6.94605e-015
  70
    32
  0
VERTEX
  8
0
  5
14A1
 10
76.7033
 20
50.8049
 30
-6.96358e-015
  70
    32
  0
VERTEX
  8
0
  5
14A2
 10
76.7059
 20
50.8170
 30
-6.98005e-015
  70
    32
  0
VERTEX
  8
0
  5
14A3
 10
76.7083
 20
50.8290
 30
-6.99547e-015
  70
    32
  0
VERTEX
  8
0
  5
14A4
 10
76.7106
 20
50.8411
 30
-7.00984e-015
  70
    32
  0
VERTEX
  8
0
  5
14A5
 10
76.7127
 20
50.8533
 30
-7.02315e-015
  70
    32
  0
VERTEX
  8
0
  5
14A6
 10
76.7146
 20
50.8654
 30
-7.03541e-015
  70
    32
  0
VERTEX
  8
0
  5
14A7
 10
76.7163
 20
50.8776
 30
-7.04660e-015
  70
    32
  0
VERTEX
  8
0
  5
14A8
 10
76.7179
 20
50.8898
 30
-7.05674e-015
  70
    32
  0
VERTEX
  8
0
  5
14A9
 10
76.7193
 20
50.9020
 30
-7.06581e-015
  70
    32
  0
VERTEX
  8
0
  5
14AA
 10
76.7206
 20
50.9142
 30
-7.07382e-015
  70
    32
  0
VERTEX
  8
0
  5
14AB
 10
76.7217
 20
50.9264
 30
-7.08076e-015
  70
    32
  0
VERTEX
  8
0
  5
14AC
 10
76.7226
 20
50.9387
 30
-7.08664e-015
  70
    32
  0
VERTEX
  8
0
  5
14AD
 10
76.7234
 20
50.9509
 30
-7.09145e-015
  70
    32
  0
VERTEX
  8
0
  5
14AE
 10
76.7239
 20
50.9632
 30
-7.09519e-015
  70
    32
  0
VERTEX
  8
0
  5
14AF
 10
76.7244
 20
50.9755
 30
-7.09786e-015
  70
    32
  0
VERTEX
  8
0
  5
14B0
 10
76.7246
 20
50.9877
 30
-7.09947e-015
  70
    32
  0
VERTEX
  8
0
  5
14B1
 10
76.7247
 20
51.0000
 30
-7.10000e-015
  70
    32
  0
SEQEND
  8
0
  5
14B2
  0
LINE
  5
1136
  8
0
 10
51.134853979289907
 20
50.0
 30
0.0
 11
51.134853979289907
 21
51.469999999999999
 31
0.0
  0
LINE
  5
1137
  8
0
 10
53.582578248346579
 20
51.469999999999999
 30
0.0
 11
51.134853979289907
 21
51.469999999999999
 31
0.0
  0
LINE
  5
1138
  8
0
 10
53.582578248346607
 20
51.469999999999999
 30
0.0
 11
53.582578248346607
 21
76.530000000000001
 31
0.0
  0
LINE
  5
1139
  8
0
 10
51.134853979289893
 20
76.530000000000001
 30
0.0
 11
53.582578248346579
 21
76.530000000000001
 31
0.0
  0
LINE
  5
113A
  8
0
 10
51.134853979289907
 20
76.530000000000001
 30
0.0
 11
51.134853979289907
 21
77.999999999999972
 31
0.0
  0
LINE
  5
1143
  8
0
 10
50.0
 20
50.0
 30
0.0
 11
49.999999999999972
 21
77.999999999999972
 31
0.0
  0
ARC
  5
1145
  8
0
 10
64.894821234137936
 20
63.999999999999972
 30
0.0
 40
3.3105316438498651
 50
100.9734695453479
 51
259.026530454652
  0
LINE
  5
114F
  8
0
 10
99.372193346259223
 20
77.999999999999972
 30
0.0
 11
99.372193346259252
 21
50.0
 31
0.0
  0
LINE
  5
1155
  8
0
 10
49.999999999999972
 20
77.999999999999972
 30
0.0
 11
106.930558808043
 21
77.999999999999972
 31
0.0
  0
LINE
  5
1156
  8
0
 10
50.0
 20
50.0
 30
0.0
 11
106.930558808043
 21
50.0
 31
0.0
  0
LINE
  5
11ED
  8
1
 10
171.6328304756604
 20
207.99056826696889
 30
0.0
 11
171.6328304756604
 21
122.9999999999999
 31
0.0
  0
LINE
  5
11EE
  8
1
 10
92.632830475660427
 20
207.99056826696901
 30
0.0
 11
92.632830475660427
 21
167.99056827617761
 31
0.0
  0
LINE
  5
11EF
  8
1
 10
63.362349305168458
 20
133.9999999999998
 30
0.0
 11
63.362349305168458
 21
123.0000000000001
 31
0.0
  0
LINE
  5
11F0
  8
1
 10
187.6328304756604
 20
187.99056826696889
 30
0.0
 11
155.6328304756604
 21
187.99056826696889
 31
0.0
  0
LINE
  5
11FB
  8
1
 10
112.6328304756604
 20
63.999999999999972
 30
0.0
 11
44.999999999999972
 21
63.999999999999972
 31
0.0
  0
LINE
  5
1200
  8
1
 10
112.6328304756604
 20
187.99056826696901
 30
0.0
 11
72.632830475660427
 21
187.99056826696901
 31
0.0
  0
LINE
  5
1247
  8
1
 10
63.362349305168458
 20
69.625454407638813
 30
0.0
 11
63.362349305168458
 21
58.37454559236113
 31
0.0
  0
ENDSEC
  0
EOF
