  0
SECTION
  2
HEADER
  9
$ACADVER
  1
AC1009
  9
$INSBASE
 10
0.0
 20
0.0
 30
0.0
  9
$EXTMIN
 10
0.0
 20
-2.960436562073669
 30
0.0
  9
$EXTMAX
 10
157.49165099999999
 20
104.915616
 30
0.0
  9
$LIMMIN
 10
0.0
 20
0.0
  9
$LIMMAX
 10
187.5
 20
135.0
  9
$ORTHOMODE
 70
     1
  9
$REGENMODE
 70
     1
  9
$FILLMODE
 70
     1
  9
$QTEXTMODE
 70
     0
  9
$MIRRTEXT
 70
     0
  9
$DRAGMODE
 70
     2
  9
$LTSCALE
 40
5.0
  9
$OSMODE
 70
  3071
  9
$ATTMODE
 70
     1
  9
$TEXTSIZE
 40
4.0
  9
$TRACEWID
 40
0.05
  9
$TEXTSTYLE
  7
STANDARD
  9
$CLAYER
  8
0
  9
$CELTYPE
  6
BYLAYER
  9
$CECOLOR
 62
   256
  9
$DIMSCALE
 40
0.5
  9
$DIMASZ
 40
3.0
  9
$DIMEXO
 40
2.0
  9
$DIMDLI
 40
0.38
  9
$DIMRND
 40
0.0
  9
$DIMDLE
 40
0.0
  9
$DIMEXE
 40
2.0
  9
$DIMTP
 40
0.0
  9
$DIMTM
 40
0.0
  9
$DIMTXT
 40
3.2000000000000002
  9
$DIMCEN
 40
0.0
  9
$DIMTSZ
 40
0.0
  9
$DIMTOL
 70
     0
  9
$DIMLIM
 70
     0
  9
$DIMTIH
 70
     0
  9
$DIMTOH
 70
     0
  9
$DIMSE1
 70
     0
  9
$DIMSE2
 70
     0
  9
$DIMTAD
 70
     1
  9
$DIMZIN
 70
     0
  9
$DIMBLK
  1

  9
$DIMASO
 70
     0
  9
$DIMSHO
 70
     0
  9
$DIMPOST
  1

  9
$DIMAPOST
  1

  9
$DIMALT
 70
     0
  9
$DIMALTD
 70
     2
  9
$DIMALTF
 40
25.399999999999999
  9
$DIMLFAC
 40
1.0
  9
$DIMTOFL
 70
     0
  9
$DIMTVP
 40
1.6000000000000001
  9
$DIMTIX
 70
     1
  9
$DIMSOXD
 70
     0
  9
$DIMSAH
 70
     0
  9
$DIMBLK1
  1

  9
$DIMBLK2
  1

  9
$DIMSTYLE
  2
STANDARD
  9
$DIMCLRD
 70
     0
  9
$DIMCLRE
 70
     0
  9
$DIMCLRT
 70
     0
  9
$DIMTFAC
 40
1.0
  9
$DIMGAP
 40
0.09
  9
$LUNITS
 70
     2
  9
$LUPREC
 70
     1
  9
$SKETCHINC
 40
0.1
  9
$FILLETRAD
 40
0.0
  9
$AUNITS
 70
     0
  9
$AUPREC
 70
     0
  9
$MENU
  1
E:\r13\win\SUPPORT\ACAD
  9
$ELEVATION
 40
0.0
  9
$PELEVATION
 40
0.0
  9
$THICKNESS
 40
0.0
  9
$LIMCHECK
 70
     0
  9
$BLIPMODE
 70
     0
  9
$CHAMFERA
 40
0.0
  9
$CHAMFERB
 40
0.0
  9
$SKPOLY
 70
     0
  9
$TDCREATE
 40
2449840.6495254631
  9
$TDUPDATE
 40
2456598.6927185878
  9
$TDINDWG
 40
0.0000888542
  9
$TDUSRTIMER
 40
0.0000888542
  9
$USRTIMER
 70
     1
  9
$ANGBASE
 50
0.0
  9
$ANGDIR
 70
     0
  9
$PDMODE
 70
     0
  9
$PDSIZE
 40
0.0
  9
$PLINEWID
 40
0.0
  9
$COORDS
 70
     1
  9
$SPLFRAME
 70
     0
  9
$SPLINETYPE
 70
     6
  9
$SPLINESEGS
 70
     8
  9
$ATTDIA
 70
     0
  9
$ATTREQ
 70
     1
  9
$HANDLING
 70
     1
  9
$HANDSEED
  5
1EE
  9
$SURFTAB1
 70
     6
  9
$SURFTAB2
 70
     6
  9
$SURFTYPE
 70
     6
  9
$SURFU
 70
     6
  9
$SURFV
 70
     6
  9
$UCSNAME
  2

  9
$UCSORG
 10
0.0
 20
0.0
 30
0.0
  9
$UCSXDIR
 10
1.0
 20
0.0
 30
0.0
  9
$UCSYDIR
 10
0.0
 20
1.0
 30
0.0
  9
$PUCSNAME
  2

  9
$PUCSORG
 10
0.0
 20
0.0
 30
0.0
  9
$PUCSXDIR
 10
1.0
 20
0.0
 30
0.0
  9
$PUCSYDIR
 10
0.0
 20
1.0
 30
0.0
  9
$USERI1
 70
     0
  9
$USERI2
 70
     1
  9
$USERI3
 70
     0
  9
$USERI4
 70
     0
  9
$USERI5
 70
     0
  9
$USERR1
 40
0.0
  9
$USERR2
 40
0.0
  9
$USERR3
 40
0.0
  9
$USERR4
 40
0.0
  9
$USERR5
 40
0.0
  9
$WORLDVIEW
 70
     1
  9
$SHADEDGE
 70
     3
  9
$SHADEDIF
 70
    70
  9
$TILEMODE
 70
     1
  9
$MAXACTVP
 70
    16
  9
$PLIMCHECK
 70
     0
  9
$PEXTMIN
 10
1.0000000000000000E+020
 20
1.0000000000000000E+020
 30
1.0000000000000000E+020
  9
$PEXTMAX
 10
-1.0000000000000000E+020
 20
-1.0000000000000000E+020
 30
-1.0000000000000000E+020
  9
$PLIMMIN
 10
0.0
 20
0.0
  9
$PLIMMAX
 10
12.0
 20
9.0
  9
$UNITMODE
 70
     0
  9
$VISRETAIN
 70
     0
  9
$PLINEGEN
 70
     0
  9
$PSLTSCALE
 70
     0
  0
ENDSEC
  0
SECTION
  2
TABLES
  0
TABLE
  2
VPORT
 70
     1
  0
VPORT
  2
*ACTIVE
 70
     0
 10
0.0
 20
0.0
 11
1.0
 21
1.0
 12
93.74713919532617
 22
66.313465060797697
 13
0.0
 23
0.0
 14
5.0
 24
5.0
 15
5.0
 25
5.0
 16
0.0
 26
0.0
 36
1.0
 17
0.0
 27
0.0
 37
0.0
 40
140.15365342376049
 41
2.304913294797688
 42
50.0
 43
0.0
 44
0.0
 50
0.0
 51
0.0
 71
     0
 72
   100
 73
     1
 74
     0
 75
     0
 76
     0
 77
     0
 78
     2
  0
ENDTAB
  0
TABLE
  2
LTYPE
 70
     3
  0
LTYPE
  2
CONTINUOUS
 70
     0
  3
Solid Line
 72
    65
 73
     0
 40
0.0
  0
LTYPE
  2
CENTER
 70
     0
  3
____ _ ____ _ ____ _ ____ _ ____ _ ____ _ ____
 72
    65
 73
     4
 40
2.0
 49
1.25
 49
-0.25
 49
0.25
 49
-0.25
  0
LTYPE
  2
PHANTOM2
 70
     0
  3
___ _ _ ___ _ _ ___ _ _ ___ _ _
 72
    65
 73
     6
 40
1.25
 49
0.625
 49
-0.125
 49
0.125
 49
-0.125
 49
0.125
 49
-0.125
  0
ENDTAB
  0
TABLE
  2
LAYER
 70
     2
  0
LAYER
  2
0
 70
     0
 62
     7
  6
CONTINUOUS
  0
LAYER
  2
1
 70
     0
 62
     1
  6
CENTER
  0
ENDTAB
  0
TABLE
  2
STYLE
 70
     2
  0
STYLE
  2
STANDARD
 70
     0
 40
0.0
 41
1.0
 50
0.0
 71
     0
 42
4.0
  3
ROMANS
  4
BIGFONT
  0
STYLE
  2
STANDARD1
 70
     0
 40
0.0
 41
1.0
 50
0.0
 71
     0
 42
3.0
  3
txt
  4

  0
ENDTAB
  0
TABLE
  2
VIEW
 70
     1
  0
VIEW
  2
ALL
 70
     0
 40
175.0
 10
142.98110500000001
 20
87.5
 41
285.96221100000002
 11
0.0
 21
0.0
 31
1.0
 12
0.0
 22
0.0
 32
0.0
 42
0.0
 43
0.0
 44
0.0
 50
0.0
 71
     0
  0
ENDTAB
  0
TABLE
  2
UCS
 70
     0
  0
ENDTAB
  0
TABLE
  2
APPID
 70
     3
  0
APPID
  2
ACAD
 70
     0
  0
APPID
  2
ACAD_MLEADERVER
 70
     0
  0
APPID
  2
ACAD_NAV_VCDISPLAY
 70
     0
  0
ENDTAB
  0
TABLE
  2
DIMSTYLE
 70
     1
  0
DIMSTYLE
  2
STANDARD
 70
     0
  3

  4

  5

  6

  7

 40
1.0
 41
0.18
 42
0.0625
 43
0.38
 44
0.18
 45
0.0
 46
0.0
 47
0.0
 48
0.0
140
0.18
141
0.09
142
0.0
143
25.399999999999999
144
1.0
145
0.0
146
1.0
147
0.09
 71
     0
 72
     0
 73
     1
 74
     1
 75
     0
 76
     0
 77
     0
 78
     0
170
     0
171
     2
172
     0
173
     0
174
     0
175
     0
176
     0
177
     0
178
     0
  0
ENDTAB
  0
ENDSEC
  0
SECTION
  2
BLOCKS
  0
BLOCK
  8
0
  2
$MODEL_SPACE
 70
     0
 10
0.0
 20
0.0
 30
0.0
  3
$MODEL_SPACE
  1

  0
ENDBLK
  5
A4
  8
0
  0
BLOCK
 67
     1
  8
0
  2
$PAPER_SPACE
 70
     0
 10
0.0
 20
0.0
 30
0.0
  3
$PAPER_SPACE
  1

  0
ENDBLK
  5
A2
 67
     1
  8
0
  0
ENDSEC
  0
SECTION
  2
ENTITIES
  0
LINE
  5
26
  8
0
 10
32.354953000000002
 20
64.895161999999999
 30
0.0
 11
32.354953000000002
 21
67.889122
 31
0.0
  0
LINE
  5
27
  8
0
  6
CONTINUOUS
 10
32.936754000000001
 20
63.782600000000002
 30
0.0
 11
33.646071999999997
 21
60.630076999999993
 31
0.0
  0
LINE
  5
28
  8
0
  6
CONTINUOUS
 10
31.898315
 20
63.839241999999999
 30
0.0
 11
32.513292
 21
61.106008000000003
 31
0.0
  0
LINE
  5
29
  8
0
  6
CONTINUOUS
 10
32.649440000000013
 20
64.453431000000009
 30
0.0
 11
32.354953000000002
 21
64.895161999999999
 31
0.0
  0
LINE
  5
2A
  8
0
  6
CONTINUOUS
 10
31.611001000000002
 20
64.510072999999991
 30
0.0
 11
31.354275000000001
 21
64.895161999999999
 31
0.0
  0
LINE
  5
2B
  8
0
  6
CONTINUOUS
 10
32.435312000000003
 20
60.090555999999999
 30
0.0
 11
33.046368000000001
 21
57.374749999999992
 31
0.0
  0
LINE
  5
2C
  8
0
  6
CONTINUOUS
 10
33.280704
 20
59.524305000000012
 30
0.0
 11
33.729758000000011
 21
57.528511999999999
 31
0.0
  0
LINE
  5
2D
  8
0
  6
CONTINUOUS
 10
32.041494
 20
61.403250999999997
 30
0.0
 11
30.746866000000001
 21
63.645612999999997
 31
0.0
  0
LINE
  5
2E
  8
0
  6
CONTINUOUS
 10
31.434864999999999
 20
61.053013999999997
 30
0.0
 11
30.140236999999999
 21
63.295375999999997
 31
0.0
  0
ARC
  5
2F
  8
0
  6
CONTINUOUS
 10
30.984211999999999
 20
63.343277999999998
 30
0.0
 40
2.001355999999999
 50
12.680383000000001
 51
33.690067999999997
  0
ARC
  5
30
  8
0
  6
CONTINUOUS
 10
29.945772000000002
 20
63.399919999999987
 30
0.0
 40
2.001355999999999
 50
12.680383000000001
 51
33.690067999999997
  0
ARC
  5
31
  8
0
  6
CONTINUOUS
 10
33.064427999999999
 20
60.47997500000001
 30
0.0
 40
0.6004070000000001
 50
309.78741200000002
 51
14.477512000000001
  0
ARC
  5
32
  8
0
  6
CONTINUOUS
 10
33.601396999999999
 20
62.303862000000002
 30
0.0
 40
2.5016949999999998
 50
210.0
 51
242.21739199999999
  0
ARC
  5
33
  8
0
  6
CONTINUOUS
 10
33.601396999999999
 20
62.303862000000002
 30
0.0
 40
1.8012199999999989
 50
210.0
 51
225.81187199999999
  0
ARC
  5
34
  8
0
  6
CONTINUOUS
 10
33.768839999999997
 20
59.634135999999991
 30
0.0
 40
0.500339
 50
129.78741199999999
 51
192.68038300000001
  0
ARC
  5
35
  8
0
  6
CONTINUOUS
 10
32.415665000000011
 20
61.084041999999997
 30
0.0
 40
0.100068
 50
225.81187199999999
 51
12.680383000000001
  0
LINE
  5
36
  8
0
  6
CONTINUOUS
 10
33.405147999999997
 20
57.147767000000002
 30
0.0
 11
33.502775
 21
57.169732999999987
 31
0.0
  0
ARC
  5
37
  8
0
  6
CONTINUOUS
 10
33.339249000000002
 20
57.440648000000003
 30
0.0
 40
0.300203
 50
192.68038300000001
 51
282.68038300000001
  0
ARC
  5
38
  8
0
  6
CONTINUOUS
 10
33.436875999999998
 20
57.462614000000002
 30
0.0
 40
0.300203
 50
282.68038300000001
 51
12.680383000000001
  0
LINE
  5
39
  8
0
  6
CONTINUOUS
 10
30.250119000000002
 20
63.705461
 30
0.0
 11
30.336780999999998
 21
63.755494999999989
 31
0.0
  0
ARC
  5
3A
  8
0
  6
CONTINUOUS
 10
30.486882000000001
 20
63.495511
 30
0.0
 40
0.300203
 50
30.0
 51
120.0
  0
ARC
  5
3B
  8
0
  6
CONTINUOUS
 10
30.400220999999998
 20
63.445476999999997
 30
0.0
 40
0.300203
 50
120.0
 51
210.0
  0
LINE
  5
3C
  8
0
 10
31.354275000000001
 20
64.895161999999999
 30
0.0
 11
31.354275000000001
 21
67.088580000000007
 31
0.0
  0
ARC
  5
3D
  8
0
 10
31.254207000000001
 20
67.088580000000007
 30
0.0
 40
0.100068
 50
360.0
 51
90.0
  0
ARC
  5
3E
  8
0
 10
25.250139999999998
 20
67.088580000000007
 30
0.0
 40
0.100068
 50
90.0
 51
180.0
  0
LINE
  5
3F
  8
0
 10
25.150072000000002
 20
64.895161999999999
 30
0.0
 11
25.150072000000002
 21
67.088580000000007
 31
0.0
  0
ARC
  5
40
  8
0
  6
CONTINUOUS
 10
26.104126000000001
 20
63.445476999999997
 30
0.0
 40
0.300203
 50
330.0
 51
60.0
  0
ARC
  5
41
  8
0
  6
CONTINUOUS
 10
26.017465000000001
 20
63.495511
 30
0.0
 40
0.300203
 50
60.0
 51
150.0
  0
LINE
  5
42
  8
0
  6
CONTINUOUS
 10
26.254228000000001
 20
63.705461
 30
0.0
 11
26.167566000000001
 21
63.755494999999989
 31
0.0
  0
ARC
  5
43
  8
0
  6
CONTINUOUS
 10
23.067471000000001
 20
57.462614000000002
 30
0.0
 40
0.300203
 50
167.31961699999999
 51
257.31961699999999
  0
ARC
  5
44
  8
0
  6
CONTINUOUS
 10
23.165098
 20
57.440648000000003
 30
0.0
 40
0.300203
 50
257.31961699999999
 51
347.31961699999999
  0
LINE
  5
45
  8
0
  6
CONTINUOUS
 10
23.099198999999999
 20
57.147767000000002
 30
0.0
 11
23.001571999999999
 21
57.169732999999987
 31
0.0
  0
ARC
  5
46
  8
0
  6
CONTINUOUS
 10
24.088682000000009
 20
61.084041999999997
 30
0.0
 40
0.100068
 50
167.31961699999999
 51
314.18812800000001
  0
ARC
  5
47
  8
0
  6
CONTINUOUS
 10
22.735506999999998
 20
59.634135999999991
 30
0.0
 40
0.500339
 50
347.31961699999999
 51
50.212587999999997
  0
ARC
  5
48
  8
0
  6
CONTINUOUS
 10
22.902950000000001
 20
62.303862000000002
 30
0.0
 40
1.8012199999999989
 50
314.18812800000001
 51
330.0
  0
ARC
  5
49
  8
0
  6
CONTINUOUS
 10
22.902950000000001
 20
62.303862000000002
 30
0.0
 40
2.5016949999999998
 50
297.78260799999998
 51
330.0
  0
ARC
  5
4A
  8
0
  6
CONTINUOUS
 10
23.439919
 20
60.47997500000001
 30
0.0
 40
0.6004070000000001
 50
165.52248800000001
 51
230.21258800000001
  0
ARC
  5
4B
  8
0
  6
CONTINUOUS
 10
26.558575000000001
 20
63.399919999999987
 30
0.0
 40
2.001355999999999
 50
146.309932
 51
167.31961699999999
  0
ARC
  5
4C
  8
0
  6
CONTINUOUS
 10
25.520135
 20
63.343277999999998
 30
0.0
 40
2.001355999999999
 50
146.309932
 51
167.31961699999999
  0
LINE
  5
4D
  8
0
  6
CONTINUOUS
 10
25.069481
 20
61.053013999999997
 30
0.0
 11
26.36411
 21
63.295375999999997
 31
0.0
  0
LINE
  5
4E
  8
0
  6
CONTINUOUS
 10
24.462852999999999
 20
61.403250999999997
 30
0.0
 11
25.757480999999999
 21
63.645612999999997
 31
0.0
  0
LINE
  5
4F
  8
0
  6
CONTINUOUS
 10
23.223642999999999
 20
59.524305000000012
 30
0.0
 11
22.774588999999999
 21
57.528511999999999
 31
0.0
  0
LINE
  5
50
  8
0
  6
CONTINUOUS
 10
24.069035
 20
60.090555999999999
 30
0.0
 11
23.457979000000002
 21
57.374749999999992
 31
0.0
  0
LINE
  5
51
  8
0
  6
CONTINUOUS
 10
24.893346000000001
 20
64.510072999999991
 30
0.0
 11
25.150072000000002
 21
64.895161999999999
 31
0.0
  0
LINE
  5
52
  8
0
  6
CONTINUOUS
 10
23.854906
 20
64.453431000000009
 30
0.0
 11
24.149394000000001
 21
64.895161999999999
 31
0.0
  0
LINE
  5
53
  8
0
  6
CONTINUOUS
 10
24.606031999999999
 20
63.839241999999999
 30
0.0
 11
23.991053999999998
 21
61.106008000000003
 31
0.0
  0
LINE
  5
54
  8
0
  6
CONTINUOUS
 10
23.567592999999999
 20
63.782600000000002
 30
0.0
 11
22.858274999999999
 21
60.630076999999993
 31
0.0
  0
LINE
  5
55
  8
0
 10
25.250139999999998
 20
67.188648000000001
 30
0.0
 11
31.254207000000001
 21
67.188648000000001
 31
0.0
  0
LINE
  5
56
  8
0
 10
24.149394000000001
 20
64.895161999999999
 30
0.0
 11
24.149394000000001
 21
67.889122
 31
0.0
  0
LINE
  5
57
  8
0
 10
24.449597000000001
 20
68.189325999999994
 30
0.0
 11
32.054749999999999
 21
68.189325999999994
 31
0.0
  0
ARC
  5
58
  8
0
 10
24.449597000000001
 20
67.889122
 30
0.0
 40
0.300203
 50
90.0
 51
180.0
  0
ARC
  5
59
  8
0
 10
32.054749999999999
 20
67.889122
 30
0.0
 40
0.300203
 50
0.0
 51
90.0
  0
LINE
  5
68
  8
0
 10
54.99165099999999
 20
68.189325999999994
 30
0.0
 11
154.99165099999999
 21
68.189325999999994
 31
0.0
  0
LINE
  5
69
  8
0
 10
54.99165099999999
 20
57.140444999999993
 30
0.0
 11
154.99165099999999
 21
57.140444999999993
 31
0.0
  0
LINE
  5
6A
  8
0
 10
54.99165099999999
 20
68.189325999999994
 30
0.0
 11
54.99165099999999
 21
57.140444999999993
 31
0.0
  0
LINE
  5
6B
  8
0
 10
54.99165099999999
 20
64.895161999999999
 30
0.0
 11
154.99165099999999
 21
64.895161999999999
 31
0.0
  0
LINE
  5
6C
  8
0
 10
54.99165099999999
 20
59.894481999999989
 30
0.0
 11
154.99165099999999
 21
59.894481999999989
 31
0.0
  0
LINE
  5
6D
  8
0
 10
154.99165099999999
 20
68.189325999999994
 30
0.0
 11
154.99165099999999
 21
57.140444999999993
 31
0.0
  0
LINE
  5
6E
  8
0
 10
54.99165099999999
 20
104.915616
 30
0.0
 11
54.99165099999999
 21
93.945802999999984
 31
0.0
  0
LINE
  5
6F
  8
0
 10
54.99165099999999
 20
93.945802999999984
 30
0.0
 11
154.99165099999999
 21
93.945802999999984
 31
0.0
  0
LINE
  5
70
  8
0
 10
54.99165099999999
 20
95.327930000000009
 30
0.0
 11
154.99165099999999
 21
95.327930000000009
 31
0.0
  0
LINE
  5
71
  8
0
 10
54.99165099999999
 20
103.533489
 30
0.0
 11
154.99165099999999
 21
103.533489
 31
0.0
  0
LINE
  5
72
  8
0
 10
54.99165099999999
 20
104.915616
 30
0.0
 11
154.99165099999999
 21
104.915616
 31
0.0
  0
LINE
  5
73
  8
0
 10
154.99165099999999
 20
104.915616
 30
0.0
 11
154.99165099999999
 21
93.945802999999984
 31
0.0
  0
LINE
  5
74
  8
1
 10
28.252172999999999
 20
70.689325999999994
 30
0.0
 11
28.252172999999999
 21
54.640444999999993
 31
0.0
  0
LINE
  5
75
  8
1
 10
52.49165099999999
 20
99.430709999999991
 30
0.0
 11
157.49165099999999
 21
99.430709999999991
 31
0.0
  0
TEXT
  5
159
  8
0
 62
     3
 10
0.0
 20
0.0
 30
0.0
 40
10.0
  1
GVC2000B
  7
STANDARD1
  0
ENDSEC
  0
EOF
