  0
SECTION
  2
HEADER
  9
$ACADVER
  1
AC1009
  9
$INSBASE
 10
0.0
 20
0.0
 30
0.0
  9
$EXTMIN
 10
0.0
 20
-2.960436562073669
 30
0.0
  9
$EXTMAX
 10
340.0
 20
443.0
 30
0.0
  9
$LIMMIN
 10
0.0
 20
0.0
  9
$LIMMAX
 10
375.0
 20
270.0
  9
$ORTHOMODE
 70
     1
  9
$REGENMODE
 70
     1
  9
$FILLMODE
 70
     1
  9
$QTEXTMODE
 70
     0
  9
$MIRRTEXT
 70
     0
  9
$DRAGMODE
 70
     2
  9
$LTSCALE
 40
6.0
  9
$OSMODE
 70
    37
  9
$ATTMODE
 70
     1
  9
$TEXTSIZE
 40
0.2
  9
$TRACEWID
 40
0.05
  9
$TEXTSTYLE
  7
STANDARD
  9
$CLAYER
  8
0
  9
$CELTYPE
  6
BYLAYER
  9
$CECOLOR
 62
   256
  9
$DIMSCALE
 40
1.0
  9
$DIMASZ
 40
3.0
  9
$DIMEXO
 40
1.0
  9
$DIMDLI
 40
6.0
  9
$DIMRND
 40
0.0
  9
$DIMDLE
 40
0.0
  9
$DIMEXE
 40
1.0
  9
$DIMTP
 40
495.0
  9
$DIMTM
 40
0.0
  9
$DIMTXT
 40
3.0
  9
$DIMCEN
 40
0.0
  9
$DIMTSZ
 40
0.0
  9
$DIMTOL
 70
     0
  9
$DIMLIM
 70
     0
  9
$DIMTIH
 70
     0
  9
$DIMTOH
 70
     0
  9
$DIMSE1
 70
     0
  9
$DIMSE2
 70
     0
  9
$DIMTAD
 70
     1
  9
$DIMZIN
 70
     0
  9
$DIMBLK
  1

  9
$DIMASO
 70
     0
  9
$DIMSHO
 70
     0
  9
$DIMPOST
  1

  9
$DIMAPOST
  1

  9
$DIMALT
 70
     0
  9
$DIMALTD
 70
     2
  9
$DIMALTF
 40
25.399999999999999
  9
$DIMLFAC
 40
1.0
  9
$DIMTOFL
 70
     1
  9
$DIMTVP
 40
0.0
  9
$DIMTIX
 70
     1
  9
$DIMSOXD
 70
     0
  9
$DIMSAH
 70
     0
  9
$DIMBLK1
  1

  9
$DIMBLK2
  1

  9
$DIMSTYLE
  2
STANDARD
  9
$DIMCLRD
 70
     0
  9
$DIMCLRE
 70
     0
  9
$DIMCLRT
 70
     4
  9
$DIMTFAC
 40
1.0
  9
$DIMGAP
 40
1.0
  9
$LUNITS
 70
     2
  9
$LUPREC
 70
     4
  9
$SKETCHINC
 40
0.1
  9
$FILLETRAD
 40
2.0
  9
$AUNITS
 70
     0
  9
$AUPREC
 70
     0
  9
$MENU
  1
C:\R13\WIN\SUPPORT\ACAD-I
  9
$ELEVATION
 40
0.0
  9
$PELEVATION
 40
0.0
  9
$THICKNESS
 40
0.0
  9
$LIMCHECK
 70
     0
  9
$BLIPMODE
 70
     0
  9
$CHAMFERA
 40
0.0
  9
$CHAMFERB
 40
0.0
  9
$SKPOLY
 70
     0
  9
$TDCREATE
 40
2450834.7095229169
  9
$TDUPDATE
 40
2458820.724499132
  9
$TDINDWG
 40
0.0975400116
  9
$TDUSRTIMER
 40
2456548.3178329752
  9
$USRTIMER
 70
     1
  9
$ANGBASE
 50
0.0
  9
$ANGDIR
 70
     0
  9
$PDMODE
 70
     0
  9
$PDSIZE
 40
0.0
  9
$PLINEWID
 40
0.0
  9
$COORDS
 70
     1
  9
$SPLFRAME
 70
     0
  9
$SPLINETYPE
 70
     6
  9
$SPLINESEGS
 70
     8
  9
$ATTDIA
 70
     0
  9
$ATTREQ
 70
     1
  9
$HANDLING
 70
     1
  9
$HANDSEED
  5
142E
  9
$SURFTAB1
 70
     6
  9
$SURFTAB2
 70
     6
  9
$SURFTYPE
 70
     6
  9
$SURFU
 70
     6
  9
$SURFV
 70
     6
  9
$UCSNAME
  2

  9
$UCSORG
 10
0.0
 20
0.0
 30
0.0
  9
$UCSXDIR
 10
1.0
 20
0.0
 30
0.0
  9
$UCSYDIR
 10
0.0
 20
1.0
 30
0.0
  9
$PUCSNAME
  2

  9
$PUCSORG
 10
0.0
 20
0.0
 30
0.0
  9
$PUCSXDIR
 10
1.0
 20
0.0
 30
0.0
  9
$PUCSYDIR
 10
0.0
 20
1.0
 30
0.0
  9
$USERI1
 70
     4
  9
$USERI2
 70
     1
  9
$USERI3
 70
     0
  9
$USERI4
 70
     0
  9
$USERI5
 70
     0
  9
$USERR1
 40
1.0
  9
$USERR2
 40
3.0
  9
$USERR3
 40
3.0
  9
$USERR4
 40
3.0
  9
$USERR5
 40
10.0
  9
$WORLDVIEW
 70
     1
  9
$SHADEDGE
 70
     3
  9
$SHADEDIF
 70
    70
  9
$TILEMODE
 70
     1
  9
$MAXACTVP
 70
    16
  9
$PLIMCHECK
 70
     0
  9
$PEXTMIN
 10
1.0000000000000000E+020
 20
1.0000000000000000E+020
 30
1.0000000000000000E+020
  9
$PEXTMAX
 10
-1.0000000000000000E+020
 20
-1.0000000000000000E+020
 30
-1.0000000000000000E+020
  9
$PLIMMIN
 10
0.0
 20
0.0
  9
$PLIMMAX
 10
12.0
 20
9.0
  9
$UNITMODE
 70
     0
  9
$VISRETAIN
 70
     0
  9
$PLINEGEN
 70
     0
  9
$PSLTSCALE
 70
     0
  0
ENDSEC
  0
SECTION
  2
TABLES
  0
TABLE
  2
VPORT
 70
     1
  0
VPORT
  2
*ACTIVE
 70
     0
 10
0.0
 20
0.0
 11
1.0
 21
1.0
 12
381.17420412542401
 22
220.02032425586751
 13
0.0
 23
0.0
 14
10.0
 24
10.0
 15
10.0
 25
10.0
 16
0.0
 26
0.0
 36
1.0
 17
0.0
 27
0.0
 37
0.0
 40
449.86720403469388
 41
2.415644171779141
 42
50.0
 43
0.0
 44
0.0
 50
0.0
 51
0.0
 71
    16
 72
   100
 73
     1
 74
     0
 75
     0
 76
     0
 77
     0
 78
     0
  0
ENDTAB
  0
TABLE
  2
LTYPE
 70
     3
  0
LTYPE
  2
CONTINUOUS
 70
     0
  3
Solid Line
 72
    65
 73
     0
 40
0.0
  0
LTYPE
  2
PHANTOM2
 70
     0
  3
___ _ _ ___ _ _ ___ _ _ ___ _ _
 72
    65
 73
     6
 40
1.25
 49
0.625
 49
-0.125
 49
0.125
 49
-0.125
 49
0.125
 49
-0.125
  0
LTYPE
  2
CENTER
 70
     0
  3
____ _ ____ _ ____ _ ____ _ ____ _ ____ _ ____
 72
    65
 73
     4
 40
2.0
 49
1.25
 49
-0.25
 49
0.25
 49
-0.25
  0
ENDTAB
  0
TABLE
  2
LAYER
 70
     3
  0
LAYER
  2
0
 70
     0
 62
     7
  6
CONTINUOUS
  0
LAYER
  2
1
 70
     0
 62
     1
  6
CENTER
  0
LAYER
  2
3
 70
     0
 62
     3
  6
CONTINUOUS
  0
ENDTAB
  0
TABLE
  2
STYLE
 70
     2
  0
STYLE
  2
STANDARD
 70
     0
 40
0.0
 41
1.0
 50
0.0
 71
     0
 42
0.2
  3
SIMPLEX
  4
BIGFONT
  0
STYLE
  2
STANDARD1
 70
     0
 40
0.0
 41
1.0
 50
0.0
 71
     0
 42
3.0
  3
txt
  4

  0
ENDTAB
  0
TABLE
  2
VIEW
 70
     0
  0
ENDTAB
  0
TABLE
  2
UCS
 70
     0
  0
ENDTAB
  0
TABLE
  2
APPID
 70
    29
  0
APPID
  2
ACAD
 70
     0
  0
APPID
  2
ACADANNOTATIVE
 70
     0
  0
APPID
  2
GENIUS_GENOREF_13
 70
     0
  0
APPID
  2
GENIUS_GENOENT_13
 70
     0
  0
APPID
  2
GENIUS_GENBH_13
 70
     0
  0
APPID
  2
GENIUS_GENOBJ_13
 70
     0
  0
APPID
  2
GENIUS_GENODEF_13
 70
     0
  0
APPID
  2
GENIUS_GENOLIS_13
 70
     0
  0
APPID
  2
GENIUS_GENOBJ-NBEHI-BHF_13
 70
     0
  0
APPID
  2
GENIUS_GENOBJ-NBEHI-BHB_13
 70
     0
  0
APPID
  2
GENIUS_GENOBJ-F-PART_13
 70
     0
  0
APPID
  2
GENIUS_GEFSTDP_13
 70
     0
  0
APPID
  2
GENIUS_GENOBJ-N-RSSYM_13
 70
     0
  0
APPID
  2
GENIUS_GENSYMENT_13
 70
     0
  0
APPID
  2
GENIUS_GENOBJ-N-TIT_13
 70
     0
  0
APPID
  2
GENIUS_GENTITLE_13
 70
     0
  0
APPID
  2
GENIUS_GENZVEED_13
 70
     0
  0
APPID
  2
GENIUS_GENOBJ-N-LEADER_13
 70
     0
  0
APPID
  2
GENIUS_GENOBJ-N-FIL_13
 70
     0
  0
APPID
  2
GENIUS_GENOBJ-N-SEC_13
 70
     0
  0
APPID
  2
GENIUS_GENOBJ-N-CRS_13
 70
     0
  0
APPID
  2
GENIUS_GENOBJ-N-ZOO_13
 70
     0
  0
APPID
  2
GENIUS_GENZOO_13
 70
     0
  0
APPID
  2
GENIUS_GENOBJ-F-TOL_13
 70
     0
  0
APPID
  2
GENIUS_GENFIL_13
 70
     0
  0
APPID
  2
GENIUS_GENOBJ-N-CHA_13
 70
     0
  0
APPID
  2
ACAD_MLEADERVER
 70
     0
  0
APPID
  2
ACAD_EXEMPT_FROM_CAD_STANDARDS
 70
     0
  0
APPID
  2
ACAD_NAV_VCDISPLAY
 70
     0
  0
ENDTAB
  0
TABLE
  2
DIMSTYLE
 70
     1
  0
DIMSTYLE
  2
STANDARD
 70
     0
  3

  4

  5

  6

  7

 40
1.0
 41
0.18
 42
0.0625
 43
0.38
 44
0.18
 45
0.0
 46
0.0
 47
0.0
 48
0.0
140
0.18
141
0.09
142
0.0
143
25.399999999999999
144
1.0
145
0.0
146
1.0
147
0.09
 71
     0
 72
     0
 73
     1
 74
     1
 75
     0
 76
     0
 77
     0
 78
     0
170
     0
171
     2
172
     0
173
     0
174
     0
175
     0
176
     0
177
     0
178
     0
  0
ENDTAB
  0
ENDSEC
  0
SECTION
  2
BLOCKS
  0
BLOCK
  8
0
  2
$MODEL_SPACE
 70
     0
 10
0.0
 20
0.0
 30
0.0
  3
$MODEL_SPACE
  1

  0
ENDBLK
  5
E4B
  8
0
  0
BLOCK
 67
     1
  8
0
  2
$PAPER_SPACE
 70
     0
 10
0.0
 20
0.0
 30
0.0
  3
$PAPER_SPACE
  1

  0
ENDBLK
  5
E47
 67
     1
  8
0
  0
ENDSEC
  0
SECTION
  2
ENTITIES
  0
TEXT
  5
ECB
  8
0
 62
     3
 10
0.0
 20
0.0
 30
0.0
 40
10.0
  1
HD-AF08020X140
  7
STANDARD1
  0
LINE
  5
12DF
  8
0
 10
91.533500000000004
 20
298.0
 30
0.0
 11
90.0
 21
296.4665
 31
0.0
  0
LINE
  5
12E0
  8
0
 10
110.0
 20
296.4665
 30
0.0
 11
108.4665
 21
298.0
 31
0.0
  0
LINE
  5
12E1
  8
0
 10
108.4665
 20
298.0
 30
0.0
 11
91.533500000000004
 21
298.0
 31
0.0
  0
LINE
  5
12E2
  8
0
 10
90.0
 20
296.4665
 30
0.0
 11
90.0
 21
219.0
 31
0.0
  0
LINE
  5
12E3
  8
0
 10
110.0
 20
219.0
 30
0.0
 11
110.0
 21
296.4665
 31
0.0
  0
LINE
  5
12E4
  8
0
 10
110.0
 20
296.4665
 30
0.0
 11
90.0
 21
296.4665
 31
0.0
  0
LINE
  5
12E5
  8
0
 10
108.5
 20
146.5
 30
0.0
 11
108.5
 21
153.5
 31
0.0
  0
LINE
  5
12E6
  8
0
 10
108.5
 20
153.5
 30
0.0
 11
110.0
 21
153.5
 31
0.0
  0
LINE
  5
12E7
  8
0
 10
108.5
 20
146.5
 30
0.0
 11
110.0
 21
146.5
 31
0.0
  0
LINE
  5
12E8
  8
0
 10
91.5
 20
153.5
 30
0.0
 11
91.5
 21
146.5
 31
0.0
  0
LINE
  5
12E9
  8
0
 10
90.0
 20
158.0
 30
0.0
 11
90.0
 21
153.5
 31
0.0
  0
LINE
  5
12EA
  8
0
 10
90.0
 20
146.5
 30
0.0
 11
90.0
 21
144.0
 31
0.0
  0
LINE
  5
12EB
  8
0
 10
110.0
 20
144.0
 30
0.0
 11
110.0
 21
146.5
 31
0.0
  0
LINE
  5
12EC
  8
0
 10
110.0
 20
153.5
 30
0.0
 11
110.0
 21
158.0
 31
0.0
  0
LINE
  5
12ED
  8
0
 10
90.0
 20
153.5
 30
0.0
 11
91.5
 21
153.5
 31
0.0
  0
LINE
  5
12EE
  8
0
 10
90.0
 20
146.5
 30
0.0
 11
91.5
 21
146.5
 31
0.0
  0
ARC
  5
12EF
  8
0
 10
83.0
 20
144.0
 30
0.0
 40
7.0000000000000044
 50
303.97447595029178
 51
0.0
  0
ARC
  5
12F0
  8
0
 10
117.0
 20
144.0
 30
0.0
 40
7.0
 50
180.0
 51
236.02552404970831
  0
ARC
  5
12F1
  8
0
 10
87.749999999999986
 20
136.95106391006411
 30
0.0
 40
1.4999999999999929
 50
123.97447595029109
 51
180.0
  0
ARC
  5
12F2
  8
0
 10
112.25
 20
136.95106391006411
 30
0.0
 40
1.5000000000000051
 50
0.0
 51
56.025524049708217
  0
LINE
  5
12F3
  8
0
 10
113.0
 20
132.0
 30
0.0
 11
87.0
 21
132.0
 31
0.0
  0
ARC
  5
12F4
  8
0
 10
87.0
 20
132.75
 30
0.0
 40
0.7499999999999965
 50
180.0
 51
270.0
  0
ARC
  5
12F5
  8
0
 10
113.0
 20
132.75
 30
0.0
 40
0.7499999999999965
 50
270.0
 51
0.0
  0
LINE
  5
12F6
  8
0
 10
86.25
 20
136.95106391006411
 30
0.0
 11
86.25
 21
132.75
 31
0.0
  0
LINE
  5
12F7
  8
0
 10
113.75
 20
132.75
 30
0.0
 11
113.75
 21
136.95106391006411
 31
0.0
  0
ARC
  5
12F8
  8
0
 10
76.411938662624323
 20
135.11718373555661
 30
0.0
 40
11.99999999999998
 50
317.43454952182771
 51
344.94386299222589
  0
ARC
  5
12F9
  8
0
 10
123.58806133737561
 20
135.11718373555661
 30
0.0
 40
11.999999999999989
 50
195.0561370077742
 51
222.56545047817229
  0
LINE
  5
12FA
  8
0
 10
113.5
 20
219.0
 30
0.0
 11
86.5
 21
219.0
 31
0.0
  0
ARC
  5
12FB
  8
0
 10
86.5
 20
217.5
 30
0.0
 40
1.5
 50
90.0
 51
180.0000000000008
  0
ARC
  5
12FC
  8
0
 10
113.5
 20
217.5
 30
0.0
 40
1.5000000000000011
 50
359.9999999999992
 51
90.0
  0
LINE
  5
12FD
  8
0
 10
113.0
 20
179.0
 30
0.0
 11
113.0
 21
167.0
 31
0.0
  0
LINE
  5
12FE
  8
0
 10
87.0
 20
179.0
 30
0.0
 11
85.0
 21
179.0
 31
0.0
  0
LINE
  5
12FF
  8
0
 10
87.0
 20
167.0
 30
0.0
 11
87.0
 21
179.0
 31
0.0
  0
LINE
  5
1300
  8
0
 10
87.0
 20
167.0
 30
0.0
 11
85.0
 21
167.0
 31
0.0
  0
LINE
  5
1301
  8
0
 10
85.0
 20
217.5
 30
0.0
 11
85.0
 21
179.0
 31
0.0
  0
LINE
  5
1302
  8
0
 10
85.0
 20
167.0
 30
0.0
 11
85.0
 21
160.5
 31
0.0
  0
LINE
  5
1303
  8
0
 10
115.0
 20
160.5
 30
0.0
 11
115.0
 21
167.0
 31
0.0
  0
LINE
  5
1304
  8
0
 10
115.0
 20
179.0
 30
0.0
 11
115.0
 21
217.5
 31
0.0
  0
LINE
  5
1305
  8
0
 10
115.0
 20
167.0
 30
0.0
 11
113.0
 21
167.0
 31
0.0
  0
LINE
  5
1306
  8
0
 10
115.0
 20
179.0
 30
0.0
 11
113.0
 21
179.0
 31
0.0
  0
LINE
  5
1307
  8
0
 10
113.5
 20
159.0
 30
0.0
 11
86.5
 21
159.0
 31
0.0
  0
ARC
  5
1308
  8
0
 10
86.5
 20
160.5
 30
0.0
 40
1.5000000000000031
 50
180.0
 51
270.0
  0
ARC
  5
1309
  8
0
 10
113.5
 20
160.5
 30
0.0
 40
1.5
 50
270.0
 51
0.0
  0
LINE
  5
130A
  8
0
 10
85.249999999999986
 20
127.0
 30
0.0
 11
61.895357264425961
 21
117.7506365403667
 31
0.0
  0
LINE
  5
130B
  8
0
 10
138.104642735574
 20
117.7506365403667
 30
0.0
 11
114.75
 21
127.0
 31
0.0
  0
LINE
  5
130C
  8
0
 10
114.75
 20
127.0
 30
0.0
 11
85.249999999999986
 21
127.0
 31
0.0
  0
ARC
  5
130D
  8
0
 10
63.000000000000043
 20
114.9614136330422
 30
0.0
 40
3.000000000000044
 50
111.6055272426388
 51
179.9999999999992
  0
ARC
  5
130E
  8
0
 10
136.99999999999989
 20
114.9614136330422
 30
0.0
 40
3.0000000000000422
 50
0.0000000000008142
 51
68.394472757361186
  0
LINE
  5
130F
  8
0
 10
60.0
 20
114.9614136330422
 30
0.0
 11
60.0
 21
112.0
 31
0.0
  0
LINE
  5
1310
  8
0
 10
140.0
 20
112.0
 30
0.0
 11
140.0
 21
114.9614136330422
 31
0.0
  0
LINE
  5
1311
  8
0
 10
138.5
 20
105.0
 30
0.0
 11
140.0
 21
112.0
 31
0.0
  0
LINE
  5
1312
  8
0
 10
60.0
 20
112.0
 30
0.0
 11
61.5
 21
105.0
 31
0.0
  0
LINE
  5
1313
  8
0
 10
138.5
 20
105.0
 30
0.0
 11
61.5
 21
105.0
 31
0.0
  0
LINE
  5
1314
  8
0
 10
140.0
 20
112.0
 30
0.0
 11
60.0
 21
112.0
 31
0.0
  0
LINE
  5
1315
  8
3
 10
108.4665
 20
298.0
 30
0.0
 11
108.4665
 21
219.0
 31
0.0
  0
LINE
  5
1316
  8
3
 10
91.533500000000004
 20
298.0
 30
0.0
 11
91.533500000000004
 21
219.0
 31
0.0
  0
LINE
  5
1317
  8
1
 10
100.0
 20
303.0
 30
0.0
 11
100.0
 21
100.0
 31
0.0
  0
LINE
  5
1318
  8
1
 10
300.0
 20
303.0
 30
0.0
 11
300.0
 21
100.0
 31
0.0
  0
LINE
  5
1319
  8
0
 10
308.4665
 20
298.0
 30
0.0
 11
291.5335
 21
298.0
 31
0.0
  0
LINE
  5
131A
  8
0
 10
291.5335
 20
298.0
 30
0.0
 11
290.0
 21
296.4665
 31
0.0
  0
LINE
  5
131B
  8
0
 10
310.0
 20
296.4665
 30
0.0
 11
308.4665
 21
298.0
 31
0.0
  0
LINE
  5
131C
  8
0
 10
310.0
 20
296.4665
 30
0.0
 11
290.0
 21
296.4665
 31
0.0
  0
LINE
  5
131D
  8
0
 10
290.0
 20
296.4665
 30
0.0
 11
290.0
 21
219.0
 31
0.0
  0
LINE
  5
131E
  8
0
 10
310.0
 20
219.0
 30
0.0
 11
310.0
 21
296.4665
 31
0.0
  0
LINE
  5
131F
  8
0
 10
294.7321731235736
 20
146.5
 30
0.0
 11
305.2678268764264
 21
146.5
 31
0.0
  0
LINE
  5
1320
  8
0
 10
294.7321731235736
 20
146.5
 30
0.0
 11
294.7321731235736
 21
153.5
 31
0.0
  0
LINE
  5
1321
  8
0
 10
294.7321731235736
 20
153.5
 30
0.0
 11
305.2678268764264
 21
153.5
 31
0.0
  0
LINE
  5
1322
  8
0
 10
305.2678268764264
 20
153.5
 30
0.0
 11
305.2678268764264
 21
146.5
 31
0.0
  0
LINE
  5
1323
  8
0
 10
290.0
 20
158.0
 30
0.0
 11
290.0
 21
144.0
 31
0.0
  0
LINE
  5
1324
  8
0
 10
310.0
 20
144.0
 30
0.0
 11
310.0
 21
158.0
 31
0.0
  0
ARC
  5
1325
  8
0
 10
283.0
 20
144.0
 30
0.0
 40
7.0000000000000044
 50
303.97447595029178
 51
0.0
  0
ARC
  5
1326
  8
0
 10
317.0
 20
144.0
 30
0.0
 40
7.0
 50
180.0
 51
236.02552404970831
  0
LINE
  5
1327
  8
0
 10
313.0
 20
132.0
 30
0.0
 11
287.00000000106138
 21
132.0
 31
0.0
  0
ARC
  5
1328
  8
0
 10
287.0
 20
132.75
 30
0.0
 40
0.7499999999999965
 50
180.0
 51
270.0
  0
ARC
  5
1329
  8
0
 10
313.0
 20
132.75
 30
0.0
 40
0.7499999999999965
 50
270.0
 51
0.0
  0
ARC
  5
132A
  8
0
 10
287.75
 20
136.95106391006411
 30
0.0
 40
1.4999999999999929
 50
123.9744759502917
 51
180.0
  0
ARC
  5
132B
  8
0
 10
312.25
 20
136.95106391006411
 30
0.0
 40
1.5000000000000051
 50
0.0
 51
56.025524049708217
  0
LINE
  5
132C
  8
0
 10
286.25
 20
136.95106391006411
 30
0.0
 11
286.25
 21
132.75
 31
0.0
  0
LINE
  5
132D
  8
0
 10
313.75
 20
132.75
 30
0.0
 11
313.75
 21
136.95106391006411
 31
0.0
  0
ARC
  5
132E
  8
0
 10
276.41193866262432
 20
135.11718373555661
 30
0.0
 40
11.99999999999998
 50
317.43454952182708
 51
344.94386299222663
  0
ARC
  5
132F
  8
0
 10
323.58806133737568
 20
135.11718373555661
 30
0.0
 40
11.999999999999989
 50
195.0561370077734
 51
222.56545047817289
  0
LINE
  5
1330
  8
0
 10
313.5
 20
219.0
 30
0.0
 11
286.50000000291982
 21
219.0
 31
0.0
  0
ARC
  5
1331
  8
0
 10
286.5
 20
217.5
 30
0.0
 40
1.5
 50
90.0
 51
180.0000000000008
  0
ARC
  5
1332
  8
0
 10
313.5
 20
217.5
 30
0.0
 40
1.5000000000000011
 50
359.9999999999992
 51
90.0
  0
LINE
  5
1333
  8
0
 10
307.48331477354787
 20
167.0
 30
0.0
 11
307.48331477354787
 21
179.0
 31
0.0
  0
LINE
  5
1334
  8
0
 10
307.48331477354787
 20
167.0
 30
0.0
 11
292.51668522645213
 21
167.0
 31
0.0
  0
LINE
  5
1335
  8
0
 10
292.51668522645213
 20
179.0
 30
0.0
 11
292.51668522645213
 21
167.0
 31
0.0
  0
LINE
  5
1336
  8
0
 10
307.48331477354787
 20
179.0
 30
0.0
 11
292.51668522645213
 21
179.0
 31
0.0
  0
LINE
  5
1337
  8
0
 10
285.0
 20
217.5
 30
0.0
 11
285.0
 21
160.5
 31
0.0
  0
LINE
  5
1338
  8
0
 10
315.0
 20
160.5
 30
0.0
 11
315.0
 21
217.5
 31
0.0
  0
LINE
  5
1339
  8
0
 10
313.5
 20
159.0
 30
0.0
 11
286.50000000291982
 21
159.0
 31
0.0
  0
ARC
  5
133A
  8
0
 10
286.5
 20
160.5
 30
0.0
 40
1.5000000000000031
 50
180.0
 51
270.0
  0
ARC
  5
133B
  8
0
 10
313.5
 20
160.5
 30
0.0
 40
1.5
 50
270.0
 51
0.0
  0
LINE
  5
133C
  8
0
 10
314.75
 20
127.0
 30
0.0
 11
285.25
 21
127.0
 31
0.0
  0
LINE
  5
133D
  8
0
 10
285.25
 20
127.0
 30
0.0
 11
261.89535726442602
 21
117.7506365403667
 31
0.0
  0
LINE
  5
133E
  8
0
 10
338.10464273557409
 20
117.7506365403667
 30
0.0
 11
314.75
 21
127.0
 31
0.0
  0
ARC
  5
133F
  8
0
 10
263.00000000000011
 20
114.9614136330422
 30
0.0
 40
3.000000000000044
 50
111.6055272426388
 51
179.9999999999992
  0
ARC
  5
1340
  8
0
 10
337.0
 20
114.9614136330422
 30
0.0
 40
3.0000000000000422
 50
0.0000000000008142
 51
68.394472757361186
  0
LINE
  5
1341
  8
0
 10
260.0
 20
114.9614136330422
 30
0.0
 11
260.0
 21
112.0
 31
0.0
  0
LINE
  5
1342
  8
0
 10
340.0
 20
112.0
 30
0.0
 11
340.0
 21
114.9614136330422
 31
0.0
  0
LINE
  5
1343
  8
0
 10
338.5
 20
105.0
 30
0.0
 11
261.5
 21
105.0
 31
0.0
  0
LINE
  5
1344
  8
0
 10
340.0
 20
112.0
 30
0.0
 11
260.0
 21
112.0
 31
0.0
  0
LINE
  5
1345
  8
0
 10
338.5
 20
105.0
 30
0.0
 11
340.0
 21
112.0
 31
0.0
  0
LINE
  5
1346
  8
0
 10
260.0
 20
112.0
 30
0.0
 11
261.5
 21
105.0
 31
0.0
  0
LINE
  5
1347
  8
3
 10
291.5335
 20
298.0
 30
0.0
 11
291.5335
 21
219.0
 31
0.0
  0
LINE
  5
1348
  8
3
 10
308.4665
 20
298.0
 30
0.0
 11
308.4665
 21
219.0
 31
0.0
  0
CIRCLE
  5
1349
  8
0
 10
100.0
 20
398.0
 30
0.0
 40
10.0
  0
LINE
  5
134A
  8
1
 10
99.999999999999986
 20
353.0
 30
0.0
 11
99.999999999999986
 21
443.0
 31
0.0
  0
CIRCLE
  5
134B
  8
0
 10
99.999999999999986
 20
398.0
 30
0.0
 40
40.000000000000021
  0
CIRCLE
  5
134C
  8
0
 10
100.0
 20
398.0
 30
0.0
 40
15.0
  0
LINE
  5
134D
  8
1
 10
145.0
 20
398.0
 30
0.0
 11
54.999999999999943
 21
398.0
 31
0.0
  0
CIRCLE
  5
134E
  8
3
 10
99.999999999999986
 20
398.0
 30
0.0
 40
8.4664999999999697
  0
LINE
  5
134F
  8
3
 10
292.51668522645213
 20
167.0
 30
0.0
 11
307.48331477354787
 21
179.0
 31
0.0
  0
LINE
  5
1350
  8
3
 10
292.51668522645213
 20
179.0
 30
0.0
 11
307.48331477354787
 21
167.0
 31
0.0
  0
LINE
  5
1351
  8
3
 10
294.7321731235736
 20
146.5
 30
0.0
 11
305.2678268764264
 21
153.5
 31
0.0
  0
LINE
  5
1352
  8
3
 10
294.7321731235736
 20
153.5
 30
0.0
 11
305.2678268764264
 21
146.5
 31
0.0
  0
LINE
  5
1359
  8
0
 10
111.5
 20
158.0
 30
0.0
 11
88.499999999999986
 21
158.0
 31
0.0
  0
ARC
  5
135A
  8
0
 10
88.499999999999986
 20
159.5
 30
0.0
 40
1.5000000000000031
 50
199.47122063449069
 51
270.0
  0
ARC
  5
135B
  8
0
 10
111.5
 20
159.5
 30
0.0
 40
1.5000000000000031
 50
270.0
 51
340.52877936550908
  0
LINE
  5
135C
  8
0
 10
311.50000000145991
 20
158.0
 30
0.0
 11
288.50000000145991
 21
158.0
 31
0.0
  0
ARC
  5
135D
  8
0
 10
288.50000000145991
 20
159.5
 30
0.0
 40
1.5000000000000031
 50
199.47122063449089
 51
270.0
  0
ARC
  5
135E
  8
0
 10
311.50000000145991
 20
159.5
 30
0.0
 40
1.5000000000000031
 50
270.0
 51
340.52877936550891
  0
ENDSEC
  0
EOF
