  0
SECTION
  2
HEADER
  9
$ACADVER
  1
AC1009
  9
$INSBASE
 10
0.0
 20
0.0
 30
0.0
  9
$EXTMIN
 10
0.0
 20
-2.960436562073669
 30
0.0
  9
$EXTMAX
 10
350.0
 20
466.00000038054651
 30
0.0
  9
$LIMMIN
 10
0.0
 20
0.0
  9
$LIMMAX
 10
375.0
 20
270.0
  9
$ORTHOMODE
 70
     1
  9
$REGENMODE
 70
     1
  9
$FILLMODE
 70
     1
  9
$QTEXTMODE
 70
     0
  9
$MIRRTEXT
 70
     0
  9
$DRAGMODE
 70
     2
  9
$LTSCALE
 40
6.0
  9
$OSMODE
 70
    37
  9
$ATTMODE
 70
     1
  9
$TEXTSIZE
 40
0.2
  9
$TRACEWID
 40
0.05
  9
$TEXTSTYLE
  7
STANDARD
  9
$CLAYER
  8
0
  9
$CELTYPE
  6
BYLAYER
  9
$CECOLOR
 62
   256
  9
$DIMSCALE
 40
1.0
  9
$DIMASZ
 40
3.0
  9
$DIMEXO
 40
1.0
  9
$DIMDLI
 40
6.0
  9
$DIMRND
 40
0.0
  9
$DIMDLE
 40
0.0
  9
$DIMEXE
 40
1.0
  9
$DIMTP
 40
495.0
  9
$DIMTM
 40
0.0
  9
$DIMTXT
 40
3.0
  9
$DIMCEN
 40
0.0
  9
$DIMTSZ
 40
0.0
  9
$DIMTOL
 70
     0
  9
$DIMLIM
 70
     0
  9
$DIMTIH
 70
     0
  9
$DIMTOH
 70
     0
  9
$DIMSE1
 70
     0
  9
$DIMSE2
 70
     0
  9
$DIMTAD
 70
     1
  9
$DIMZIN
 70
     0
  9
$DIMBLK
  1

  9
$DIMASO
 70
     0
  9
$DIMSHO
 70
     0
  9
$DIMPOST
  1

  9
$DIMAPOST
  1

  9
$DIMALT
 70
     0
  9
$DIMALTD
 70
     2
  9
$DIMALTF
 40
25.399999999999999
  9
$DIMLFAC
 40
1.0
  9
$DIMTOFL
 70
     1
  9
$DIMTVP
 40
0.0
  9
$DIMTIX
 70
     1
  9
$DIMSOXD
 70
     0
  9
$DIMSAH
 70
     0
  9
$DIMBLK1
  1

  9
$DIMBLK2
  1

  9
$DIMSTYLE
  2
STANDARD
  9
$DIMCLRD
 70
     0
  9
$DIMCLRE
 70
     0
  9
$DIMCLRT
 70
     4
  9
$DIMTFAC
 40
1.0
  9
$DIMGAP
 40
1.0
  9
$LUNITS
 70
     2
  9
$LUPREC
 70
     4
  9
$SKETCHINC
 40
0.1
  9
$FILLETRAD
 40
2.0
  9
$AUNITS
 70
     0
  9
$AUPREC
 70
     0
  9
$MENU
  1
C:\R13\WIN\SUPPORT\ACAD-I
  9
$ELEVATION
 40
0.0
  9
$PELEVATION
 40
0.0
  9
$THICKNESS
 40
0.0
  9
$LIMCHECK
 70
     0
  9
$BLIPMODE
 70
     0
  9
$CHAMFERA
 40
0.0
  9
$CHAMFERB
 40
0.0
  9
$SKPOLY
 70
     0
  9
$TDCREATE
 40
2450834.7095229169
  9
$TDUPDATE
 40
2458820.7245256938
  9
$TDINDWG
 40
0.1239177894
  9
$TDUSRTIMER
 40
2456548.3442107518
  9
$USRTIMER
 70
     1
  9
$ANGBASE
 50
0.0
  9
$ANGDIR
 70
     0
  9
$PDMODE
 70
     0
  9
$PDSIZE
 40
0.0
  9
$PLINEWID
 40
0.0
  9
$COORDS
 70
     1
  9
$SPLFRAME
 70
     0
  9
$SPLINETYPE
 70
     6
  9
$SPLINESEGS
 70
     8
  9
$ATTDIA
 70
     0
  9
$ATTREQ
 70
     1
  9
$HANDLING
 70
     1
  9
$HANDSEED
  5
1AE6
  9
$SURFTAB1
 70
     6
  9
$SURFTAB2
 70
     6
  9
$SURFTYPE
 70
     6
  9
$SURFU
 70
     6
  9
$SURFV
 70
     6
  9
$UCSNAME
  2

  9
$UCSORG
 10
0.0
 20
0.0
 30
0.0
  9
$UCSXDIR
 10
1.0
 20
0.0
 30
0.0
  9
$UCSYDIR
 10
0.0
 20
1.0
 30
0.0
  9
$PUCSNAME
  2

  9
$PUCSORG
 10
0.0
 20
0.0
 30
0.0
  9
$PUCSXDIR
 10
1.0
 20
0.0
 30
0.0
  9
$PUCSYDIR
 10
0.0
 20
1.0
 30
0.0
  9
$USERI1
 70
     4
  9
$USERI2
 70
     1
  9
$USERI3
 70
     0
  9
$USERI4
 70
     0
  9
$USERI5
 70
     0
  9
$USERR1
 40
1.0
  9
$USERR2
 40
3.0
  9
$USERR3
 40
3.0
  9
$USERR4
 40
3.0
  9
$USERR5
 40
10.0
  9
$WORLDVIEW
 70
     1
  9
$SHADEDGE
 70
     3
  9
$SHADEDIF
 70
    70
  9
$TILEMODE
 70
     1
  9
$MAXACTVP
 70
    16
  9
$PLIMCHECK
 70
     0
  9
$PEXTMIN
 10
1.0000000000000000E+020
 20
1.0000000000000000E+020
 30
1.0000000000000000E+020
  9
$PEXTMAX
 10
-1.0000000000000000E+020
 20
-1.0000000000000000E+020
 30
-1.0000000000000000E+020
  9
$PLIMMIN
 10
0.0
 20
0.0
  9
$PLIMMAX
 10
12.0
 20
9.0
  9
$UNITMODE
 70
     0
  9
$VISRETAIN
 70
     0
  9
$PLINEGEN
 70
     0
  9
$PSLTSCALE
 70
     0
  0
ENDSEC
  0
SECTION
  2
TABLES
  0
TABLE
  2
VPORT
 70
     1
  0
VPORT
  2
*ACTIVE
 70
     0
 10
0.0
 20
0.0
 11
1.0
 21
1.0
 12
397.0686355069717
 22
231.5114796349242
 13
0.0
 23
0.0
 14
10.0
 24
10.0
 15
10.0
 25
10.0
 16
0.0
 26
0.0
 36
1.0
 17
0.0
 27
0.0
 37
0.0
 40
473.08562507583952
 41
2.415644171779141
 42
50.0
 43
0.0
 44
0.0
 50
0.0
 51
0.0
 71
    16
 72
   100
 73
     1
 74
     0
 75
     0
 76
     0
 77
     0
 78
     0
  0
ENDTAB
  0
TABLE
  2
LTYPE
 70
     3
  0
LTYPE
  2
CONTINUOUS
 70
     0
  3
Solid Line
 72
    65
 73
     0
 40
0.0
  0
LTYPE
  2
PHANTOM2
 70
     0
  3
___ _ _ ___ _ _ ___ _ _ ___ _ _
 72
    65
 73
     6
 40
1.25
 49
0.625
 49
-0.125
 49
0.125
 49
-0.125
 49
0.125
 49
-0.125
  0
LTYPE
  2
CENTER
 70
     0
  3
____ _ ____ _ ____ _ ____ _ ____ _ ____ _ ____
 72
    65
 73
     4
 40
2.0
 49
1.25
 49
-0.25
 49
0.25
 49
-0.25
  0
ENDTAB
  0
TABLE
  2
LAYER
 70
     3
  0
LAYER
  2
0
 70
     0
 62
     7
  6
CONTINUOUS
  0
LAYER
  2
1
 70
     0
 62
     1
  6
CENTER
  0
LAYER
  2
3
 70
     0
 62
     3
  6
CONTINUOUS
  0
ENDTAB
  0
TABLE
  2
STYLE
 70
     2
  0
STYLE
  2
STANDARD
 70
     0
 40
0.0
 41
1.0
 50
0.0
 71
     0
 42
0.2
  3
SIMPLEX
  4
BIGFONT
  0
STYLE
  2
STANDARD1
 70
     0
 40
0.0
 41
1.0
 50
0.0
 71
     0
 42
3.0
  3
txt
  4

  0
ENDTAB
  0
TABLE
  2
VIEW
 70
     0
  0
ENDTAB
  0
TABLE
  2
UCS
 70
     0
  0
ENDTAB
  0
TABLE
  2
APPID
 70
    29
  0
APPID
  2
ACAD
 70
     0
  0
APPID
  2
ACADANNOTATIVE
 70
     0
  0
APPID
  2
GENIUS_GENOREF_13
 70
     0
  0
APPID
  2
GENIUS_GENOENT_13
 70
     0
  0
APPID
  2
GENIUS_GENBH_13
 70
     0
  0
APPID
  2
GENIUS_GENOBJ_13
 70
     0
  0
APPID
  2
GENIUS_GENODEF_13
 70
     0
  0
APPID
  2
GENIUS_GENOLIS_13
 70
     0
  0
APPID
  2
GENIUS_GENOBJ-NBEHI-BHF_13
 70
     0
  0
APPID
  2
GENIUS_GENOBJ-NBEHI-BHB_13
 70
     0
  0
APPID
  2
GENIUS_GENOBJ-F-PART_13
 70
     0
  0
APPID
  2
GENIUS_GEFSTDP_13
 70
     0
  0
APPID
  2
GENIUS_GENOBJ-N-RSSYM_13
 70
     0
  0
APPID
  2
GENIUS_GENSYMENT_13
 70
     0
  0
APPID
  2
GENIUS_GENOBJ-N-TIT_13
 70
     0
  0
APPID
  2
GENIUS_GENTITLE_13
 70
     0
  0
APPID
  2
GENIUS_GENZVEED_13
 70
     0
  0
APPID
  2
GENIUS_GENOBJ-N-LEADER_13
 70
     0
  0
APPID
  2
GENIUS_GENOBJ-N-FIL_13
 70
     0
  0
APPID
  2
GENIUS_GENOBJ-N-SEC_13
 70
     0
  0
APPID
  2
GENIUS_GENOBJ-N-CRS_13
 70
     0
  0
APPID
  2
GENIUS_GENOBJ-N-ZOO_13
 70
     0
  0
APPID
  2
GENIUS_GENZOO_13
 70
     0
  0
APPID
  2
GENIUS_GENOBJ-F-TOL_13
 70
     0
  0
APPID
  2
GENIUS_GENFIL_13
 70
     0
  0
APPID
  2
GENIUS_GENOBJ-N-CHA_13
 70
     0
  0
APPID
  2
ACAD_MLEADERVER
 70
     0
  0
APPID
  2
ACAD_EXEMPT_FROM_CAD_STANDARDS
 70
     0
  0
APPID
  2
ACAD_NAV_VCDISPLAY
 70
     0
  0
ENDTAB
  0
TABLE
  2
DIMSTYLE
 70
     1
  0
DIMSTYLE
  2
STANDARD
 70
     0
  3

  4

  5

  6

  7

 40
1.0
 41
0.18
 42
0.0625
 43
0.38
 44
0.18
 45
0.0
 46
0.0
 47
0.0
 48
0.0
140
0.18
141
0.09
142
0.0
143
25.399999999999999
144
1.0
145
0.0
146
1.0
147
0.09
 71
     0
 72
     0
 73
     1
 74
     1
 75
     0
 76
     0
 77
     0
 78
     0
170
     0
171
     2
172
     0
173
     0
174
     0
175
     0
176
     0
177
     0
178
     0
  0
ENDTAB
  0
ENDSEC
  0
SECTION
  2
BLOCKS
  0
BLOCK
  8
0
  2
$MODEL_SPACE
 70
     0
 10
0.0
 20
0.0
 30
0.0
  3
$MODEL_SPACE
  1

  0
ENDBLK
  5
E4B
  8
0
  0
BLOCK
 67
     1
  8
0
  2
$PAPER_SPACE
 70
     0
 10
0.0
 20
0.0
 30
0.0
  3
$PAPER_SPACE
  1

  0
ENDBLK
  5
E47
 67
     1
  8
0
  0
ENDSEC
  0
SECTION
  2
ENTITIES
  0
TEXT
  5
ECB
  8
0
 62
     3
 10
0.0
 20
0.0
 30
0.0
 40
10.0
  1
HD-AF10020X140
  7
STANDARD1
  0
LINE
  5
198E
  8
0
 10
91.533500000000004
 20
301.0
 30
0.0
 11
90.0
 21
299.4665
 31
0.0
  0
LINE
  5
198F
  8
0
 10
110.0
 20
299.4665
 30
0.0
 11
108.4665
 21
301.0
 31
0.0
  0
LINE
  5
1990
  8
0
 10
108.4665
 20
301.0
 30
0.0
 11
91.533500000000004
 21
301.0
 31
0.0
  0
LINE
  5
1991
  8
0
 10
90.0
 20
299.4665
 30
0.0
 11
90.0
 21
222.0
 31
0.0
  0
LINE
  5
1992
  8
0
 10
110.0
 20
222.0
 30
0.0
 11
110.0
 21
299.4665
 31
0.0
  0
LINE
  5
1993
  8
0
 10
110.0
 20
299.4665
 30
0.0
 11
90.0
 21
299.4665
 31
0.0
  0
LINE
  5
1994
  8
0
 10
108.5
 20
151.5
 30
0.0
 11
108.5
 21
158.5
 31
0.0
  0
LINE
  5
1995
  8
0
 10
108.5
 20
158.5
 30
0.0
 11
110.0
 21
158.5
 31
0.0
  0
LINE
  5
1996
  8
0
 10
108.5
 20
151.5
 30
0.0
 11
110.0
 21
151.5
 31
0.0
  0
LINE
  5
1997
  8
0
 10
91.5
 20
158.5
 30
0.0
 11
91.5
 21
151.5
 31
0.0
  0
LINE
  5
1998
  8
0
 10
90.0
 20
161.0
 30
0.0
 11
90.0
 21
158.5
 31
0.0
  0
LINE
  5
1999
  8
0
 10
90.0
 20
151.5
 30
0.0
 11
90.0
 21
148.80000000000001
 31
0.0
  0
LINE
  5
199A
  8
0
 10
110.0
 20
148.80000000000001
 30
0.0
 11
110.0
 21
151.5
 31
0.0
  0
LINE
  5
199B
  8
0
 10
110.0
 20
158.5
 30
0.0
 11
110.0
 21
161.0
 31
0.0
  0
LINE
  5
199C
  8
0
 10
90.0
 20
158.5
 30
0.0
 11
91.5
 21
158.5
 31
0.0
  0
LINE
  5
199D
  8
0
 10
90.0
 20
151.5
 30
0.0
 11
91.5
 21
151.5
 31
0.0
  0
ARC
  5
199E
  8
0
 10
82.999999999999972
 20
148.80000000000001
 30
0.0
 40
7.0000000000000258
 50
303.97447595029178
 51
0.0
  0
ARC
  5
199F
  8
0
 10
117.0
 20
148.7999999999999
 30
0.0
 40
6.9999999999999822
 50
179.9999999999992
 51
236.02552404970831
  0
ARC
  5
19A0
  8
0
 10
87.749999999999986
 20
141.75106391006409
 30
0.0
 40
1.4999999999999969
 50
123.97447595029109
 51
180.0
  0
ARC
  5
19A1
  8
0
 10
112.25
 20
141.75106391006409
 30
0.0
 40
1.5000000000000051
 50
0.0
 51
56.025524049708217
  0
LINE
  5
19A2
  8
0
 10
113.0
 20
135.69999999999999
 30
0.0
 11
87.0
 21
135.69999999999999
 31
0.0
  0
ARC
  5
19A3
  8
0
 10
87.0
 20
136.44999999999999
 30
0.0
 40
0.7499999999999983
 50
179.9999999999992
 51
270.0
  0
ARC
  5
19A4
  8
0
 10
113.0
 20
136.44999999999999
 30
0.0
 40
0.7499999999999965
 50
270.0
 51
0.0000000000008142
  0
LINE
  5
19A5
  8
0
 10
86.25
 20
141.75106391006409
 30
0.0
 11
86.25
 21
136.44999999999999
 31
0.0
  0
LINE
  5
19A6
  8
0
 10
113.75
 20
136.44999999999999
 30
0.0
 11
113.75
 21
141.75106391006409
 31
0.0
  0
ARC
  5
19A7
  8
0
 10
76.940863829504266
 20
140.35784361721579
 30
0.0
 40
12.00000000000022
 50
313.82261587482492
 51
337.16033814983871
  0
ARC
  5
19A8
  8
0
 10
123.05913617049571
 20
140.35784361721579
 30
0.0
 40
12.000000000000179
 50
202.83966185016129
 51
226.17738412517519
  0
LINE
  5
19A9
  8
0
 10
113.5
 20
222.0
 30
0.0
 11
86.5
 21
222.0
 31
0.0
  0
ARC
  5
19AA
  8
0
 10
86.5
 20
220.5
 30
0.0
 40
1.5
 50
90.0
 51
180.0000000000008
  0
ARC
  5
19AB
  8
0
 10
113.5
 20
220.5
 30
0.0
 40
1.499999999999998
 50
359.9999999999992
 51
90.0
  0
LINE
  5
19AC
  8
0
 10
113.0
 20
181.0
 30
0.0
 11
113.0
 21
171.0
 31
0.0
  0
LINE
  5
19AD
  8
0
 10
87.0
 20
181.0
 30
0.0
 11
85.0
 21
181.0
 31
0.0
  0
LINE
  5
19AE
  8
0
 10
87.0
 20
171.0
 30
0.0
 11
87.0
 21
181.0
 31
0.0
  0
LINE
  5
19AF
  8
0
 10
87.0
 20
171.0
 30
0.0
 11
85.0
 21
171.0
 31
0.0
  0
LINE
  5
19B0
  8
0
 10
85.0
 20
220.5
 30
0.0
 11
85.0
 21
181.0
 31
0.0
  0
LINE
  5
19B1
  8
0
 10
85.0
 20
171.0
 30
0.0
 11
85.0
 21
163.5
 31
0.0
  0
LINE
  5
19B2
  8
0
 10
115.0
 20
163.5
 30
0.0
 11
115.0
 21
171.0
 31
0.0
  0
LINE
  5
19B3
  8
0
 10
115.0
 20
181.0
 30
0.0
 11
115.0
 21
220.5
 31
0.0
  0
LINE
  5
19B4
  8
0
 10
115.0
 20
171.0
 30
0.0
 11
113.0
 21
171.0
 31
0.0
  0
LINE
  5
19B5
  8
0
 10
115.0
 20
181.0
 30
0.0
 11
113.0
 21
181.0
 31
0.0
  0
LINE
  5
19B6
  8
0
 10
113.5
 20
162.0
 30
0.0
 11
86.5
 21
162.0
 31
0.0
  0
ARC
  5
19B7
  8
0
 10
86.5
 20
163.5
 30
0.0
 40
1.5000000000000031
 50
180.0
 51
270.0
  0
ARC
  5
19B8
  8
0
 10
113.5
 20
163.5
 30
0.0
 40
1.5
 50
270.0
 51
0.0
  0
LINE
  5
19B9
  8
0
 10
85.249999999999986
 20
131.69999999999999
 30
0.0
 11
51.879025965818627
 21
118.2569409564432
 31
0.0
  0
LINE
  5
19BA
  8
0
 10
148.1209740341813
 20
118.2569409564432
 30
0.0
 11
114.75
 21
131.69999999999999
 31
0.0
  0
LINE
  5
19BB
  8
0
 10
114.75
 20
131.69999999999999
 30
0.0
 11
85.249999999999986
 21
131.69999999999999
 31
0.0
  0
ARC
  5
19BC
  8
0
 10
52.999999999999972
 20
115.4742413293381
 30
0.0
 40
2.999999999999964
 50
111.9413940099531
 51
180.0
  0
ARC
  5
19BD
  8
0
 10
147.0
 20
115.4742413293381
 30
0.0
 40
2.999999999999964
 50
359.9999999999992
 51
68.058605990046843
  0
LINE
  5
19BE
  8
0
 10
50.0
 20
115.4742413293381
 30
0.0
 11
50.0
 21
112.8
 31
0.0
  0
LINE
  5
19BF
  8
0
 10
150.0
 20
112.8
 30
0.0
 11
150.0
 21
115.4742413293381
 31
0.0
  0
LINE
  5
19C0
  8
0
 10
148.0
 20
105.0
 30
0.0
 11
150.0
 21
112.8
 31
0.0
  0
LINE
  5
19C1
  8
0
 10
50.0
 20
112.8
 30
0.0
 11
52.0
 21
105.0
 31
0.0
  0
LINE
  5
19C2
  8
0
 10
148.0
 20
105.0
 30
0.0
 11
52.0
 21
105.0
 31
0.0
  0
LINE
  5
19C3
  8
0
 10
150.0
 20
112.8
 30
0.0
 11
50.0
 21
112.8
 31
0.0
  0
LINE
  5
19C4
  8
3
 10
108.4665
 20
301.0
 30
0.0
 11
108.4665
 21
222.0
 31
0.0
  0
LINE
  5
19C5
  8
3
 10
91.533500000000004
 20
301.0
 30
0.0
 11
91.533500000000004
 21
222.0
 31
0.0
  0
LINE
  5
19C6
  8
1
 10
100.0
 20
306.0
 30
0.0
 11
100.0
 21
100.0
 31
0.0
  0
LINE
  5
19C7
  8
0
 10
308.4665
 20
301.0
 30
0.0
 11
291.5335
 21
301.0
 31
0.0
  0
LINE
  5
19C8
  8
0
 10
291.5335
 20
301.0
 30
0.0
 11
290.0
 21
299.4665
 31
0.0
  0
LINE
  5
19C9
  8
0
 10
310.0
 20
299.4665
 30
0.0
 11
308.4665
 21
301.0
 31
0.0
  0
LINE
  5
19CA
  8
0
 10
310.0
 20
299.4665
 30
0.0
 11
290.0
 21
299.4665
 31
0.0
  0
LINE
  5
19CB
  8
0
 10
290.0
 20
299.4665
 30
0.0
 11
290.0
 21
222.0
 31
0.0
  0
LINE
  5
19CC
  8
0
 10
310.0
 20
222.0
 30
0.0
 11
310.0
 21
299.4665
 31
0.0
  0
LINE
  5
19CD
  8
0
 10
294.7321731235736
 20
151.5
 30
0.0
 11
305.26782687642628
 21
151.5
 31
0.0
  0
LINE
  5
19CE
  8
0
 10
294.7321731235736
 20
151.5
 30
0.0
 11
294.7321731235736
 21
158.5
 31
0.0
  0
LINE
  5
19CF
  8
0
 10
294.7321731235736
 20
158.5
 30
0.0
 11
305.26782687642628
 21
158.5
 31
0.0
  0
LINE
  5
19D0
  8
0
 10
305.26782687642628
 20
158.5
 30
0.0
 11
305.26782687642628
 21
151.5
 31
0.0
  0
LINE
  5
19D1
  8
0
 10
290.0
 20
161.0
 30
0.0
 11
290.0
 21
148.80000000000001
 31
0.0
  0
LINE
  5
19D2
  8
0
 10
310.0
 20
148.80000000000001
 30
0.0
 11
310.0
 21
161.0
 31
0.0
  0
ARC
  5
19D3
  8
0
 10
283.0
 20
148.80000000000001
 30
0.0
 40
7.0000000000000258
 50
303.97447595029178
 51
0.0
  0
ARC
  5
19D4
  8
0
 10
316.99999999999989
 20
148.7999999999999
 30
0.0
 40
6.9999999999999822
 50
179.9999999999992
 51
236.02552404970831
  0
LINE
  5
19D5
  8
0
 10
313.0
 20
135.69999999999999
 30
0.0
 11
287.00005576528048
 21
135.69999999999999
 31
0.0
  0
ARC
  5
19D6
  8
0
 10
287.0
 20
136.44999999999999
 30
0.0
 40
0.7499999999999983
 50
179.9999999999992
 51
270.0
  0
ARC
  5
19D7
  8
0
 10
313.0
 20
136.44999999999999
 30
0.0
 40
0.7499999999999965
 50
270.0
 51
0.0000000000008142
  0
ARC
  5
19D8
  8
0
 10
287.75
 20
141.75106391006409
 30
0.0
 40
1.4999999999999969
 50
123.9744759502917
 51
180.0
  0
ARC
  5
19D9
  8
0
 10
312.25
 20
141.75106391006409
 30
0.0
 40
1.5000000000000051
 50
0.0
 51
56.025524049708217
  0
LINE
  5
19DA
  8
0
 10
286.25
 20
141.75106391006409
 30
0.0
 11
286.25
 21
136.44999999999999
 31
0.0
  0
LINE
  5
19DB
  8
0
 10
313.75
 20
136.44999999999999
 30
0.0
 11
313.75
 21
141.75106391006409
 31
0.0
  0
ARC
  5
19DC
  8
0
 10
276.94086382950422
 20
140.35784361721579
 30
0.0
 40
12.00000000000022
 50
313.82261587482492
 51
337.16033814983763
  0
ARC
  5
19DD
  8
0
 10
323.05913617049572
 20
140.35784361721579
 30
0.0
 40
12.000000000000179
 50
202.83966185016129
 51
226.17738412517519
  0
LINE
  5
19DE
  8
0
 10
313.5
 20
222.0
 30
0.0
 11
286.50000000143712
 21
222.0
 31
0.0
  0
ARC
  5
19DF
  8
0
 10
286.5
 20
220.5
 30
0.0
 40
1.5
 50
90.0
 51
180.0000000000008
  0
ARC
  5
19E0
  8
0
 10
313.5
 20
220.5
 30
0.0
 40
1.499999999999998
 50
359.9999999999992
 51
90.0
  0
LINE
  5
19E1
  8
0
 10
307.48331477354782
 20
171.0
 30
0.0
 11
307.48331477354782
 21
181.0
 31
0.0
  0
LINE
  5
19E2
  8
0
 10
307.48331477354782
 20
171.0
 30
0.0
 11
292.51668522645213
 21
171.0
 31
0.0
  0
LINE
  5
19E3
  8
0
 10
292.51668522645213
 20
181.0
 30
0.0
 11
292.51668522645213
 21
171.0
 31
0.0
  0
LINE
  5
19E4
  8
0
 10
307.48331477354782
 20
181.0
 30
0.0
 11
292.51668522645213
 21
181.0
 31
0.0
  0
LINE
  5
19E5
  8
0
 10
285.0
 20
220.5
 30
0.0
 11
285.0
 21
163.5
 31
0.0
  0
LINE
  5
19E6
  8
0
 10
315.0
 20
163.5
 30
0.0
 11
315.0
 21
220.5
 31
0.0
  0
LINE
  5
19E7
  8
0
 10
313.5
 20
162.0
 30
0.0
 11
286.50000000143712
 21
162.0
 31
0.0
  0
ARC
  5
19E8
  8
0
 10
286.5
 20
163.5
 30
0.0
 40
1.5000000000000031
 50
180.0
 51
270.0
  0
ARC
  5
19E9
  8
0
 10
313.5
 20
163.5
 30
0.0
 40
1.5
 50
270.0
 51
0.0
  0
LINE
  5
19EA
  8
0
 10
314.75
 20
131.69999999999999
 30
0.0
 11
285.25
 21
131.69999999999999
 31
0.0
  0
LINE
  5
19EB
  8
0
 10
285.25
 20
131.69999999999999
 30
0.0
 11
251.87902596581861
 21
118.2569409564432
 31
0.0
  0
LINE
  5
19EC
  8
0
 10
348.12097403418142
 20
118.2569409564432
 30
0.0
 11
314.75
 21
131.69999999999999
 31
0.0
  0
ARC
  5
19ED
  8
0
 10
252.99999999999989
 20
115.4742413293381
 30
0.0
 40
2.999999999999964
 50
111.9413940099531
 51
180.0
  0
ARC
  5
19EE
  8
0
 10
347.0
 20
115.4742413293381
 30
0.0
 40
2.999999999999964
 50
359.9999999999992
 51
68.058605990046843
  0
LINE
  5
19EF
  8
0
 10
250.0
 20
115.4742413293381
 30
0.0
 11
250.0
 21
112.8
 31
0.0
  0
LINE
  5
19F0
  8
0
 10
350.0
 20
112.8
 30
0.0
 11
350.0
 21
115.4742413293381
 31
0.0
  0
LINE
  5
19F1
  8
0
 10
348.0
 20
105.0
 30
0.0
 11
252.0
 21
105.0
 31
0.0
  0
LINE
  5
19F2
  8
0
 10
350.0
 20
112.8
 30
0.0
 11
250.0
 21
112.8
 31
0.0
  0
LINE
  5
19F3
  8
0
 10
348.0
 20
105.0
 30
0.0
 11
350.0
 21
112.8
 31
0.0
  0
LINE
  5
19F4
  8
0
 10
250.0
 20
112.8
 30
0.0
 11
252.0
 21
105.0
 31
0.0
  0
LINE
  5
19F5
  8
3
 10
291.5335
 20
301.0
 30
0.0
 11
291.5335
 21
222.0
 31
0.0
  0
LINE
  5
19F6
  8
3
 10
308.4665
 20
301.0
 30
0.0
 11
308.4665
 21
222.0
 31
0.0
  0
LINE
  5
19F7
  8
1
 10
300.0
 20
306.0
 30
0.0
 11
300.0
 21
100.0
 31
0.0
  0
CIRCLE
  5
19F8
  8
0
 10
99.999999999999943
 20
411.00000038054662
 30
0.0
 40
10.0
  0
LINE
  5
19F9
  8
1
 10
100.0
 20
356.0
 30
0.0
 11
100.0
 21
466.00000038054651
 31
0.0
  0
CIRCLE
  5
19FA
  8
0
 10
100.0
 20
411.00000038054651
 30
0.0
 40
49.99999999999995
  0
CIRCLE
  5
19FB
  8
0
 10
99.999999999999943
 20
411.00000038054662
 30
0.0
 40
15.0
  0
CIRCLE
  5
19FC
  8
3
 10
99.999999999999943
 20
411.00000038054662
 30
0.0
 40
8.4665000000000035
  0
LINE
  5
19FD
  8
3
 10
292.51668522645213
 20
171.0
 30
0.0
 11
307.48331477354782
 21
181.0
 31
0.0
  0
LINE
  5
19FE
  8
3
 10
292.51668522645213
 20
181.0
 30
0.0
 11
307.48331477354782
 21
171.0
 31
0.0
  0
LINE
  5
19FF
  8
3
 10
294.7321731235736
 20
151.5
 30
0.0
 11
305.26782687642628
 21
158.5
 31
0.0
  0
LINE
  5
1A00
  8
3
 10
294.7321731235736
 20
158.5
 30
0.0
 11
305.26782687642628
 21
151.5
 31
0.0
  0
LINE
  5
1A01
  8
1
 10
155.0000001902732
 20
411.00000019027323
 30
0.0
 11
44.99999980972671
 21
411.00000019027323
 31
0.0
  0
LINE
  5
1A02
  8
0
 10
111.5
 20
161.0
 30
0.0
 11
88.499999999999986
 21
161.0
 31
0.0
  0
ARC
  5
1A03
  8
0
 10
88.499999999999986
 20
162.5
 30
0.0
 40
1.5000000000000031
 50
199.47122063449069
 51
270.0
  0
ARC
  5
1A04
  8
0
 10
111.5
 20
162.5
 30
0.0
 40
1.5000000000000031
 50
270.0
 51
340.52877936550908
  0
LINE
  5
1A05
  8
0
 10
311.5
 20
161.0
 30
0.0
 11
288.5
 21
161.0
 31
0.0
  0
ARC
  5
1A06
  8
0
 10
288.5
 20
162.5
 30
0.0
 40
1.5000000000000031
 50
199.47122063449089
 51
270.0
  0
ARC
  5
1A07
  8
0
 10
311.5
 20
162.5
 30
0.0
 40
1.5000000000000031
 50
270.0
 51
340.52877936550891
  0
ENDSEC
  0
EOF
