  0
SECTION
  2
HEADER
  9
$ACADVER
  1
AC1009
  9
$INSBASE
 10
0.0
 20
0.0
 30
0.0
  9
$EXTMIN
 10
0.0
 20
-2.960436562073669
 30
0.0
  9
$EXTMAX
 10
360.0
 20
539.99999999999977
 30
0.0
  9
$LIMMIN
 10
0.0
 20
0.0
  9
$LIMMAX
 10
375.0
 20
270.0
  9
$ORTHOMODE
 70
     1
  9
$REGENMODE
 70
     1
  9
$FILLMODE
 70
     1
  9
$QTEXTMODE
 70
     0
  9
$MIRRTEXT
 70
     0
  9
$DRAGMODE
 70
     2
  9
$LTSCALE
 40
6.0
  9
$OSMODE
 70
    37
  9
$ATTMODE
 70
     1
  9
$TEXTSIZE
 40
0.2
  9
$TRACEWID
 40
0.05
  9
$TEXTSTYLE
  7
STANDARD
  9
$CLAYER
  8
0
  9
$CELTYPE
  6
BYLAYER
  9
$CECOLOR
 62
   256
  9
$DIMSCALE
 40
1.0
  9
$DIMASZ
 40
3.0
  9
$DIMEXO
 40
1.0
  9
$DIMDLI
 40
6.0
  9
$DIMRND
 40
0.0
  9
$DIMDLE
 40
0.0
  9
$DIMEXE
 40
1.0
  9
$DIMTP
 40
495.0
  9
$DIMTM
 40
0.0
  9
$DIMTXT
 40
3.0
  9
$DIMCEN
 40
0.0
  9
$DIMTSZ
 40
0.0
  9
$DIMTOL
 70
     0
  9
$DIMLIM
 70
     0
  9
$DIMTIH
 70
     0
  9
$DIMTOH
 70
     0
  9
$DIMSE1
 70
     0
  9
$DIMSE2
 70
     0
  9
$DIMTAD
 70
     1
  9
$DIMZIN
 70
     0
  9
$DIMBLK
  1

  9
$DIMASO
 70
     0
  9
$DIMSHO
 70
     0
  9
$DIMPOST
  1

  9
$DIMAPOST
  1

  9
$DIMALT
 70
     0
  9
$DIMALTD
 70
     2
  9
$DIMALTF
 40
25.399999999999999
  9
$DIMLFAC
 40
1.0
  9
$DIMTOFL
 70
     1
  9
$DIMTVP
 40
0.0
  9
$DIMTIX
 70
     1
  9
$DIMSOXD
 70
     0
  9
$DIMSAH
 70
     0
  9
$DIMBLK1
  1

  9
$DIMBLK2
  1

  9
$DIMSTYLE
  2
STANDARD
  9
$DIMCLRD
 70
     0
  9
$DIMCLRE
 70
     0
  9
$DIMCLRT
 70
     4
  9
$DIMTFAC
 40
1.0
  9
$DIMGAP
 40
1.0
  9
$LUNITS
 70
     2
  9
$LUPREC
 70
     4
  9
$SKETCHINC
 40
0.1
  9
$FILLETRAD
 40
2.0
  9
$AUNITS
 70
     0
  9
$AUPREC
 70
     0
  9
$MENU
  1
C:\R13\WIN\SUPPORT\ACAD-I
  9
$ELEVATION
 40
0.0
  9
$PELEVATION
 40
0.0
  9
$THICKNESS
 40
0.0
  9
$LIMCHECK
 70
     0
  9
$BLIPMODE
 70
     0
  9
$CHAMFERA
 40
0.0
  9
$CHAMFERB
 40
0.0
  9
$SKPOLY
 70
     0
  9
$TDCREATE
 40
2450834.7095229169
  9
$TDUPDATE
 40
2458820.72454566
  9
$TDINDWG
 40
0.1496607755
  9
$TDUSRTIMER
 40
2456548.369953739
  9
$USRTIMER
 70
     1
  9
$ANGBASE
 50
0.0
  9
$ANGDIR
 70
     0
  9
$PDMODE
 70
     0
  9
$PDSIZE
 40
0.0
  9
$PLINEWID
 40
0.0
  9
$COORDS
 70
     1
  9
$SPLFRAME
 70
     0
  9
$SPLINETYPE
 70
     6
  9
$SPLINESEGS
 70
     8
  9
$ATTDIA
 70
     0
  9
$ATTREQ
 70
     1
  9
$HANDLING
 70
     1
  9
$HANDSEED
  5
1E9B
  9
$SURFTAB1
 70
     6
  9
$SURFTAB2
 70
     6
  9
$SURFTYPE
 70
     6
  9
$SURFU
 70
     6
  9
$SURFV
 70
     6
  9
$UCSNAME
  2

  9
$UCSORG
 10
0.0
 20
0.0
 30
0.0
  9
$UCSXDIR
 10
1.0
 20
0.0
 30
0.0
  9
$UCSYDIR
 10
0.0
 20
1.0
 30
0.0
  9
$PUCSNAME
  2

  9
$PUCSORG
 10
0.0
 20
0.0
 30
0.0
  9
$PUCSXDIR
 10
1.0
 20
0.0
 30
0.0
  9
$PUCSYDIR
 10
0.0
 20
1.0
 30
0.0
  9
$USERI1
 70
     4
  9
$USERI2
 70
     1
  9
$USERI3
 70
     0
  9
$USERI4
 70
     0
  9
$USERI5
 70
     0
  9
$USERR1
 40
1.0
  9
$USERR2
 40
3.0
  9
$USERR3
 40
3.0
  9
$USERR4
 40
3.0
  9
$USERR5
 40
10.0
  9
$WORLDVIEW
 70
     1
  9
$SHADEDGE
 70
     3
  9
$SHADEDIF
 70
    70
  9
$TILEMODE
 70
     1
  9
$MAXACTVP
 70
    16
  9
$PLIMCHECK
 70
     0
  9
$PEXTMIN
 10
1.0000000000000000E+020
 20
1.0000000000000000E+020
 30
1.0000000000000000E+020
  9
$PEXTMAX
 10
-1.0000000000000000E+020
 20
-1.0000000000000000E+020
 30
-1.0000000000000000E+020
  9
$PLIMMIN
 10
0.0
 20
0.0
  9
$PLIMMAX
 10
12.0
 20
9.0
  9
$UNITMODE
 70
     0
  9
$VISRETAIN
 70
     0
  9
$PLINEGEN
 70
     0
  9
$PSLTSCALE
 70
     0
  0
ENDSEC
  0
SECTION
  2
TABLES
  0
TABLE
  2
VPORT
 70
     1
  0
VPORT
  2
*ACTIVE
 70
     0
 10
0.0
 20
0.0
 11
1.0
 21
1.0
 12
437.11701299199359
 22
268.51633386557
 13
0.0
 23
0.0
 14
10.0
 24
10.0
 15
10.0
 25
10.0
 16
0.0
 26
0.0
 36
1.0
 17
0.0
 27
0.0
 37
0.0
 40
547.73474840912786
 41
2.415644171779141
 42
50.0
 43
0.0
 44
0.0
 50
0.0
 51
0.0
 71
    16
 72
   100
 73
     1
 74
     0
 75
     0
 76
     0
 77
     0
 78
     0
  0
ENDTAB
  0
TABLE
  2
LTYPE
 70
     3
  0
LTYPE
  2
CONTINUOUS
 70
     0
  3
Solid Line
 72
    65
 73
     0
 40
0.0
  0
LTYPE
  2
PHANTOM2
 70
     0
  3
___ _ _ ___ _ _ ___ _ _ ___ _ _
 72
    65
 73
     6
 40
1.25
 49
0.625
 49
-0.125
 49
0.125
 49
-0.125
 49
0.125
 49
-0.125
  0
LTYPE
  2
CENTER
 70
     0
  3
____ _ ____ _ ____ _ ____ _ ____ _ ____ _ ____
 72
    65
 73
     4
 40
2.0
 49
1.25
 49
-0.25
 49
0.25
 49
-0.25
  0
ENDTAB
  0
TABLE
  2
LAYER
 70
     3
  0
LAYER
  2
0
 70
     0
 62
     7
  6
CONTINUOUS
  0
LAYER
  2
1
 70
     0
 62
     1
  6
CENTER
  0
LAYER
  2
3
 70
     0
 62
     3
  6
CONTINUOUS
  0
ENDTAB
  0
TABLE
  2
STYLE
 70
     2
  0
STYLE
  2
STANDARD
 70
     0
 40
0.0
 41
1.0
 50
0.0
 71
     0
 42
0.2
  3
SIMPLEX
  4
BIGFONT
  0
STYLE
  2
STANDARD1
 70
     0
 40
0.0
 41
1.0
 50
0.0
 71
     0
 42
3.0
  3
txt
  4

  0
ENDTAB
  0
TABLE
  2
VIEW
 70
     0
  0
ENDTAB
  0
TABLE
  2
UCS
 70
     0
  0
ENDTAB
  0
TABLE
  2
APPID
 70
    29
  0
APPID
  2
ACAD
 70
     0
  0
APPID
  2
ACADANNOTATIVE
 70
     0
  0
APPID
  2
GENIUS_GENOREF_13
 70
     0
  0
APPID
  2
GENIUS_GENOENT_13
 70
     0
  0
APPID
  2
GENIUS_GENBH_13
 70
     0
  0
APPID
  2
GENIUS_GENOBJ_13
 70
     0
  0
APPID
  2
GENIUS_GENODEF_13
 70
     0
  0
APPID
  2
GENIUS_GENOLIS_13
 70
     0
  0
APPID
  2
GENIUS_GENOBJ-NBEHI-BHF_13
 70
     0
  0
APPID
  2
GENIUS_GENOBJ-NBEHI-BHB_13
 70
     0
  0
APPID
  2
GENIUS_GENOBJ-F-PART_13
 70
     0
  0
APPID
  2
GENIUS_GEFSTDP_13
 70
     0
  0
APPID
  2
GENIUS_GENOBJ-N-RSSYM_13
 70
     0
  0
APPID
  2
GENIUS_GENSYMENT_13
 70
     0
  0
APPID
  2
GENIUS_GENOBJ-N-TIT_13
 70
     0
  0
APPID
  2
GENIUS_GENTITLE_13
 70
     0
  0
APPID
  2
GENIUS_GENZVEED_13
 70
     0
  0
APPID
  2
GENIUS_GENOBJ-N-LEADER_13
 70
     0
  0
APPID
  2
GENIUS_GENOBJ-N-FIL_13
 70
     0
  0
APPID
  2
GENIUS_GENOBJ-N-SEC_13
 70
     0
  0
APPID
  2
GENIUS_GENOBJ-N-CRS_13
 70
     0
  0
APPID
  2
GENIUS_GENOBJ-N-ZOO_13
 70
     0
  0
APPID
  2
GENIUS_GENZOO_13
 70
     0
  0
APPID
  2
GENIUS_GENOBJ-F-TOL_13
 70
     0
  0
APPID
  2
GENIUS_GENFIL_13
 70
     0
  0
APPID
  2
GENIUS_GENOBJ-N-CHA_13
 70
     0
  0
APPID
  2
ACAD_MLEADERVER
 70
     0
  0
APPID
  2
ACAD_EXEMPT_FROM_CAD_STANDARDS
 70
     0
  0
APPID
  2
ACAD_NAV_VCDISPLAY
 70
     0
  0
ENDTAB
  0
TABLE
  2
DIMSTYLE
 70
     1
  0
DIMSTYLE
  2
STANDARD
 70
     0
  3

  4

  5

  6

  7

 40
1.0
 41
0.18
 42
0.0625
 43
0.38
 44
0.18
 45
0.0
 46
0.0
 47
0.0
 48
0.0
140
0.18
141
0.09
142
0.0
143
25.399999999999999
144
1.0
145
0.0
146
1.0
147
0.09
 71
     0
 72
     0
 73
     1
 74
     1
 75
     0
 76
     0
 77
     0
 78
     0
170
     0
171
     2
172
     0
173
     0
174
     0
175
     0
176
     0
177
     0
178
     0
  0
ENDTAB
  0
ENDSEC
  0
SECTION
  2
BLOCKS
  0
BLOCK
  8
0
  2
$MODEL_SPACE
 70
     0
 10
0.0
 20
0.0
 30
0.0
  3
$MODEL_SPACE
  1

  0
ENDBLK
  5
E4B
  8
0
  0
BLOCK
 67
     1
  8
0
  2
$PAPER_SPACE
 70
     0
 10
0.0
 20
0.0
 30
0.0
  3
$PAPER_SPACE
  1

  0
ENDBLK
  5
E47
 67
     1
  8
0
  0
ENDSEC
  0
SECTION
  2
ENTITIES
  0
TEXT
  5
ECB
  8
0
 62
     3
 10
0.0
 20
0.0
 30
0.0
 40
10.0
  1
HD-AF12016X190
  7
STANDARD1
  0
LINE
  5
1CEF
  8
0
 10
93.227000000000004
 20
355.0
 30
0.0
 11
92.0
 21
353.77300000000002
 31
0.0
  0
LINE
  5
1CF0
  8
0
 10
108.0
 20
353.77300000000002
 30
0.0
 11
106.773
 21
355.0
 31
0.0
  0
LINE
  5
1CF1
  8
0
 10
106.773
 20
355.0
 30
0.0
 11
93.227000000000004
 21
355.0
 31
0.0
  0
LINE
  5
1CF2
  8
0
 10
92.0
 20
353.77300000000002
 30
0.0
 11
92.0
 21
251.0
 31
0.0
  0
LINE
  5
1CF3
  8
0
 10
108.0
 20
251.0
 30
0.0
 11
108.0
 21
353.77300000000002
 31
0.0
  0
LINE
  5
1CF4
  8
0
 10
108.0
 20
353.77300000000002
 30
0.0
 11
92.0
 21
353.77300000000002
 31
0.0
  0
LINE
  5
1CF5
  8
0
 10
106.5
 20
153.5
 30
0.0
 11
106.5
 21
160.5
 31
0.0
  0
LINE
  5
1CF6
  8
0
 10
106.5
 20
160.5
 30
0.0
 11
108.0
 21
160.5
 31
0.0
  0
LINE
  5
1CF7
  8
0
 10
106.5
 20
153.5
 30
0.0
 11
108.0
 21
153.5
 31
0.0
  0
LINE
  5
1CF8
  8
0
 10
93.499999999999986
 20
160.5
 30
0.0
 11
93.499999999999986
 21
153.5
 31
0.0
  0
LINE
  5
1CF9
  8
0
 10
92.0
 20
165.0
 30
0.0
 11
92.0
 21
160.5
 31
0.0
  0
LINE
  5
1CFA
  8
0
 10
92.0
 20
153.5
 30
0.0
 11
92.0
 21
153.30000000000001
 31
0.0
  0
LINE
  5
1CFB
  8
0
 10
108.0
 20
153.30000000000001
 30
0.0
 11
108.0
 21
153.5
 31
0.0
  0
LINE
  5
1CFC
  8
0
 10
108.0
 20
160.5
 30
0.0
 11
108.0
 21
165.0
 31
0.0
  0
LINE
  5
1CFD
  8
0
 10
92.0
 20
160.5
 30
0.0
 11
93.499999999999986
 21
160.5
 31
0.0
  0
LINE
  5
1CFE
  8
0
 10
92.0
 20
153.5
 30
0.0
 11
93.499999999999986
 21
153.5
 31
0.0
  0
LINE
  5
1CFF
  8
0
 10
110.5
 20
166.0
 30
0.0
 11
89.500000000000014
 21
166.0
 31
0.0
  0
ARC
  5
1D00
  8
0
 10
89.500000000000014
 20
167.5
 30
0.0
 40
1.4999999999999909
 50
180.0
 51
270.0
  0
ARC
  5
1D01
  8
0
 10
110.5
 20
167.5
 30
0.0
 40
1.499999999999992
 50
270.0
 51
0.0
  0
LINE
  5
1D02
  8
0
 10
110.0
 20
186.0
 30
0.0
 11
110.0
 21
174.0
 31
0.0
  0
LINE
  5
1D03
  8
0
 10
90.0
 20
186.0
 30
0.0
 11
88.0
 21
186.0
 31
0.0
  0
LINE
  5
1D04
  8
0
 10
90.0
 20
174.0
 30
0.0
 11
90.0
 21
186.0
 31
0.0
  0
LINE
  5
1D05
  8
0
 10
90.0
 20
174.0
 30
0.0
 11
88.0
 21
174.0
 31
0.0
  0
LINE
  5
1D06
  8
0
 10
88.0
 20
249.5
 30
0.0
 11
88.0
 21
186.0
 31
0.0
  0
LINE
  5
1D07
  8
0
 10
88.0
 20
174.0
 30
0.0
 11
88.0
 21
167.5
 31
0.0
  0
LINE
  5
1D08
  8
0
 10
112.0
 20
167.5
 30
0.0
 11
112.0
 21
174.0
 31
0.0
  0
LINE
  5
1D09
  8
0
 10
112.0
 20
186.0
 30
0.0
 11
112.0
 21
249.5
 31
0.0
  0
LINE
  5
1D0A
  8
0
 10
112.0
 20
174.0
 30
0.0
 11
110.0
 21
174.0
 31
0.0
  0
LINE
  5
1D0B
  8
0
 10
112.0
 20
186.0
 30
0.0
 11
110.0
 21
186.0
 31
0.0
  0
LINE
  5
1D0C
  8
0
 10
110.5
 20
251.0
 30
0.0
 11
89.500000000000014
 21
251.0
 31
0.0
  0
ARC
  5
1D0D
  8
0
 10
89.500000000000043
 20
249.5
 30
0.0
 40
1.500000000000042
 50
90.000000000001606
 51
179.9999999999975
  0
ARC
  5
1D0E
  8
0
 10
110.4999999999999
 20
249.5
 30
0.0
 40
1.500000000000042
 50
0.0000000000024427
 51
89.999999999998366
  0
ARC
  5
1D0F
  8
0
 10
84.999999999999986
 20
153.30000000000001
 30
0.0
 40
7.0000000000000062
 50
288.87650363055951
 51
0.0
  0
ARC
  5
1D10
  8
0
 10
115.0
 20
153.30000000000001
 30
0.0
 40
7.0000000000000302
 50
180.0
 51
251.1234963694406
  0
ARC
  5
1D11
  8
0
 10
87.749999999999986
 20
145.25714602892731
 30
0.0
 40
1.4999999999999809
 50
108.8765036305586
 51
180.0
  0
ARC
  5
1D12
  8
0
 10
112.25
 20
145.25714602892731
 30
0.0
 40
1.4999999999999849
 50
0.0
 51
71.123496369441341
  0
LINE
  5
1D13
  8
0
 10
86.25
 20
145.25714602892731
 30
0.0
 11
86.25
 21
141.34999999999999
 31
0.0
  0
LINE
  5
1D14
  8
0
 10
113.75
 20
141.34999999999999
 30
0.0
 11
113.75
 21
145.25714602892731
 31
0.0
  0
LINE
  5
1D15
  8
0
 10
113.0
 20
140.59999999999999
 30
0.0
 11
87.0
 21
140.59999999999999
 31
0.0
  0
ARC
  5
1D16
  8
0
 10
87.0
 20
141.34999999999999
 30
0.0
 40
0.7500000000000071
 50
180.0000000000008
 51
269.9999999999992
  0
ARC
  5
1D17
  8
0
 10
113.0
 20
141.34999999999999
 30
0.0
 40
0.7500000000000071
 50
270.0000000000008
 51
359.9999999999992
  0
ARC
  5
1D18
  8
0
 10
77.528911635795453
 20
145.99057179591611
 30
0.0
 40
12.000000000000339
 50
308.505568696365
 51
333.30671353117663
  0
ARC
  5
1D19
  8
0
 10
122.47108836420441
 20
145.990571795916
 30
0.0
 40
12.00000000000024
 50
206.693286468823
 51
231.49443130363559
  0
LINE
  5
1D1A
  8
0
 10
85.000000000000014
 20
136.59999999999999
 30
0.0
 11
42.161474890173821
 21
124.12922935691731
 31
0.0
  0
LINE
  5
1D1B
  8
0
 10
157.83852510982621
 20
124.12922935691731
 30
0.0
 11
115.0
 21
136.59999999999999
 31
0.0
  0
LINE
  5
1D1C
  8
0
 10
115.0
 20
136.59999999999999
 30
0.0
 11
85.000000000000014
 21
136.59999999999999
 31
0.0
  0
ARC
  5
1D1D
  8
0
 10
42.999999999999972
 20
121.24879959033881
 30
0.0
 40
2.9999999999999658
 50
106.23086489035219
 51
180.0
  0
ARC
  5
1D1E
  8
0
 10
157.0
 20
121.24879959033881
 30
0.0
 40
2.9999999999999711
 50
359.9999999999992
 51
73.769135109647777
  0
LINE
  5
1D1F
  8
0
 10
40.0
 20
121.24879959033881
 30
0.0
 11
40.0
 21
115.0
 31
0.0
  0
LINE
  5
1D20
  8
0
 10
160.0
 20
115.0
 30
0.0
 11
160.0
 21
121.24879959033881
 31
0.0
  0
LINE
  5
1D21
  8
0
 10
157.75
 20
105.0
 30
0.0
 11
160.0
 21
115.0
 31
0.0
  0
LINE
  5
1D22
  8
0
 10
40.0
 20
115.0
 30
0.0
 11
42.25
 21
105.0
 31
0.0
  0
LINE
  5
1D23
  8
0
 10
157.75
 20
105.0
 30
0.0
 11
42.25
 21
105.0
 31
0.0
  0
LINE
  5
1D24
  8
0
 10
160.0
 20
115.0
 30
0.0
 11
40.0
 21
115.0
 31
0.0
  0
LINE
  5
1D25
  8
3
 10
106.773
 20
355.0
 30
0.0
 11
106.773
 21
251.0
 31
0.0
  0
LINE
  5
1D26
  8
3
 10
93.227000000000004
 20
355.0
 30
0.0
 11
93.227000000000004
 21
251.0
 31
0.0
  0
LINE
  5
1D27
  8
1
 10
100.0
 20
360.0
 30
0.0
 11
100.0
 21
100.0
 31
0.0
  0
LINE
  5
1D28
  8
1
 10
300.0
 20
360.0
 30
0.0
 11
300.0
 21
100.0
 31
0.0
  0
LINE
  5
1D29
  8
0
 10
306.77300000000002
 20
355.0
 30
0.0
 11
293.22699999999998
 21
355.0
 31
0.0
  0
LINE
  5
1D2A
  8
0
 10
293.22699999999998
 20
355.0
 30
0.0
 11
292.0
 21
353.77300000000002
 31
0.0
  0
LINE
  5
1D2B
  8
0
 10
308.0
 20
353.77300000000002
 30
0.0
 11
306.77300000000002
 21
355.0
 31
0.0
  0
LINE
  5
1D2C
  8
0
 10
308.0
 20
353.77300000000002
 30
0.0
 11
292.0
 21
353.77300000000002
 31
0.0
  0
LINE
  5
1D2D
  8
0
 10
292.0
 20
353.77300000000002
 30
0.0
 11
292.0
 21
251.0
 31
0.0
  0
LINE
  5
1D2E
  8
0
 10
308.0
 20
251.0
 30
0.0
 11
308.0
 21
353.77300000000002
 31
0.0
  0
LINE
  5
1D2F
  8
0
 10
295.33631047345563
 20
153.5
 30
0.0
 11
304.66368952654437
 21
153.5
 31
0.0
  0
LINE
  5
1D30
  8
0
 10
295.33631047345563
 20
153.5
 30
0.0
 11
295.33631047345563
 21
160.5
 31
0.0
  0
LINE
  5
1D31
  8
0
 10
295.33631047345563
 20
160.5
 30
0.0
 11
304.66368952654437
 21
160.5
 31
0.0
  0
LINE
  5
1D32
  8
0
 10
304.66368952654437
 20
160.5
 30
0.0
 11
304.66368952654437
 21
153.5
 31
0.0
  0
LINE
  5
1D33
  8
0
 10
292.0
 20
165.0
 30
0.0
 11
292.0
 21
153.30000000000001
 31
0.0
  0
LINE
  5
1D34
  8
0
 10
308.0
 20
153.30000000000001
 30
0.0
 11
308.0
 21
165.0
 31
0.0
  0
LINE
  5
1D35
  8
0
 10
310.5
 20
166.0
 30
0.0
 11
289.50000000262389
 21
166.0
 31
0.0
  0
ARC
  5
1D36
  8
0
 10
289.5
 20
167.5
 30
0.0
 40
1.4999999999999909
 50
180.0
 51
270.0
  0
ARC
  5
1D37
  8
0
 10
310.5
 20
167.5
 30
0.0
 40
1.499999999999992
 50
270.0
 51
0.0
  0
LINE
  5
1D38
  8
0
 10
306.63324958071081
 20
186.0
 30
0.0
 11
293.36675041928919
 21
186.0
 31
0.0
  0
LINE
  5
1D39
  8
0
 10
306.63324958071081
 20
174.0
 30
0.0
 11
306.63324958071081
 21
186.0
 31
0.0
  0
LINE
  5
1D3A
  8
0
 10
306.63324958071081
 20
174.0
 30
0.0
 11
293.36675041928919
 21
174.0
 31
0.0
  0
LINE
  5
1D3B
  8
0
 10
293.36675041928919
 20
186.0
 30
0.0
 11
293.36675041928919
 21
174.0
 31
0.0
  0
LINE
  5
1D3C
  8
0
 10
288.0
 20
249.5
 30
0.0
 11
288.0
 21
167.5
 31
0.0
  0
LINE
  5
1D3D
  8
0
 10
312.0
 20
167.5
 30
0.0
 11
312.0
 21
249.5
 31
0.0
  0
LINE
  5
1D3E
  8
0
 10
310.5
 20
251.0
 30
0.0
 11
289.50000000262389
 21
251.0
 31
0.0
  0
ARC
  5
1D3F
  8
0
 10
289.5
 20
249.5
 30
0.0
 40
1.500000000000042
 50
90.000000000001606
 51
179.9999999999975
  0
ARC
  5
1D40
  8
0
 10
310.49999999999989
 20
249.5
 30
0.0
 40
1.500000000000042
 50
0.0000000000024427
 51
89.999999999998366
  0
ARC
  5
1D41
  8
0
 10
285.0
 20
153.30000000000001
 30
0.0
 40
7.0000000000000062
 50
288.87650363055872
 51
0.0
  0
ARC
  5
1D42
  8
0
 10
315.0
 20
153.30000000000001
 30
0.0
 40
7.0000000000000302
 50
180.0
 51
251.1234963694414
  0
ARC
  5
1D43
  8
0
 10
287.75
 20
145.25714602892731
 30
0.0
 40
1.4999999999999809
 50
108.8765036305586
 51
180.0
  0
ARC
  5
1D44
  8
0
 10
312.25
 20
145.25714602892731
 30
0.0
 40
1.4999999999999849
 50
0.0
 51
71.123496369441341
  0
LINE
  5
1D45
  8
0
 10
286.25
 20
145.25714602892731
 30
0.0
 11
286.25
 21
141.34999999999999
 31
0.0
  0
LINE
  5
1D46
  8
0
 10
313.75
 20
141.34999999999999
 30
0.0
 11
313.75
 21
145.25714602892731
 31
0.0
  0
LINE
  5
1D47
  8
0
 10
313.0
 20
140.59999999999999
 30
0.0
 11
287.00000000945693
 21
140.59999999999999
 31
0.0
  0
ARC
  5
1D48
  8
0
 10
287.0
 20
141.34999999999999
 30
0.0
 40
0.7500000000000071
 50
180.0000000000008
 51
270.0
  0
ARC
  5
1D49
  8
0
 10
313.0
 20
141.34999999999999
 30
0.0
 40
0.7500000000000071
 50
270.0
 51
359.9999999999992
  0
ARC
  5
1D4A
  8
0
 10
277.52891163579551
 20
145.99057179591611
 30
0.0
 40
12.000000000000339
 50
308.50556869636381
 51
333.30671353117702
  0
ARC
  5
1D4B
  8
0
 10
322.47108836420438
 20
145.990571795916
 30
0.0
 40
12.00000000000024
 50
206.693286468823
 51
231.49443130363611
  0
LINE
  5
1D4C
  8
0
 10
315.0
 20
136.59999999999999
 30
0.0
 11
285.0
 21
136.59999999999999
 31
0.0
  0
LINE
  5
1D4D
  8
0
 10
285.0
 20
136.59999999999999
 30
0.0
 11
242.16147489017379
 21
124.12922935691731
 31
0.0
  0
LINE
  5
1D4E
  8
0
 10
357.83852510982621
 20
124.12922935691731
 30
0.0
 11
315.0
 21
136.59999999999999
 31
0.0
  0
ARC
  5
1D4F
  8
0
 10
243.0
 20
121.24879959033881
 30
0.0
 40
2.9999999999999658
 50
106.23086489035219
 51
180.0
  0
ARC
  5
1D50
  8
0
 10
357.0
 20
121.24879959033881
 30
0.0
 40
2.9999999999999711
 50
359.9999999999992
 51
73.769135109647777
  0
LINE
  5
1D51
  8
0
 10
240.0
 20
121.24879959033881
 30
0.0
 11
240.0
 21
115.0
 31
0.0
  0
LINE
  5
1D52
  8
0
 10
360.0
 20
115.0
 30
0.0
 11
360.0
 21
121.24879959033881
 31
0.0
  0
LINE
  5
1D53
  8
0
 10
357.75
 20
105.0
 30
0.0
 11
242.25
 21
105.0
 31
0.0
  0
LINE
  5
1D54
  8
0
 10
360.0
 20
115.0
 30
0.0
 11
240.0
 21
115.0
 31
0.0
  0
LINE
  5
1D55
  8
0
 10
357.75
 20
105.0
 30
0.0
 11
360.0
 21
115.0
 31
0.0
  0
LINE
  5
1D56
  8
0
 10
240.0
 20
115.0
 30
0.0
 11
242.25
 21
105.0
 31
0.0
  0
LINE
  5
1D57
  8
3
 10
293.22699999999998
 20
355.0
 30
0.0
 11
293.22699999999998
 21
251.0
 31
0.0
  0
LINE
  5
1D58
  8
3
 10
306.77300000000002
 20
355.0
 30
0.0
 11
306.77300000000002
 21
251.0
 31
0.0
  0
CIRCLE
  5
1D59
  8
0
 10
99.999999999999943
 20
475.0
 30
0.0
 40
14.99999999999998
  0
CIRCLE
  5
1D5A
  8
0
 10
99.999999999999943
 20
475.0
 30
0.0
 40
8.0
  0
LINE
  5
1D5B
  8
1
 10
100.0
 20
410.0
 30
0.0
 11
100.0
 21
539.99999999999977
 31
0.0
  0
CIRCLE
  5
1D5C
  8
0
 10
100.0
 20
474.99999999999989
 30
0.0
 40
59.999999999999943
  0
CIRCLE
  5
1D5D
  8
0
 10
99.999999999999943
 20
475.0
 30
0.0
 40
13.75
  0
CIRCLE
  5
1D5E
  8
0
 10
99.999999999999943
 20
475.0
 30
0.0
 40
12.0
  0
CIRCLE
  5
1D5F
  8
3
 10
100.0
 20
474.99999999999989
 30
0.0
 40
6.7730000000000601
  0
LINE
  5
1D60
  8
1
 10
164.99999999999989
 20
475.0
 30
0.0
 11
35.000000000000057
 21
475.0
 31
0.0
  0
LINE
  5
1D61
  8
3
 10
293.36675041928919
 20
174.0
 30
0.0
 11
306.63324958071081
 21
186.0
 31
0.0
  0
LINE
  5
1D62
  8
3
 10
293.36675041928919
 20
186.0
 30
0.0
 11
306.63324958071081
 21
174.0
 31
0.0
  0
LINE
  5
1D63
  8
3
 10
295.33631047345563
 20
153.5
 30
0.0
 11
304.66368952654437
 21
160.5
 31
0.0
  0
LINE
  5
1D64
  8
3
 10
295.33631047345563
 20
160.5
 30
0.0
 11
304.66368952654437
 21
153.5
 31
0.0
  0
LINE
  5
1D65
  8
0
 10
108.5
 20
165.0
 30
0.0
 11
91.5
 21
165.0
 31
0.0
  0
ARC
  5
1D66
  8
0
 10
91.5
 20
166.5
 30
0.0
 40
1.4999999999999909
 50
199.47122063449069
 51
270.0
  0
ARC
  5
1D67
  8
0
 10
108.5
 20
166.5
 30
0.0
 40
1.4999999999999909
 50
270.0
 51
340.52877936550908
  0
LINE
  5
1D68
  8
0
 10
308.5
 20
165.0
 30
0.0
 11
291.5
 21
165.0
 31
0.0
  0
ARC
  5
1D69
  8
0
 10
291.5
 20
166.5
 30
0.0
 40
1.4999999999999909
 50
199.47122063449089
 51
270.0
  0
ARC
  5
1D6A
  8
0
 10
308.5
 20
166.5
 30
0.0
 40
1.4999999999999909
 50
270.0
 51
340.52877936550891
  0
ENDSEC
  0
EOF
