  0
SECTION
  2
HEADER
  9
$ACADVER
  1
AC1009
  9
$INSBASE
 10
0.0
 20
0.0
 30
0.0
  9
$EXTMIN
 10
0.0
 20
-2.960436562073669
 30
0.0
  9
$EXTMAX
 10
360.0
 20
489.99999999999977
 30
0.0
  9
$LIMMIN
 10
0.0
 20
0.0
  9
$LIMMAX
 10
375.0
 20
270.0
  9
$ORTHOMODE
 70
     1
  9
$REGENMODE
 70
     1
  9
$FILLMODE
 70
     1
  9
$QTEXTMODE
 70
     0
  9
$MIRRTEXT
 70
     0
  9
$DRAGMODE
 70
     2
  9
$LTSCALE
 40
6.0
  9
$OSMODE
 70
    37
  9
$ATTMODE
 70
     1
  9
$TEXTSIZE
 40
0.2
  9
$TRACEWID
 40
0.05
  9
$TEXTSTYLE
  7
STANDARD
  9
$CLAYER
  8
0
  9
$CELTYPE
  6
BYLAYER
  9
$CECOLOR
 62
   256
  9
$DIMSCALE
 40
1.0
  9
$DIMASZ
 40
3.0
  9
$DIMEXO
 40
1.0
  9
$DIMDLI
 40
6.0
  9
$DIMRND
 40
0.0
  9
$DIMDLE
 40
0.0
  9
$DIMEXE
 40
1.0
  9
$DIMTP
 40
495.0
  9
$DIMTM
 40
0.0
  9
$DIMTXT
 40
3.0
  9
$DIMCEN
 40
0.0
  9
$DIMTSZ
 40
0.0
  9
$DIMTOL
 70
     0
  9
$DIMLIM
 70
     0
  9
$DIMTIH
 70
     0
  9
$DIMTOH
 70
     0
  9
$DIMSE1
 70
     0
  9
$DIMSE2
 70
     0
  9
$DIMTAD
 70
     1
  9
$DIMZIN
 70
     0
  9
$DIMBLK
  1

  9
$DIMASO
 70
     0
  9
$DIMSHO
 70
     0
  9
$DIMPOST
  1

  9
$DIMAPOST
  1

  9
$DIMALT
 70
     0
  9
$DIMALTD
 70
     2
  9
$DIMALTF
 40
25.399999999999999
  9
$DIMLFAC
 40
1.0
  9
$DIMTOFL
 70
     1
  9
$DIMTVP
 40
0.0
  9
$DIMTIX
 70
     1
  9
$DIMSOXD
 70
     0
  9
$DIMSAH
 70
     0
  9
$DIMBLK1
  1

  9
$DIMBLK2
  1

  9
$DIMSTYLE
  2
STANDARD
  9
$DIMCLRD
 70
     0
  9
$DIMCLRE
 70
     0
  9
$DIMCLRT
 70
     4
  9
$DIMTFAC
 40
1.0
  9
$DIMGAP
 40
1.0
  9
$LUNITS
 70
     2
  9
$LUPREC
 70
     4
  9
$SKETCHINC
 40
0.1
  9
$FILLETRAD
 40
2.0
  9
$AUNITS
 70
     0
  9
$AUPREC
 70
     0
  9
$MENU
  1
C:\R13\WIN\SUPPORT\ACAD-I
  9
$ELEVATION
 40
0.0
  9
$PELEVATION
 40
0.0
  9
$THICKNESS
 40
0.0
  9
$LIMCHECK
 70
     0
  9
$BLIPMODE
 70
     0
  9
$CHAMFERA
 40
0.0
  9
$CHAMFERB
 40
0.0
  9
$SKPOLY
 70
     0
  9
$TDCREATE
 40
2450834.7095229169
  9
$TDUPDATE
 40
2458820.7245495608
  9
$TDINDWG
 40
0.1534341319
  9
$TDUSRTIMER
 40
2456548.3737270948
  9
$USRTIMER
 70
     1
  9
$ANGBASE
 50
0.0
  9
$ANGDIR
 70
     0
  9
$PDMODE
 70
     0
  9
$PDSIZE
 40
0.0
  9
$PLINEWID
 40
0.0
  9
$COORDS
 70
     1
  9
$SPLFRAME
 70
     0
  9
$SPLINETYPE
 70
     6
  9
$SPLINESEGS
 70
     8
  9
$ATTDIA
 70
     0
  9
$ATTREQ
 70
     1
  9
$HANDLING
 70
     1
  9
$HANDSEED
  5
1FCB
  9
$SURFTAB1
 70
     6
  9
$SURFTAB2
 70
     6
  9
$SURFTYPE
 70
     6
  9
$SURFU
 70
     6
  9
$SURFV
 70
     6
  9
$UCSNAME
  2

  9
$UCSORG
 10
0.0
 20
0.0
 30
0.0
  9
$UCSXDIR
 10
1.0
 20
0.0
 30
0.0
  9
$UCSYDIR
 10
0.0
 20
1.0
 30
0.0
  9
$PUCSNAME
  2

  9
$PUCSORG
 10
0.0
 20
0.0
 30
0.0
  9
$PUCSXDIR
 10
1.0
 20
0.0
 30
0.0
  9
$PUCSYDIR
 10
0.0
 20
1.0
 30
0.0
  9
$USERI1
 70
     4
  9
$USERI2
 70
     1
  9
$USERI3
 70
     0
  9
$USERI4
 70
     0
  9
$USERI5
 70
     0
  9
$USERR1
 40
1.0
  9
$USERR2
 40
3.0
  9
$USERR3
 40
3.0
  9
$USERR4
 40
3.0
  9
$USERR5
 40
10.0
  9
$WORLDVIEW
 70
     1
  9
$SHADEDGE
 70
     3
  9
$SHADEDIF
 70
    70
  9
$TILEMODE
 70
     1
  9
$MAXACTVP
 70
    16
  9
$PLIMCHECK
 70
     0
  9
$PEXTMIN
 10
1.0000000000000000E+020
 20
1.0000000000000000E+020
 30
1.0000000000000000E+020
  9
$PEXTMAX
 10
-1.0000000000000000E+020
 20
-1.0000000000000000E+020
 30
-1.0000000000000000E+020
  9
$PLIMMIN
 10
0.0
 20
0.0
  9
$PLIMMAX
 10
12.0
 20
9.0
  9
$UNITMODE
 70
     0
  9
$VISRETAIN
 70
     0
  9
$PLINEGEN
 70
     0
  9
$PSLTSCALE
 70
     0
  0
ENDSEC
  0
SECTION
  2
TABLES
  0
TABLE
  2
VPORT
 70
     1
  0
VPORT
  2
*ACTIVE
 70
     0
 10
0.0
 20
0.0
 11
1.0
 21
1.0
 12
413.43039074106582
 22
243.50517771492881
 13
0.0
 23
0.0
 14
10.0
 24
10.0
 15
10.0
 25
10.0
 16
0.0
 26
0.0
 36
1.0
 17
0.0
 27
0.0
 37
0.0
 40
497.27501188809879
 41
2.415644171779141
 42
50.0
 43
0.0
 44
0.0
 50
0.0
 51
0.0
 71
    16
 72
   100
 73
     1
 74
     0
 75
     0
 76
     0
 77
     0
 78
     0
  0
ENDTAB
  0
TABLE
  2
LTYPE
 70
     3
  0
LTYPE
  2
CONTINUOUS
 70
     0
  3
Solid Line
 72
    65
 73
     0
 40
0.0
  0
LTYPE
  2
PHANTOM2
 70
     0
  3
___ _ _ ___ _ _ ___ _ _ ___ _ _
 72
    65
 73
     6
 40
1.25
 49
0.625
 49
-0.125
 49
0.125
 49
-0.125
 49
0.125
 49
-0.125
  0
LTYPE
  2
CENTER
 70
     0
  3
____ _ ____ _ ____ _ ____ _ ____ _ ____ _ ____
 72
    65
 73
     4
 40
2.0
 49
1.25
 49
-0.25
 49
0.25
 49
-0.25
  0
ENDTAB
  0
TABLE
  2
LAYER
 70
     3
  0
LAYER
  2
0
 70
     0
 62
     7
  6
CONTINUOUS
  0
LAYER
  2
1
 70
     0
 62
     1
  6
CENTER
  0
LAYER
  2
3
 70
     0
 62
     3
  6
CONTINUOUS
  0
ENDTAB
  0
TABLE
  2
STYLE
 70
     2
  0
STYLE
  2
STANDARD
 70
     0
 40
0.0
 41
1.0
 50
0.0
 71
     0
 42
0.2
  3
SIMPLEX
  4
BIGFONT
  0
STYLE
  2
STANDARD1
 70
     0
 40
0.0
 41
1.0
 50
0.0
 71
     0
 42
3.0
  3
txt
  4

  0
ENDTAB
  0
TABLE
  2
VIEW
 70
     0
  0
ENDTAB
  0
TABLE
  2
UCS
 70
     0
  0
ENDTAB
  0
TABLE
  2
APPID
 70
    29
  0
APPID
  2
ACAD
 70
     0
  0
APPID
  2
ACADANNOTATIVE
 70
     0
  0
APPID
  2
GENIUS_GENOREF_13
 70
     0
  0
APPID
  2
GENIUS_GENOENT_13
 70
     0
  0
APPID
  2
GENIUS_GENBH_13
 70
     0
  0
APPID
  2
GENIUS_GENOBJ_13
 70
     0
  0
APPID
  2
GENIUS_GENODEF_13
 70
     0
  0
APPID
  2
GENIUS_GENOLIS_13
 70
     0
  0
APPID
  2
GENIUS_GENOBJ-NBEHI-BHF_13
 70
     0
  0
APPID
  2
GENIUS_GENOBJ-NBEHI-BHB_13
 70
     0
  0
APPID
  2
GENIUS_GENOBJ-F-PART_13
 70
     0
  0
APPID
  2
GENIUS_GEFSTDP_13
 70
     0
  0
APPID
  2
GENIUS_GENOBJ-N-RSSYM_13
 70
     0
  0
APPID
  2
GENIUS_GENSYMENT_13
 70
     0
  0
APPID
  2
GENIUS_GENOBJ-N-TIT_13
 70
     0
  0
APPID
  2
GENIUS_GENTITLE_13
 70
     0
  0
APPID
  2
GENIUS_GENZVEED_13
 70
     0
  0
APPID
  2
GENIUS_GENOBJ-N-LEADER_13
 70
     0
  0
APPID
  2
GENIUS_GENOBJ-N-FIL_13
 70
     0
  0
APPID
  2
GENIUS_GENOBJ-N-SEC_13
 70
     0
  0
APPID
  2
GENIUS_GENOBJ-N-CRS_13
 70
     0
  0
APPID
  2
GENIUS_GENOBJ-N-ZOO_13
 70
     0
  0
APPID
  2
GENIUS_GENZOO_13
 70
     0
  0
APPID
  2
GENIUS_GENOBJ-F-TOL_13
 70
     0
  0
APPID
  2
GENIUS_GENFIL_13
 70
     0
  0
APPID
  2
GENIUS_GENOBJ-N-CHA_13
 70
     0
  0
APPID
  2
ACAD_MLEADERVER
 70
     0
  0
APPID
  2
ACAD_EXEMPT_FROM_CAD_STANDARDS
 70
     0
  0
APPID
  2
ACAD_NAV_VCDISPLAY
 70
     0
  0
ENDTAB
  0
TABLE
  2
DIMSTYLE
 70
     1
  0
DIMSTYLE
  2
STANDARD
 70
     0
  3

  4

  5

  6

  7

 40
1.0
 41
0.18
 42
0.0625
 43
0.38
 44
0.18
 45
0.0
 46
0.0
 47
0.0
 48
0.0
140
0.18
141
0.09
142
0.0
143
25.399999999999999
144
1.0
145
0.0
146
1.0
147
0.09
 71
     0
 72
     0
 73
     1
 74
     1
 75
     0
 76
     0
 77
     0
 78
     0
170
     0
171
     2
172
     0
173
     0
174
     0
175
     0
176
     0
177
     0
178
     0
  0
ENDTAB
  0
ENDSEC
  0
SECTION
  2
BLOCKS
  0
BLOCK
  8
0
  2
$MODEL_SPACE
 70
     0
 10
0.0
 20
0.0
 30
0.0
  3
$MODEL_SPACE
  1

  0
ENDBLK
  5
E4B
  8
0
  0
BLOCK
 67
     1
  8
0
  2
$PAPER_SPACE
 70
     0
 10
0.0
 20
0.0
 30
0.0
  3
$PAPER_SPACE
  1

  0
ENDBLK
  5
E47
 67
     1
  8
0
  0
ENDSEC
  0
SECTION
  2
ENTITIES
  0
TEXT
  5
ECB
  8
0
 62
     3
 10
0.0
 20
0.0
 30
0.0
 40
10.0
  1
HD-AF12020X140
  7
STANDARD1
  0
LINE
  5
1E6F
  8
0
 10
91.533500000000004
 20
305.0
 30
0.0
 11
90.0
 21
303.4665
 31
0.0
  0
LINE
  5
1E70
  8
0
 10
110.0
 20
303.4665
 30
0.0
 11
108.4665
 21
305.0
 31
0.0
  0
LINE
  5
1E71
  8
0
 10
108.4665
 20
305.0
 30
0.0
 11
91.533500000000004
 21
305.0
 31
0.0
  0
LINE
  5
1E72
  8
0
 10
90.0
 20
303.4665
 30
0.0
 11
90.0
 21
226.0
 31
0.0
  0
LINE
  5
1E73
  8
0
 10
110.0
 20
226.0
 30
0.0
 11
110.0
 21
303.4665
 31
0.0
  0
LINE
  5
1E74
  8
0
 10
110.0
 20
303.4665
 30
0.0
 11
90.0
 21
303.4665
 31
0.0
  0
LINE
  5
1E75
  8
0
 10
108.5
 20
153.5
 30
0.0
 11
108.5
 21
160.5
 31
0.0
  0
LINE
  5
1E76
  8
0
 10
108.5
 20
160.5
 30
0.0
 11
110.0
 21
160.5
 31
0.0
  0
LINE
  5
1E77
  8
0
 10
108.5
 20
153.5
 30
0.0
 11
110.0
 21
153.5
 31
0.0
  0
LINE
  5
1E78
  8
0
 10
91.5
 20
160.5
 30
0.0
 11
91.5
 21
153.5
 31
0.0
  0
LINE
  5
1E79
  8
0
 10
90.0
 20
165.0
 30
0.0
 11
90.0
 21
160.5
 31
0.0
  0
LINE
  5
1E7A
  8
0
 10
90.0
 20
153.5
 30
0.0
 11
90.0
 21
153.30000000000001
 31
0.0
  0
LINE
  5
1E7B
  8
0
 10
110.0
 20
153.30000000000001
 30
0.0
 11
110.0
 21
153.5
 31
0.0
  0
LINE
  5
1E7C
  8
0
 10
110.0
 20
160.5
 30
0.0
 11
110.0
 21
165.0
 31
0.0
  0
LINE
  5
1E7D
  8
0
 10
90.0
 20
160.5
 30
0.0
 11
91.5
 21
160.5
 31
0.0
  0
LINE
  5
1E7E
  8
0
 10
90.0
 20
153.5
 30
0.0
 11
91.5
 21
153.5
 31
0.0
  0
ARC
  5
1E7F
  8
0
 10
83.000000000000043
 20
153.30000000000001
 30
0.0
 40
6.99999999999996
 50
303.97447595029178
 51
0.0
  0
ARC
  5
1E80
  8
0
 10
117.0
 20
153.30000000000001
 30
0.0
 40
6.9999999999999849
 50
180.0
 51
236.02552404970831
  0
LINE
  5
1E81
  8
0
 10
113.0
 20
140.59999999999999
 30
0.0
 11
87.0
 21
140.59999999999999
 31
0.0
  0
ARC
  5
1E82
  8
0
 10
87.0
 20
141.34999999999999
 30
0.0
 40
0.7500000000000071
 50
180.0000000000008
 51
269.9999999999992
  0
ARC
  5
1E83
  8
0
 10
113.0
 20
141.34999999999999
 30
0.0
 40
0.7500000000000071
 50
270.0000000000008
 51
359.9999999999992
  0
ARC
  5
1E84
  8
0
 10
87.75
 20
146.25106391006409
 30
0.0
 40
1.5000000000000071
 50
123.9744759502917
 51
180.0
  0
ARC
  5
1E85
  8
0
 10
112.25
 20
146.25106391006409
 30
0.0
 40
1.5000000000000031
 50
0.0
 51
56.025524049708217
  0
LINE
  5
1E86
  8
0
 10
86.25
 20
146.25106391006409
 30
0.0
 11
86.25
 21
141.34999999999999
 31
0.0
  0
LINE
  5
1E87
  8
0
 10
113.75
 20
141.34999999999999
 30
0.0
 11
113.75
 21
146.25106391006409
 31
0.0
  0
LINE
  5
1E88
  8
0
 10
113.5
 20
166.0
 30
0.0
 11
86.5
 21
166.0
 31
0.0
  0
ARC
  5
1E89
  8
0
 10
86.5
 20
167.5
 30
0.0
 40
1.4999999999999909
 50
180.0
 51
270.0
  0
ARC
  5
1E8A
  8
0
 10
113.5
 20
167.5
 30
0.0
 40
1.499999999999992
 50
270.0
 51
0.0
  0
ARC
  5
1E8B
  8
0
 10
77.11064432455548
 20
145.64201675658339
 30
0.0
 40
12.00000000000014
 50
311.10540317359067
 51
335.15480153472168
  0
ARC
  5
1E8C
  8
0
 10
122.88935567544441
 20
145.6420167565833
 30
0.0
 40
12.00000000000008
 50
204.8451984652782
 51
228.89459682640981
  0
LINE
  5
1E8D
  8
0
 10
113.0
 20
186.0
 30
0.0
 11
113.0
 21
174.0
 31
0.0
  0
LINE
  5
1E8E
  8
0
 10
87.0
 20
186.0
 30
0.0
 11
85.0
 21
186.0
 31
0.0
  0
LINE
  5
1E8F
  8
0
 10
87.0
 20
174.0
 30
0.0
 11
87.0
 21
186.0
 31
0.0
  0
LINE
  5
1E90
  8
0
 10
87.0
 20
174.0
 30
0.0
 11
85.0
 21
174.0
 31
0.0
  0
LINE
  5
1E91
  8
0
 10
85.0
 20
224.5
 30
0.0
 11
85.0
 21
186.0
 31
0.0
  0
LINE
  5
1E92
  8
0
 10
85.0
 20
174.0
 30
0.0
 11
85.0
 21
167.5
 31
0.0
  0
LINE
  5
1E93
  8
0
 10
115.0
 20
167.5
 30
0.0
 11
115.0
 21
174.0
 31
0.0
  0
LINE
  5
1E94
  8
0
 10
115.0
 20
186.0
 30
0.0
 11
115.0
 21
224.5
 31
0.0
  0
LINE
  5
1E95
  8
0
 10
115.0
 20
174.0
 30
0.0
 11
113.0
 21
174.0
 31
0.0
  0
LINE
  5
1E96
  8
0
 10
115.0
 20
186.0
 30
0.0
 11
113.0
 21
186.0
 31
0.0
  0
LINE
  5
1E97
  8
0
 10
113.5
 20
226.0
 30
0.0
 11
86.5
 21
226.0
 31
0.0
  0
ARC
  5
1E98
  8
0
 10
86.500000000000028
 20
224.5
 30
0.0
 40
1.500000000000042
 50
90.000000000001606
 51
179.9999999999975
  0
ARC
  5
1E99
  8
0
 10
113.4999999999999
 20
224.5
 30
0.0
 40
1.500000000000042
 50
0.0000000000024427
 51
89.999999999998366
  0
LINE
  5
1E9A
  8
0
 10
85.0
 20
136.59999999999999
 30
0.0
 11
42.161474890173849
 21
124.12922935691731
 31
0.0
  0
LINE
  5
1E9B
  8
0
 10
157.83852510982609
 20
124.12922935691731
 30
0.0
 11
115.0
 21
136.59999999999999
 31
0.0
  0
LINE
  5
1E9C
  8
0
 10
115.0
 20
136.59999999999999
 30
0.0
 11
85.0
 21
136.59999999999999
 31
0.0
  0
ARC
  5
1E9D
  8
0
 10
42.999999999999943
 20
121.2487995903389
 30
0.0
 40
2.9999999999999432
 50
106.23086489035219
 51
180.0000000000008
  0
ARC
  5
1E9E
  8
0
 10
157.0
 20
121.2487995903389
 30
0.0
 40
2.9999999999999432
 50
359.9999999999992
 51
73.769135109647777
  0
LINE
  5
1E9F
  8
0
 10
40.0
 20
121.24879959033881
 30
0.0
 11
40.0
 21
115.0
 31
0.0
  0
LINE
  5
1EA0
  8
0
 10
160.0
 20
115.0
 30
0.0
 11
160.0
 21
121.24879959033881
 31
0.0
  0
LINE
  5
1EA1
  8
0
 10
157.75
 20
105.0
 30
0.0
 11
160.0
 21
115.0
 31
0.0
  0
LINE
  5
1EA2
  8
0
 10
40.0
 20
115.0
 30
0.0
 11
42.25
 21
105.0
 31
0.0
  0
LINE
  5
1EA3
  8
0
 10
157.75
 20
105.0
 30
0.0
 11
42.25
 21
105.0
 31
0.0
  0
LINE
  5
1EA4
  8
0
 10
160.0
 20
115.0
 30
0.0
 11
40.0
 21
115.0
 31
0.0
  0
LINE
  5
1EA5
  8
3
 10
108.4665
 20
305.0
 30
0.0
 11
108.4665
 21
226.0
 31
0.0
  0
LINE
  5
1EA6
  8
3
 10
91.533500000000004
 20
305.0
 30
0.0
 11
91.533500000000004
 21
226.0
 31
0.0
  0
LINE
  5
1EA7
  8
1
 10
100.0
 20
310.0
 30
0.0
 11
100.0
 21
100.0
 31
0.0
  0
LINE
  5
1EA8
  8
1
 10
300.0
 20
310.0
 30
0.0
 11
300.0
 21
100.0
 31
0.0
  0
LINE
  5
1EA9
  8
0
 10
308.4665
 20
305.0
 30
0.0
 11
291.5335
 21
305.0
 31
0.0
  0
LINE
  5
1EAA
  8
0
 10
291.5335
 20
305.0
 30
0.0
 11
290.0
 21
303.4665
 31
0.0
  0
LINE
  5
1EAB
  8
0
 10
310.0
 20
303.4665
 30
0.0
 11
308.4665
 21
305.0
 31
0.0
  0
LINE
  5
1EAC
  8
0
 10
310.0
 20
303.4665
 30
0.0
 11
290.0
 21
303.4665
 31
0.0
  0
LINE
  5
1EAD
  8
0
 10
290.0
 20
303.4665
 30
0.0
 11
290.0
 21
226.0
 31
0.0
  0
LINE
  5
1EAE
  8
0
 10
310.0
 20
226.0
 30
0.0
 11
310.0
 21
303.4665
 31
0.0
  0
LINE
  5
1EAF
  8
0
 10
294.7321731235736
 20
153.5
 30
0.0
 11
305.2678268764264
 21
153.5
 31
0.0
  0
LINE
  5
1EB0
  8
0
 10
294.7321731235736
 20
153.5
 30
0.0
 11
294.7321731235736
 21
160.5
 31
0.0
  0
LINE
  5
1EB1
  8
0
 10
294.7321731235736
 20
160.5
 30
0.0
 11
305.2678268764264
 21
160.5
 31
0.0
  0
LINE
  5
1EB2
  8
0
 10
305.2678268764264
 20
160.5
 30
0.0
 11
305.2678268764264
 21
153.5
 31
0.0
  0
LINE
  5
1EB3
  8
0
 10
290.0
 20
165.0
 30
0.0
 11
290.0
 21
153.30000000000001
 31
0.0
  0
LINE
  5
1EB4
  8
0
 10
310.0
 20
153.30000000000001
 30
0.0
 11
310.0
 21
165.0
 31
0.0
  0
ARC
  5
1EB5
  8
0
 10
283.0
 20
153.30000000000001
 30
0.0
 40
6.99999999999996
 50
303.97447595029178
 51
0.0
  0
ARC
  5
1EB6
  8
0
 10
317.0
 20
153.30000000000001
 30
0.0
 40
6.9999999999999849
 50
180.0
 51
236.02552404970831
  0
LINE
  5
1EB7
  8
0
 10
313.0
 20
140.59999999999999
 30
0.0
 11
287.00000000945693
 21
140.59999999999999
 31
0.0
  0
ARC
  5
1EB8
  8
0
 10
287.0
 20
141.34999999999999
 30
0.0
 40
0.7500000000000071
 50
180.0000000000008
 51
270.0
  0
ARC
  5
1EB9
  8
0
 10
313.0
 20
141.34999999999999
 30
0.0
 40
0.7500000000000071
 50
270.0
 51
359.9999999999992
  0
ARC
  5
1EBA
  8
0
 10
287.75
 20
146.25106391006409
 30
0.0
 40
1.5000000000000071
 50
123.9744759502917
 51
180.0
  0
ARC
  5
1EBB
  8
0
 10
312.25
 20
146.25106391006409
 30
0.0
 40
1.5000000000000031
 50
0.0
 51
56.025524049708217
  0
LINE
  5
1EBC
  8
0
 10
286.25
 20
146.25106391006409
 30
0.0
 11
286.25
 21
141.34999999999999
 31
0.0
  0
LINE
  5
1EBD
  8
0
 10
313.75
 20
141.34999999999999
 30
0.0
 11
313.75
 21
146.25106391006409
 31
0.0
  0
LINE
  5
1EBE
  8
0
 10
313.5
 20
166.0
 30
0.0
 11
286.50000000355379
 21
166.0
 31
0.0
  0
ARC
  5
1EBF
  8
0
 10
286.5
 20
167.5
 30
0.0
 40
1.4999999999999909
 50
180.0
 51
270.0
  0
ARC
  5
1EC0
  8
0
 10
313.5
 20
167.5
 30
0.0
 40
1.499999999999992
 50
270.0
 51
0.0
  0
ARC
  5
1EC1
  8
0
 10
277.11064432455549
 20
145.64201675658339
 30
0.0
 40
12.00000000000014
 50
311.10540317358959
 51
335.154801534721
  0
ARC
  5
1EC2
  8
0
 10
322.88935567544451
 20
145.6420167565833
 30
0.0
 40
12.00000000000008
 50
204.8451984652782
 51
228.89459682641041
  0
LINE
  5
1EC3
  8
0
 10
307.48331477354787
 20
174.0
 30
0.0
 11
307.48331477354787
 21
186.0
 31
0.0
  0
LINE
  5
1EC4
  8
0
 10
307.48331477354787
 20
174.0
 30
0.0
 11
292.51668522645213
 21
174.0
 31
0.0
  0
LINE
  5
1EC5
  8
0
 10
292.51668522645213
 20
186.0
 30
0.0
 11
292.51668522645213
 21
174.0
 31
0.0
  0
LINE
  5
1EC6
  8
0
 10
307.48331477354787
 20
186.0
 30
0.0
 11
292.51668522645213
 21
186.0
 31
0.0
  0
LINE
  5
1EC7
  8
0
 10
285.0
 20
224.5
 30
0.0
 11
285.0
 21
167.5
 31
0.0
  0
LINE
  5
1EC8
  8
0
 10
315.0
 20
167.5
 30
0.0
 11
315.0
 21
224.5
 31
0.0
  0
LINE
  5
1EC9
  8
0
 10
313.5
 20
226.0
 30
0.0
 11
286.50000000355379
 21
226.0
 31
0.0
  0
ARC
  5
1ECA
  8
0
 10
286.50000000000011
 20
224.5
 30
0.0
 40
1.500000000000042
 50
90.000000000001606
 51
179.9999999999975
  0
ARC
  5
1ECB
  8
0
 10
313.49999999999989
 20
224.5
 30
0.0
 40
1.500000000000042
 50
0.0000000000024427
 51
89.999999999998366
  0
LINE
  5
1ECC
  8
0
 10
315.0
 20
136.59999999999999
 30
0.0
 11
285.0
 21
136.59999999999999
 31
0.0
  0
LINE
  5
1ECD
  8
0
 10
285.0
 20
136.59999999999999
 30
0.0
 11
242.16147489017379
 21
124.12922935691731
 31
0.0
  0
LINE
  5
1ECE
  8
0
 10
357.83852510982621
 20
124.12922935691731
 30
0.0
 11
315.0
 21
136.59999999999999
 31
0.0
  0
ARC
  5
1ECF
  8
0
 10
242.99999999999989
 20
121.2487995903389
 30
0.0
 40
2.9999999999999432
 50
106.23086489035219
 51
180.0000000000008
  0
ARC
  5
1ED0
  8
0
 10
357.00000000000011
 20
121.2487995903389
 30
0.0
 40
2.9999999999999432
 50
359.9999999999992
 51
73.769135109647777
  0
LINE
  5
1ED1
  8
0
 10
240.0
 20
121.24879959033881
 30
0.0
 11
240.0
 21
115.0
 31
0.0
  0
LINE
  5
1ED2
  8
0
 10
360.0
 20
115.0
 30
0.0
 11
360.0
 21
121.24879959033881
 31
0.0
  0
LINE
  5
1ED3
  8
0
 10
357.75
 20
105.0
 30
0.0
 11
242.25
 21
105.0
 31
0.0
  0
LINE
  5
1ED4
  8
0
 10
360.0
 20
115.0
 30
0.0
 11
240.0
 21
115.0
 31
0.0
  0
LINE
  5
1ED5
  8
0
 10
357.75
 20
105.0
 30
0.0
 11
360.0
 21
115.0
 31
0.0
  0
LINE
  5
1ED6
  8
0
 10
240.0
 20
115.0
 30
0.0
 11
242.25
 21
105.0
 31
0.0
  0
LINE
  5
1ED7
  8
3
 10
291.5335
 20
305.0
 30
0.0
 11
291.5335
 21
226.0
 31
0.0
  0
LINE
  5
1ED8
  8
3
 10
308.4665
 20
305.0
 30
0.0
 11
308.4665
 21
226.0
 31
0.0
  0
CIRCLE
  5
1ED9
  8
0
 10
99.999999999999943
 20
425.0
 30
0.0
 40
10.0
  0
LINE
  5
1EDA
  8
1
 10
100.0
 20
360.0
 30
0.0
 11
100.0
 21
489.99999999999977
 31
0.0
  0
CIRCLE
  5
1EDB
  8
0
 10
100.0
 20
425.0
 30
0.0
 40
59.999999999999943
  0
CIRCLE
  5
1EDC
  8
0
 10
99.999999999999943
 20
425.0
 30
0.0
 40
15.0
  0
LINE
  5
1EDD
  8
1
 10
164.99999999999989
 20
425.0
 30
0.0
 11
35.000000000000057
 21
425.0
 31
0.0
  0
LINE
  5
1EDE
  8
3
 10
292.51668522645213
 20
174.0
 30
0.0
 11
307.48331477354787
 21
186.0
 31
0.0
  0
LINE
  5
1EDF
  8
3
 10
292.51668522645213
 20
186.0
 30
0.0
 11
307.48331477354787
 21
174.0
 31
0.0
  0
LINE
  5
1EE0
  8
3
 10
294.7321731235736
 20
153.5
 30
0.0
 11
305.2678268764264
 21
160.5
 31
0.0
  0
LINE
  5
1EE1
  8
3
 10
294.7321731235736
 20
160.5
 30
0.0
 11
305.2678268764264
 21
153.5
 31
0.0
  0
CIRCLE
  5
1EE2
  8
3
 10
99.999999999999943
 20
425.0
 30
0.0
 40
8.4665000000000035
  0
LINE
  5
1EE3
  8
0
 10
111.5
 20
165.0
 30
0.0
 11
88.499999999999986
 21
165.0
 31
0.0
  0
ARC
  5
1EE4
  8
0
 10
88.499999999999986
 20
166.5
 30
0.0
 40
1.4999999999999909
 50
199.47122063449069
 51
270.0
  0
ARC
  5
1EE5
  8
0
 10
111.5
 20
166.5
 30
0.0
 40
1.4999999999999909
 50
270.0
 51
340.52877936550931
  0
LINE
  5
1EE6
  8
0
 10
311.5
 20
165.0
 30
0.0
 11
288.5
 21
165.0
 31
0.0
  0
ARC
  5
1EE7
  8
0
 10
288.5
 20
166.5
 30
0.0
 40
1.4999999999999909
 50
199.47122063449089
 51
270.0
  0
ARC
  5
1EE8
  8
0
 10
311.5
 20
166.5
 30
0.0
 40
1.4999999999999909
 50
270.0
 51
340.52877936550908
  0
ENDSEC
  0
EOF
