  0
SECTION
  2
HEADER
  9
$ACADVER
  1
AC1009
  9
$INSBASE
 10
0.0
 20
0.0
 30
0.0
  9
$EXTMIN
 10
0.0
 20
-2.960436562073669
 30
0.0
  9
$EXTMAX
 10
360.0
 20
539.99999999999977
 30
0.0
  9
$LIMMIN
 10
0.0
 20
0.0
  9
$LIMMAX
 10
375.0
 20
270.0
  9
$ORTHOMODE
 70
     1
  9
$REGENMODE
 70
     1
  9
$FILLMODE
 70
     1
  9
$QTEXTMODE
 70
     0
  9
$MIRRTEXT
 70
     0
  9
$DRAGMODE
 70
     2
  9
$LTSCALE
 40
6.0
  9
$OSMODE
 70
    37
  9
$ATTMODE
 70
     1
  9
$TEXTSIZE
 40
0.2
  9
$TRACEWID
 40
0.05
  9
$TEXTSTYLE
  7
STANDARD
  9
$CLAYER
  8
0
  9
$CELTYPE
  6
BYLAYER
  9
$CECOLOR
 62
   256
  9
$DIMSCALE
 40
1.0
  9
$DIMASZ
 40
3.0
  9
$DIMEXO
 40
1.0
  9
$DIMDLI
 40
6.0
  9
$DIMRND
 40
0.0
  9
$DIMDLE
 40
0.0
  9
$DIMEXE
 40
1.0
  9
$DIMTP
 40
495.0
  9
$DIMTM
 40
0.0
  9
$DIMTXT
 40
3.0
  9
$DIMCEN
 40
0.0
  9
$DIMTSZ
 40
0.0
  9
$DIMTOL
 70
     0
  9
$DIMLIM
 70
     0
  9
$DIMTIH
 70
     0
  9
$DIMTOH
 70
     0
  9
$DIMSE1
 70
     0
  9
$DIMSE2
 70
     0
  9
$DIMTAD
 70
     1
  9
$DIMZIN
 70
     0
  9
$DIMBLK
  1

  9
$DIMASO
 70
     0
  9
$DIMSHO
 70
     0
  9
$DIMPOST
  1

  9
$DIMAPOST
  1

  9
$DIMALT
 70
     0
  9
$DIMALTD
 70
     2
  9
$DIMALTF
 40
25.399999999999999
  9
$DIMLFAC
 40
1.0
  9
$DIMTOFL
 70
     1
  9
$DIMTVP
 40
0.0
  9
$DIMTIX
 70
     1
  9
$DIMSOXD
 70
     0
  9
$DIMSAH
 70
     0
  9
$DIMBLK1
  1

  9
$DIMBLK2
  1

  9
$DIMSTYLE
  2
STANDARD
  9
$DIMCLRD
 70
     0
  9
$DIMCLRE
 70
     0
  9
$DIMCLRT
 70
     4
  9
$DIMTFAC
 40
1.0
  9
$DIMGAP
 40
1.0
  9
$LUNITS
 70
     2
  9
$LUPREC
 70
     4
  9
$SKETCHINC
 40
0.1
  9
$FILLETRAD
 40
2.0
  9
$AUNITS
 70
     0
  9
$AUPREC
 70
     0
  9
$MENU
  1
C:\R13\WIN\SUPPORT\ACAD-I
  9
$ELEVATION
 40
0.0
  9
$PELEVATION
 40
0.0
  9
$THICKNESS
 40
0.0
  9
$LIMCHECK
 70
     0
  9
$BLIPMODE
 70
     0
  9
$CHAMFERA
 40
0.0
  9
$CHAMFERB
 40
0.0
  9
$SKPOLY
 70
     0
  9
$TDCREATE
 40
2450834.7095229169
  9
$TDUPDATE
 40
2458820.7245613998
  9
$TDINDWG
 40
0.1600981713
  9
$TDUSRTIMER
 40
2456548.3803911349
  9
$USRTIMER
 70
     1
  9
$ANGBASE
 50
0.0
  9
$ANGDIR
 70
     0
  9
$PDMODE
 70
     0
  9
$PDSIZE
 40
0.0
  9
$PLINEWID
 40
0.0
  9
$COORDS
 70
     1
  9
$SPLFRAME
 70
     0
  9
$SPLINETYPE
 70
     6
  9
$SPLINESEGS
 70
     8
  9
$ATTDIA
 70
     0
  9
$ATTREQ
 70
     1
  9
$HANDLING
 70
     1
  9
$HANDSEED
  5
215A
  9
$SURFTAB1
 70
     6
  9
$SURFTAB2
 70
     6
  9
$SURFTYPE
 70
     6
  9
$SURFU
 70
     6
  9
$SURFV
 70
     6
  9
$UCSNAME
  2

  9
$UCSORG
 10
0.0
 20
0.0
 30
0.0
  9
$UCSXDIR
 10
1.0
 20
0.0
 30
0.0
  9
$UCSYDIR
 10
0.0
 20
1.0
 30
0.0
  9
$PUCSNAME
  2

  9
$PUCSORG
 10
0.0
 20
0.0
 30
0.0
  9
$PUCSXDIR
 10
1.0
 20
0.0
 30
0.0
  9
$PUCSYDIR
 10
0.0
 20
1.0
 30
0.0
  9
$USERI1
 70
     4
  9
$USERI2
 70
     1
  9
$USERI3
 70
     0
  9
$USERI4
 70
     0
  9
$USERI5
 70
     0
  9
$USERR1
 40
1.0
  9
$USERR2
 40
3.0
  9
$USERR3
 40
3.0
  9
$USERR4
 40
3.0
  9
$USERR5
 40
10.0
  9
$WORLDVIEW
 70
     1
  9
$SHADEDGE
 70
     3
  9
$SHADEDIF
 70
    70
  9
$TILEMODE
 70
     1
  9
$MAXACTVP
 70
    16
  9
$PLIMCHECK
 70
     0
  9
$PEXTMIN
 10
1.0000000000000000E+020
 20
1.0000000000000000E+020
 30
1.0000000000000000E+020
  9
$PEXTMAX
 10
-1.0000000000000000E+020
 20
-1.0000000000000000E+020
 30
-1.0000000000000000E+020
  9
$PLIMMIN
 10
0.0
 20
0.0
  9
$PLIMMAX
 10
12.0
 20
9.0
  9
$UNITMODE
 70
     0
  9
$VISRETAIN
 70
     0
  9
$PLINEGEN
 70
     0
  9
$PSLTSCALE
 70
     0
  0
ENDSEC
  0
SECTION
  2
TABLES
  0
TABLE
  2
VPORT
 70
     1
  0
VPORT
  2
*ACTIVE
 70
     0
 10
0.0
 20
0.0
 11
1.0
 21
1.0
 12
437.11337740945311
 22
268.51747990996961
 13
0.0
 23
0.0
 14
10.0
 24
10.0
 15
10.0
 25
10.0
 16
0.0
 26
0.0
 36
1.0
 17
0.0
 27
0.0
 37
0.0
 40
547.72187981777995
 41
2.415644171779141
 42
50.0
 43
0.0
 44
0.0
 50
0.0
 51
0.0
 71
    16
 72
   100
 73
     1
 74
     0
 75
     0
 76
     0
 77
     0
 78
     0
  0
ENDTAB
  0
TABLE
  2
LTYPE
 70
     3
  0
LTYPE
  2
CONTINUOUS
 70
     0
  3
Solid Line
 72
    65
 73
     0
 40
0.0
  0
LTYPE
  2
PHANTOM2
 70
     0
  3
___ _ _ ___ _ _ ___ _ _ ___ _ _
 72
    65
 73
     6
 40
1.25
 49
0.625
 49
-0.125
 49
0.125
 49
-0.125
 49
0.125
 49
-0.125
  0
LTYPE
  2
CENTER
 70
     0
  3
____ _ ____ _ ____ _ ____ _ ____ _ ____ _ ____
 72
    65
 73
     4
 40
2.0
 49
1.25
 49
-0.25
 49
0.25
 49
-0.25
  0
ENDTAB
  0
TABLE
  2
LAYER
 70
     3
  0
LAYER
  2
0
 70
     0
 62
     7
  6
CONTINUOUS
  0
LAYER
  2
1
 70
     0
 62
     1
  6
CENTER
  0
LAYER
  2
3
 70
     0
 62
     3
  6
CONTINUOUS
  0
ENDTAB
  0
TABLE
  2
STYLE
 70
     2
  0
STYLE
  2
STANDARD
 70
     0
 40
0.0
 41
1.0
 50
0.0
 71
     0
 42
0.2
  3
SIMPLEX
  4
BIGFONT
  0
STYLE
  2
STANDARD1
 70
     0
 40
0.0
 41
1.0
 50
0.0
 71
     0
 42
3.0
  3
txt
  4

  0
ENDTAB
  0
TABLE
  2
VIEW
 70
     0
  0
ENDTAB
  0
TABLE
  2
UCS
 70
     0
  0
ENDTAB
  0
TABLE
  2
APPID
 70
    29
  0
APPID
  2
ACAD
 70
     0
  0
APPID
  2
ACADANNOTATIVE
 70
     0
  0
APPID
  2
GENIUS_GENOREF_13
 70
     0
  0
APPID
  2
GENIUS_GENOENT_13
 70
     0
  0
APPID
  2
GENIUS_GENBH_13
 70
     0
  0
APPID
  2
GENIUS_GENOBJ_13
 70
     0
  0
APPID
  2
GENIUS_GENODEF_13
 70
     0
  0
APPID
  2
GENIUS_GENOLIS_13
 70
     0
  0
APPID
  2
GENIUS_GENOBJ-NBEHI-BHF_13
 70
     0
  0
APPID
  2
GENIUS_GENOBJ-NBEHI-BHB_13
 70
     0
  0
APPID
  2
GENIUS_GENOBJ-F-PART_13
 70
     0
  0
APPID
  2
GENIUS_GEFSTDP_13
 70
     0
  0
APPID
  2
GENIUS_GENOBJ-N-RSSYM_13
 70
     0
  0
APPID
  2
GENIUS_GENSYMENT_13
 70
     0
  0
APPID
  2
GENIUS_GENOBJ-N-TIT_13
 70
     0
  0
APPID
  2
GENIUS_GENTITLE_13
 70
     0
  0
APPID
  2
GENIUS_GENZVEED_13
 70
     0
  0
APPID
  2
GENIUS_GENOBJ-N-LEADER_13
 70
     0
  0
APPID
  2
GENIUS_GENOBJ-N-FIL_13
 70
     0
  0
APPID
  2
GENIUS_GENOBJ-N-SEC_13
 70
     0
  0
APPID
  2
GENIUS_GENOBJ-N-CRS_13
 70
     0
  0
APPID
  2
GENIUS_GENOBJ-N-ZOO_13
 70
     0
  0
APPID
  2
GENIUS_GENZOO_13
 70
     0
  0
APPID
  2
GENIUS_GENOBJ-F-TOL_13
 70
     0
  0
APPID
  2
GENIUS_GENFIL_13
 70
     0
  0
APPID
  2
GENIUS_GENOBJ-N-CHA_13
 70
     0
  0
APPID
  2
ACAD_MLEADERVER
 70
     0
  0
APPID
  2
ACAD_EXEMPT_FROM_CAD_STANDARDS
 70
     0
  0
APPID
  2
ACAD_NAV_VCDISPLAY
 70
     0
  0
ENDTAB
  0
TABLE
  2
DIMSTYLE
 70
     1
  0
DIMSTYLE
  2
STANDARD
 70
     0
  3

  4

  5

  6

  7

 40
1.0
 41
0.18
 42
0.0625
 43
0.38
 44
0.18
 45
0.0
 46
0.0
 47
0.0
 48
0.0
140
0.18
141
0.09
142
0.0
143
25.399999999999999
144
1.0
145
0.0
146
1.0
147
0.09
 71
     0
 72
     0
 73
     1
 74
     1
 75
     0
 76
     0
 77
     0
 78
     0
170
     0
171
     2
172
     0
173
     0
174
     0
175
     0
176
     0
177
     0
178
     0
  0
ENDTAB
  0
ENDSEC
  0
SECTION
  2
BLOCKS
  0
BLOCK
  8
0
  2
$MODEL_SPACE
 70
     0
 10
0.0
 20
0.0
 30
0.0
  3
$MODEL_SPACE
  1

  0
ENDBLK
  5
E4B
  8
0
  0
BLOCK
 67
     1
  8
0
  2
$PAPER_SPACE
 70
     0
 10
0.0
 20
0.0
 30
0.0
  3
$PAPER_SPACE
  1

  0
ENDBLK
  5
E47
 67
     1
  8
0
  0
ENDSEC
  0
SECTION
  2
ENTITIES
  0
TEXT
  5
ECB
  8
0
 62
     3
 10
0.0
 20
0.0
 30
0.0
 40
10.0
  1
HD-AF12024X190
  7
STANDARD1
  0
LINE
  5
1FA7
  8
0
 10
89.840500000000006
 20
355.0
 30
0.0
 11
88.0
 21
353.15949999999998
 31
0.0
  0
LINE
  5
1FA8
  8
0
 10
112.0
 20
353.15949999999998
 30
0.0
 11
110.15949999999999
 21
355.0
 31
0.0
  0
LINE
  5
1FA9
  8
0
 10
110.15949999999999
 20
355.0
 30
0.0
 11
89.840500000000006
 21
355.0
 31
0.0
  0
LINE
  5
1FAA
  8
0
 10
88.0
 20
353.15949999999998
 30
0.0
 11
88.0
 21
251.0
 31
0.0
  0
LINE
  5
1FAB
  8
0
 10
112.0
 20
251.0
 30
0.0
 11
112.0
 21
353.15949999999998
 31
0.0
  0
LINE
  5
1FAC
  8
0
 10
112.0
 20
353.15949999999998
 30
0.0
 11
88.0
 21
353.15949999999998
 31
0.0
  0
LINE
  5
1FAD
  8
0
 10
110.0
 20
153.5
 30
0.0
 11
110.0
 21
160.5
 31
0.0
  0
LINE
  5
1FAE
  8
0
 10
110.0
 20
160.5
 30
0.0
 11
112.0
 21
160.5
 31
0.0
  0
LINE
  5
1FAF
  8
0
 10
110.0
 20
153.5
 30
0.0
 11
112.0
 21
153.5
 31
0.0
  0
LINE
  5
1FB0
  8
0
 10
90.0
 20
160.5
 30
0.0
 11
90.0
 21
153.5
 31
0.0
  0
LINE
  5
1FB1
  8
0
 10
88.0
 20
165.0
 30
0.0
 11
88.0
 21
160.5
 31
0.0
  0
LINE
  5
1FB2
  8
0
 10
88.0
 20
153.5
 30
0.0
 11
88.0
 21
153.30000000000001
 31
0.0
  0
LINE
  5
1FB3
  8
0
 10
112.0
 20
153.30000000000001
 30
0.0
 11
112.0
 21
153.5
 31
0.0
  0
LINE
  5
1FB4
  8
0
 10
112.0
 20
160.5
 30
0.0
 11
112.0
 21
165.0
 31
0.0
  0
LINE
  5
1FB5
  8
0
 10
88.0
 20
160.5
 30
0.0
 11
90.0
 21
160.5
 31
0.0
  0
LINE
  5
1FB6
  8
0
 10
88.0
 20
153.5
 30
0.0
 11
90.0
 21
153.5
 31
0.0
  0
ARC
  5
1FB7
  8
0
 10
80.999999999999943
 20
153.30000000000001
 30
0.0
 40
7.0000000000000684
 50
322.57199445695778
 51
0.0
  0
ARC
  5
1FB8
  8
0
 10
119.0
 20
153.30000000000001
 30
0.0
 40
7.0000000000000631
 50
180.0
 51
217.42800554304219
  0
LINE
  5
1FB9
  8
0
 10
113.0
 20
140.59999999999999
 30
0.0
 11
87.0
 21
140.59999999999999
 31
0.0
  0
ARC
  5
1FBA
  8
0
 10
87.0
 20
141.34999999999999
 30
0.0
 40
0.7500000000000071
 50
180.0000000000008
 51
269.9999999999992
  0
ARC
  5
1FBB
  8
0
 10
113.0
 20
141.34999999999999
 30
0.0
 40
0.7500000000000071
 50
270.0000000000008
 51
359.9999999999992
  0
ARC
  5
1FBC
  8
0
 10
87.75
 20
148.13400542005701
 30
0.0
 40
1.500000000000014
 50
142.5719944569567
 51
179.9999999999992
  0
ARC
  5
1FBD
  8
0
 10
112.25
 20
148.13400542005701
 30
0.0
 40
1.500000000000012
 50
0.0000000000008142
 51
37.428005543043291
  0
LINE
  5
1FBE
  8
0
 10
86.25
 20
148.13400542005701
 30
0.0
 11
86.25
 21
141.34999999999999
 31
0.0
  0
LINE
  5
1FBF
  8
0
 10
113.75
 20
141.34999999999999
 30
0.0
 11
113.75
 21
148.13400542005701
 31
0.0
  0
ARC
  5
1FC0
  8
0
 10
77.11064432455548
 20
145.64201675658339
 30
0.0
 40
12.00000000000014
 50
311.10540317359067
 51
335.15480153472168
  0
ARC
  5
1FC1
  8
0
 10
122.88935567544441
 20
145.6420167565833
 30
0.0
 40
12.00000000000008
 50
204.8451984652782
 51
228.89459682640981
  0
LINE
  5
1FC2
  8
0
 10
116.0
 20
166.0
 30
0.0
 11
84.0
 21
166.0
 31
0.0
  0
ARC
  5
1FC3
  8
0
 10
83.999999999999986
 20
167.5
 30
0.0
 40
1.4999999999999849
 50
179.9999999999992
 51
270.0
  0
ARC
  5
1FC4
  8
0
 10
116.0
 20
167.5
 30
0.0
 40
1.499999999999992
 50
270.0
 51
0.0
  0
LINE
  5
1FC5
  8
0
 10
115.0
 20
191.5
 30
0.0
 11
115.0
 21
179.5
 31
0.0
  0
LINE
  5
1FC6
  8
0
 10
85.0
 20
191.5
 30
0.0
 11
82.5
 21
191.5
 31
0.0
  0
LINE
  5
1FC7
  8
0
 10
85.0
 20
179.5
 30
0.0
 11
85.0
 21
191.5
 31
0.0
  0
LINE
  5
1FC8
  8
0
 10
85.0
 20
179.5
 30
0.0
 11
82.5
 21
179.5
 31
0.0
  0
LINE
  5
1FC9
  8
0
 10
82.5
 20
249.5
 30
0.0
 11
82.5
 21
191.5
 31
0.0
  0
LINE
  5
1FCA
  8
0
 10
82.5
 20
179.5
 30
0.0
 11
82.5
 21
167.5
 31
0.0
  0
LINE
  5
1FCB
  8
0
 10
117.5
 20
167.5
 30
0.0
 11
117.5
 21
179.5
 31
0.0
  0
LINE
  5
1FCC
  8
0
 10
117.5
 20
191.5
 30
0.0
 11
117.5
 21
249.5
 31
0.0
  0
LINE
  5
1FCD
  8
0
 10
117.5
 20
179.5
 30
0.0
 11
115.0
 21
179.5
 31
0.0
  0
LINE
  5
1FCE
  8
0
 10
117.5
 20
191.5
 30
0.0
 11
115.0
 21
191.5
 31
0.0
  0
LINE
  5
1FCF
  8
0
 10
116.0
 20
251.0
 30
0.0
 11
84.0
 21
251.0
 31
0.0
  0
ARC
  5
1FD0
  8
0
 10
84.0
 20
249.5
 30
0.0
 40
1.5
 50
90.0
 51
179.9999999999992
  0
ARC
  5
1FD1
  8
0
 10
116.0
 20
249.5
 30
0.0
 40
1.499999999999996
 50
0.0000000000008142
 51
90.0
  0
LINE
  5
1FD2
  8
0
 10
85.0
 20
136.59999999999999
 30
0.0
 11
42.161474890173849
 21
124.12922935691731
 31
0.0
  0
LINE
  5
1FD3
  8
0
 10
157.83852510982609
 20
124.12922935691731
 30
0.0
 11
115.0
 21
136.59999999999999
 31
0.0
  0
LINE
  5
1FD4
  8
0
 10
115.0
 20
136.59999999999999
 30
0.0
 11
85.0
 21
136.59999999999999
 31
0.0
  0
ARC
  5
1FD5
  8
0
 10
42.999999999999943
 20
121.2487995903389
 30
0.0
 40
2.9999999999999432
 50
106.23086489035219
 51
180.0000000000008
  0
ARC
  5
1FD6
  8
0
 10
157.0
 20
121.2487995903389
 30
0.0
 40
2.9999999999999432
 50
359.9999999999992
 51
73.769135109647777
  0
LINE
  5
1FD7
  8
0
 10
40.0
 20
121.24879959033881
 30
0.0
 11
40.0
 21
115.0
 31
0.0
  0
LINE
  5
1FD8
  8
0
 10
160.0
 20
115.0
 30
0.0
 11
160.0
 21
121.24879959033881
 31
0.0
  0
LINE
  5
1FD9
  8
0
 10
157.75
 20
105.0
 30
0.0
 11
160.0
 21
115.0
 31
0.0
  0
LINE
  5
1FDA
  8
0
 10
40.0
 20
115.0
 30
0.0
 11
42.25
 21
105.0
 31
0.0
  0
LINE
  5
1FDB
  8
0
 10
157.75
 20
105.0
 30
0.0
 11
42.25
 21
105.0
 31
0.0
  0
LINE
  5
1FDC
  8
0
 10
160.0
 20
115.0
 30
0.0
 11
40.0
 21
115.0
 31
0.0
  0
LINE
  5
1FDD
  8
3
 10
110.15949999999999
 20
355.0
 30
0.0
 11
110.15949999999999
 21
251.0
 31
0.0
  0
LINE
  5
1FDE
  8
3
 10
89.840500000000006
 20
355.0
 30
0.0
 11
89.840500000000006
 21
251.0
 31
0.0
  0
LINE
  5
1FDF
  8
1
 10
100.0
 20
360.0
 30
0.0
 11
100.0
 21
100.0
 31
0.0
  0
LINE
  5
1FE0
  8
1
 10
300.0
 20
360.0
 30
0.0
 11
300.0
 21
100.0
 31
0.0
  0
LINE
  5
1FE1
  8
0
 10
310.15949999999998
 20
355.0
 30
0.0
 11
289.84050000000002
 21
355.0
 31
0.0
  0
LINE
  5
1FE2
  8
0
 10
289.84050000000002
 20
355.0
 30
0.0
 11
288.0
 21
353.15949999999998
 31
0.0
  0
LINE
  5
1FE3
  8
0
 10
312.0
 20
353.15949999999998
 30
0.0
 11
310.15949999999998
 21
355.0
 31
0.0
  0
LINE
  5
1FE4
  8
0
 10
312.0
 20
353.15949999999998
 30
0.0
 11
288.0
 21
353.15949999999998
 31
0.0
  0
LINE
  5
1FE5
  8
0
 10
288.0
 20
353.15949999999998
 30
0.0
 11
288.0
 21
251.0
 31
0.0
  0
LINE
  5
1FE6
  8
0
 10
312.0
 20
251.0
 30
0.0
 11
312.0
 21
353.15949999999998
 31
0.0
  0
LINE
  5
1FE7
  8
0
 10
293.3667504192893
 20
153.5
 30
0.0
 11
306.63324958071092
 21
153.5
 31
0.0
  0
LINE
  5
1FE8
  8
0
 10
293.3667504192893
 20
153.5
 30
0.0
 11
293.3667504192893
 21
160.5
 31
0.0
  0
LINE
  5
1FE9
  8
0
 10
293.3667504192893
 20
160.5
 30
0.0
 11
306.63324958071092
 21
160.5
 31
0.0
  0
LINE
  5
1FEA
  8
0
 10
306.63324958071092
 20
160.5
 30
0.0
 11
306.63324958071092
 21
153.5
 31
0.0
  0
LINE
  5
1FEB
  8
0
 10
288.0
 20
165.0
 30
0.0
 11
288.0
 21
153.30000000000001
 31
0.0
  0
LINE
  5
1FEC
  8
0
 10
312.0
 20
153.30000000000001
 30
0.0
 11
312.0
 21
165.0
 31
0.0
  0
ARC
  5
1FED
  8
0
 10
281.0
 20
153.30000000000001
 30
0.0
 40
7.0000000000000684
 50
322.57199445695721
 51
0.0
  0
ARC
  5
1FEE
  8
0
 10
319.00000000000011
 20
153.30000000000001
 30
0.0
 40
7.0000000000000631
 50
180.0
 51
217.42800554304279
  0
LINE
  5
1FEF
  8
0
 10
313.0
 20
140.59999999999999
 30
0.0
 11
287.00000000945693
 21
140.59999999999999
 31
0.0
  0
ARC
  5
1FF0
  8
0
 10
287.0
 20
141.34999999999999
 30
0.0
 40
0.7500000000000071
 50
180.0000000000008
 51
270.0
  0
ARC
  5
1FF1
  8
0
 10
313.0
 20
141.34999999999999
 30
0.0
 40
0.7500000000000071
 50
270.0
 51
359.9999999999992
  0
ARC
  5
1FF2
  8
0
 10
287.75
 20
148.13400542005701
 30
0.0
 40
1.500000000000014
 50
142.5719944569567
 51
179.9999999999992
  0
ARC
  5
1FF3
  8
0
 10
312.25
 20
148.13400542005701
 30
0.0
 40
1.500000000000012
 50
0.0000000000008142
 51
37.428005543043291
  0
LINE
  5
1FF4
  8
0
 10
286.25
 20
148.13400542005701
 30
0.0
 11
286.25
 21
141.34999999999999
 31
0.0
  0
LINE
  5
1FF5
  8
0
 10
313.75
 20
141.34999999999999
 30
0.0
 11
313.75
 21
148.13400542005701
 31
0.0
  0
ARC
  5
1FF6
  8
0
 10
277.11064432455549
 20
145.64201675658339
 30
0.0
 40
12.00000000000014
 50
311.10540317358959
 51
335.15480153472168
  0
ARC
  5
1FF7
  8
0
 10
322.88935567544451
 20
145.6420167565833
 30
0.0
 40
12.00000000000008
 50
204.8451984652782
 51
228.89459682641041
  0
LINE
  5
1FF8
  8
0
 10
316.0
 20
166.0
 30
0.0
 11
284.00000000623101
 21
166.0
 31
0.0
  0
ARC
  5
1FF9
  8
0
 10
284.0
 20
167.5
 30
0.0
 40
1.4999999999999849
 50
179.9999999999992
 51
270.0
  0
ARC
  5
1FFA
  8
0
 10
316.0
 20
167.5
 30
0.0
 40
1.499999999999992
 50
270.0
 51
0.0
  0
LINE
  5
1FFB
  8
0
 10
309.01387818865999
 20
179.5
 30
0.0
 11
309.01387818865999
 21
191.5
 31
0.0
  0
LINE
  5
1FFC
  8
0
 10
309.01387818865999
 20
179.5
 30
0.0
 11
290.98612181134013
 21
179.5
 31
0.0
  0
LINE
  5
1FFD
  8
0
 10
290.98612181134013
 20
191.5
 30
0.0
 11
290.98612181134013
 21
179.5
 31
0.0
  0
LINE
  5
1FFE
  8
0
 10
309.01387818865999
 20
191.5
 30
0.0
 11
290.98612181134013
 21
191.5
 31
0.0
  0
LINE
  5
1FFF
  8
0
 10
282.5
 20
249.5
 30
0.0
 11
282.5
 21
167.5
 31
0.0
  0
LINE
  5
2000
  8
0
 10
317.5
 20
167.5
 30
0.0
 11
317.5
 21
249.5
 31
0.0
  0
LINE
  5
2001
  8
0
 10
316.0
 20
251.0
 30
0.0
 11
284.00000000623101
 21
251.0
 31
0.0
  0
ARC
  5
2002
  8
0
 10
284.0
 20
249.5
 30
0.0
 40
1.5
 50
90.0
 51
179.9999999999992
  0
ARC
  5
2003
  8
0
 10
316.0
 20
249.5
 30
0.0
 40
1.499999999999996
 50
0.0000000000008142
 51
90.0
  0
LINE
  5
2004
  8
0
 10
315.0
 20
136.59999999999999
 30
0.0
 11
285.0
 21
136.59999999999999
 31
0.0
  0
LINE
  5
2005
  8
0
 10
285.0
 20
136.59999999999999
 30
0.0
 11
242.16147489017391
 21
124.12922935691731
 31
0.0
  0
LINE
  5
2006
  8
0
 10
357.83852510982621
 20
124.12922935691731
 30
0.0
 11
315.0
 21
136.59999999999999
 31
0.0
  0
ARC
  5
2007
  8
0
 10
243.0
 20
121.2487995903389
 30
0.0
 40
2.9999999999999432
 50
106.23086489035219
 51
180.0000000000008
  0
ARC
  5
2008
  8
0
 10
357.00000000000011
 20
121.2487995903389
 30
0.0
 40
2.9999999999999432
 50
359.9999999999992
 51
73.769135109647777
  0
LINE
  5
2009
  8
0
 10
240.0
 20
121.24879959033881
 30
0.0
 11
240.0
 21
115.0
 31
0.0
  0
LINE
  5
200A
  8
0
 10
360.0
 20
115.0
 30
0.0
 11
360.0
 21
121.24879959033881
 31
0.0
  0
LINE
  5
200B
  8
0
 10
357.75
 20
105.0
 30
0.0
 11
242.25
 21
105.0
 31
0.0
  0
LINE
  5
200C
  8
0
 10
360.0
 20
115.0
 30
0.0
 11
240.0
 21
115.0
 31
0.0
  0
LINE
  5
200D
  8
0
 10
357.75
 20
105.0
 30
0.0
 11
360.0
 21
115.0
 31
0.0
  0
LINE
  5
200E
  8
0
 10
240.0
 20
115.0
 30
0.0
 11
242.25
 21
105.0
 31
0.0
  0
LINE
  5
200F
  8
3
 10
289.84050000000002
 20
355.0
 30
0.0
 11
289.84050000000002
 21
251.0
 31
0.0
  0
LINE
  5
2010
  8
3
 10
310.15949999999998
 20
355.0
 30
0.0
 11
310.15949999999998
 21
251.0
 31
0.0
  0
CIRCLE
  5
2011
  8
0
 10
99.999999999999957
 20
475.0
 30
0.0
 40
12.0
  0
CIRCLE
  5
2012
  8
0
 10
100.0
 20
474.99999999999989
 30
0.0
 40
59.999999999999943
  0
CIRCLE
  5
2013
  8
0
 10
99.999999999999915
 20
475.0
 30
0.0
 40
17.500000000000021
  0
CIRCLE
  5
2014
  8
3
 10
99.999999999999957
 20
475.0
 30
0.0
 40
10.1595
  0
LINE
  5
2015
  8
1
 10
100.0
 20
410.0
 30
0.0
 11
100.0
 21
539.99999999999977
 31
0.0
  0
LINE
  5
2016
  8
1
 10
164.99999999999989
 20
475.0
 30
0.0
 11
35.000000000000057
 21
475.0
 31
0.0
  0
LINE
  5
2017
  8
3
 10
290.98612181134013
 20
179.5
 30
0.0
 11
309.01387818865999
 21
191.5
 31
0.0
  0
LINE
  5
2018
  8
3
 10
290.98612181134013
 20
191.5
 30
0.0
 11
309.01387818865999
 21
179.5
 31
0.0
  0
LINE
  5
2019
  8
3
 10
293.3667504192893
 20
153.5
 30
0.0
 11
306.63324958071092
 21
160.5
 31
0.0
  0
LINE
  5
201A
  8
3
 10
293.3667504192893
 20
160.5
 30
0.0
 11
306.63324958071092
 21
153.5
 31
0.0
  0
LINE
  5
201B
  8
0
 10
114.0
 20
165.0
 30
0.0
 11
85.999999999999986
 21
165.0
 31
0.0
  0
ARC
  5
201C
  8
0
 10
85.999999999999986
 20
166.5
 30
0.0
 40
1.4999999999999849
 50
199.4712206344897
 51
270.0
  0
ARC
  5
201D
  8
0
 10
114.0
 20
166.5
 30
0.0
 40
1.499999999999992
 50
270.0
 51
340.52877936550931
  0
LINE
  5
201E
  8
0
 10
314.00000000311547
 20
165.0
 30
0.0
 11
286.00000000311547
 21
165.0
 31
0.0
  0
ARC
  5
201F
  8
0
 10
286.00000000311547
 20
166.5
 30
0.0
 40
1.4999999999999849
 50
199.47122063448941
 51
270.0
  0
ARC
  5
2020
  8
0
 10
314.00000000311547
 20
166.5
 30
0.0
 40
1.499999999999992
 50
270.0
 51
340.52877936550908
  0
ENDSEC
  0
EOF
