  0
SECTION
  2
HEADER
  9
$ACADVER
  1
AC1009
  9
$INSBASE
 10
0.0
 20
0.0
 30
0.0
  9
$EXTMIN
 10
0.0
 20
-1.4802182810368341
 30
0.0
  9
$EXTMAX
 10
67.800000000000011
 20
62.00000000000005
 30
0.0
  9
$LIMMIN
 10
0.0
 20
0.0
  9
$LIMMAX
 10
375.0
 20
270.0
  9
$ORTHOMODE
 70
     1
  9
$REGENMODE
 70
     1
  9
$FILLMODE
 70
     1
  9
$QTEXTMODE
 70
     0
  9
$MIRRTEXT
 70
     0
  9
$DRAGMODE
 70
     2
  9
$LTSCALE
 40
5.0
  9
$OSMODE
 70
    37
  9
$ATTMODE
 70
     1
  9
$TEXTSIZE
 40
0.2
  9
$TRACEWID
 40
0.05
  9
$TEXTSTYLE
  7
STANDARD
  9
$CLAYER
  8
4
  9
$CELTYPE
  6
BYLAYER
  9
$CECOLOR
 62
   256
  9
$DIMSCALE
 40
1.0
  9
$DIMASZ
 40
3.0
  9
$DIMEXO
 40
2.0
  9
$DIMDLI
 40
0.38
  9
$DIMRND
 40
0.0
  9
$DIMDLE
 40
0.0
  9
$DIMEXE
 40
2.0
  9
$DIMTP
 40
0.0
  9
$DIMTM
 40
0.0
  9
$DIMTXT
 40
3.2000000000000002
  9
$DIMCEN
 40
0.09
  9
$DIMTSZ
 40
0.0
  9
$DIMTOL
 70
     0
  9
$DIMLIM
 70
     0
  9
$DIMTIH
 70
     0
  9
$DIMTOH
 70
     0
  9
$DIMSE1
 70
     0
  9
$DIMSE2
 70
     0
  9
$DIMTAD
 70
     1
  9
$DIMZIN
 70
     8
  9
$DIMBLK
  1

  9
$DIMASO
 70
     1
  9
$DIMSHO
 70
     0
  9
$DIMPOST
  1

  9
$DIMAPOST
  1

  9
$DIMALT
 70
     0
  9
$DIMALTD
 70
     2
  9
$DIMALTF
 40
25.399999999999999
  9
$DIMLFAC
 40
1.0
  9
$DIMTOFL
 70
     1
  9
$DIMTVP
 40
1.6000000000000001
  9
$DIMTIX
 70
     1
  9
$DIMSOXD
 70
     0
  9
$DIMSAH
 70
     0
  9
$DIMBLK1
  1

  9
$DIMBLK2
  1

  9
$DIMSTYLE
  2
STANDARD
  9
$DIMCLRD
 70
   256
  9
$DIMCLRE
 70
   256
  9
$DIMCLRT
 70
   256
  9
$DIMTFAC
 40
1.0
  9
$DIMGAP
 40
1.0
  9
$LUNITS
 70
     2
  9
$LUPREC
 70
     1
  9
$SKETCHINC
 40
0.1
  9
$FILLETRAD
 40
0.0
  9
$AUNITS
 70
     0
  9
$AUPREC
 70
     0
  9
$MENU
  1
E:\r13\win\SUPPORT\ACAD
  9
$ELEVATION
 40
0.0
  9
$PELEVATION
 40
0.0
  9
$THICKNESS
 40
0.0
  9
$LIMCHECK
 70
     0
  9
$BLIPMODE
 70
     0
  9
$CHAMFERA
 40
0.0
  9
$CHAMFERB
 40
0.0
  9
$SKPOLY
 70
     0
  9
$TDCREATE
 40
2449839.8447916671
  9
$TDUPDATE
 40
2459207.6377431368
  9
$TDINDWG
 40
0.1113266435
  9
$TDUSRTIMER
 40
0.1113266435
  9
$USRTIMER
 70
     1
  9
$ANGBASE
 50
0.0
  9
$ANGDIR
 70
     0
  9
$PDMODE
 70
     0
  9
$PDSIZE
 40
0.0
  9
$PLINEWID
 40
0.0
  9
$COORDS
 70
     1
  9
$SPLFRAME
 70
     0
  9
$SPLINETYPE
 70
     6
  9
$SPLINESEGS
 70
     8
  9
$ATTDIA
 70
     0
  9
$ATTREQ
 70
     1
  9
$HANDLING
 70
     1
  9
$HANDSEED
  5
D27
  9
$SURFTAB1
 70
     6
  9
$SURFTAB2
 70
     6
  9
$SURFTYPE
 70
     6
  9
$SURFU
 70
     6
  9
$SURFV
 70
     6
  9
$UCSNAME
  2

  9
$UCSORG
 10
0.0
 20
0.0
 30
0.0
  9
$UCSXDIR
 10
1.0
 20
0.0
 30
0.0
  9
$UCSYDIR
 10
0.0
 20
1.0
 30
0.0
  9
$PUCSNAME
  2

  9
$PUCSORG
 10
0.0
 20
0.0
 30
0.0
  9
$PUCSXDIR
 10
1.0
 20
0.0
 30
0.0
  9
$PUCSYDIR
 10
0.0
 20
1.0
 30
0.0
  9
$USERI1
 70
     0
  9
$USERI2
 70
     1
  9
$USERI3
 70
     1
  9
$USERI4
 70
     0
  9
$USERI5
 70
     0
  9
$USERR1
 40
0.0
  9
$USERR2
 40
0.0
  9
$USERR3
 40
0.0
  9
$USERR4
 40
0.0
  9
$USERR5
 40
0.0
  9
$WORLDVIEW
 70
     1
  9
$SHADEDGE
 70
     3
  9
$SHADEDIF
 70
    70
  9
$TILEMODE
 70
     1
  9
$MAXACTVP
 70
    16
  9
$PLIMCHECK
 70
     0
  9
$PEXTMIN
 10
1.0000000000000000E+020
 20
1.0000000000000000E+020
 30
1.0000000000000000E+020
  9
$PEXTMAX
 10
-1.0000000000000000E+020
 20
-1.0000000000000000E+020
 30
-1.0000000000000000E+020
  9
$PLIMMIN
 10
0.0
 20
0.0
  9
$PLIMMAX
 10
12.0
 20
9.0
  9
$UNITMODE
 70
     0
  9
$VISRETAIN
 70
     0
  9
$PLINEGEN
 70
     0
  9
$PSLTSCALE
 70
     0
  0
ENDSEC
  0
SECTION
  2
TABLES
  0
TABLE
  2
VPORT
 70
     1
  0
VPORT
  2
*ACTIVE
 70
     0
 10
0.0
 20
0.0
 11
1.0
 21
1.0
 12
132.35294117647061
 22
50.0
 13
0.0
 23
0.0
 14
10.0
 24
10.0
 15
10.0
 25
10.0
 16
0.0
 26
0.0
 36
1.0
 17
0.0
 27
0.0
 37
0.0
 40
100.0
 41
2.6470588235294108
 42
50.0
 43
0.0
 44
0.0
 50
0.0
 51
0.0
 71
     0
 72
   500
 73
     1
 74
     0
 75
     0
 76
     0
 77
     0
 78
     2
  0
ENDTAB
  0
TABLE
  2
LTYPE
 70
     4
  0
LTYPE
  2
CONTINUOUS
 70
     0
  3
Solid Line
 72
    65
 73
     0
 40
0.0
  0
LTYPE
  2
CENTER
 70
     0
  3
____ _ ____ _ ____ _ ____ _ ____ _ ____ _ ____
 72
    65
 73
     4
 40
2.0
 49
1.25
 49
-0.25
 49
0.25
 49
-0.25
  0
LTYPE
  2
HIDDEN
 70
     0
  3
_ _ _ _ _ _ _ _ _ _ _ _ _ _ _ _ _ _ _ _ _ _ _
 72
    65
 73
     2
 40
0.375
 49
0.25
 49
-0.125
  0
LTYPE
  2
PHANTOM2
 70
     0
  3
___ _ _ ___ _ _ ___ _ _ ___ _ _
 72
    65
 73
     6
 40
1.25
 49
0.625
 49
-0.125
 49
0.125
 49
-0.125
 49
0.125
 49
-0.125
  0
ENDTAB
  0
TABLE
  2
LAYER
 70
     6
  0
LAYER
  2
0
 70
     0
 62
     7
  6
CONTINUOUS
  0
LAYER
  2
1
 70
     0
 62
     1
  6
CENTER
  0
LAYER
  2
2
 70
     0
 62
     2
  6
HIDDEN
  0
LAYER
  2
DEFPOINTS
 70
     0
 62
     7
  6
CONTINUOUS
  0
LAYER
  2
4
 70
     0
 62
     4
  6
CONTINUOUS
  0
LAYER
  2
3
 70
     0
 62
     3
  6
CONTINUOUS
  0
ENDTAB
  0
TABLE
  2
STYLE
 70
     2
  0
STYLE
  2
STANDARD
 70
     0
 40
0.0
 41
1.0
 50
0.0
 71
     0
 42
0.2
  3
TXT
  4
BIGFONT
  0
STYLE
  2
STANDARD1
 70
     0
 40
0.0
 41
1.0
 50
0.0
 71
     0
 42
3.0
  3
txt
  4

  0
ENDTAB
  0
TABLE
  2
VIEW
 70
     1
  0
VIEW
  2
ALL
 70
     0
 40
270.0
 10
220.99159663865549
 20
135.0
 41
0.0
 11
0.0
 21
0.0
 31
1.0
 12
0.0
 22
0.0
 32
0.0
 42
0.0
 43
0.0
 44
0.0
 50
0.0
 71
     0
  0
ENDTAB
  0
TABLE
  2
UCS
 70
     0
  0
ENDTAB
  0
TABLE
  2
APPID
 70
     9
  0
APPID
  2
ACAD
 70
     0
  0
APPID
  2
ACAD_MLEADERVER
 70
     0
  0
APPID
  2
ACAD_NAV_VCDISPLAY
 70
     0
  0
APPID
  2
ACAD_EXEMPT_FROM_CAD_STANDARDS
 70
     0
  0
APPID
  2
ACAD_DSTYLE_DIMJAG
 70
     0
  0
APPID
  2
ACAD_DSTYLE_DIMTALN
 70
     0
  0
APPID
  2
ACAECLAYERSTANDARD
 70
     0
  0
APPID
  2
ACCMTRANSPARENCY
 70
     0
  0
APPID
  2
DCO15
 70
     0
  0
ENDTAB
  0
TABLE
  2
DIMSTYLE
 70
     1
  0
DIMSTYLE
  2
STANDARD
 70
     0
  3

  4

  5

  6

  7

 40
1.0
 41
0.18
 42
0.0625
 43
0.38
 44
0.18
 45
0.0
 46
0.0
 47
0.0
 48
0.0
140
0.18
141
0.09
142
0.0
143
25.399999999999999
144
1.0
145
0.0
146
1.0
147
0.09
 71
     0
 72
     0
 73
     1
 74
     1
 75
     0
 76
     0
 77
     0
 78
     0
170
     0
171
     2
172
     0
173
     0
174
     0
175
     0
176
     0
177
     0
178
     0
  0
ENDTAB
  0
ENDSEC
  0
SECTION
  2
BLOCKS
  0
BLOCK
  8
0
  2
$MODEL_SPACE
 70
     0
 10
0.0
 20
0.0
 30
0.0
  3
$MODEL_SPACE
  1

  0
ENDBLK
  5
10E
  8
0
  0
BLOCK
 67
     1
  8
0
  2
$PAPER_SPACE
 70
     0
 10
0.0
 20
0.0
 30
0.0
  3
$PAPER_SPACE
  1

  0
ENDBLK
  5
10C
 67
     1
  8
0
  0
ENDSEC
  0
SECTION
  2
ENTITIES
  0
TEXT
  5
4DC
  8
0
 62
     3
 10
0.0
 20
0.0
 30
0.0
 40
5.0
  1
HD-BHS03X10
  7
STANDARD1
  0
LINE
  5
8B6
  8
0
 10
56.000000000000028
 20
28.899999999999999
 30
0.0
 11
56.153589838486262
 21
28.899999999999999
 31
0.0
  0
LINE
  5
8B7
  8
0
 10
56.153589838486262
 20
31.099999999999991
 30
0.0
 11
56.000000000000028
 21
31.099999999999991
 31
0.0
  0
ARC
  5
8B8
  8
0
 10
56.153589838486262
 20
28.699999999999982
 30
0.0
 40
0.2000000000000067
 50
60.000000000000071
 51
89.999999999998366
  0
ARC
  5
8B9
  8
0
 10
56.153589838486262
 20
31.300000000000011
 30
0.0
 40
0.2000000000000082
 50
270.0
 51
299.99999999999989
  0
ARC
  5
8BB
  8
0
 10
56.000000000000028
 20
28.699999999999982
 30
0.0
 40
0.2000000000000002
 50
90.0
 51
180.0
  0
ARC
  5
8BC
  8
0
 10
56.000000000000028
 20
31.300000000000011
 30
0.0
 40
0.2
 50
180.0
 51
270.0
  0
LINE
  5
8BE
  8
0
 10
56.253589838486249
 20
28.873205080756879
 30
0.0
 11
56.900000000000027
 21
28.5
 31
0.0
  0
LINE
  5
8BF
  8
0
 10
56.900000000000027
 20
31.499999999999989
 30
0.0
 11
56.253589838486249
 21
31.12679491924311
 31
0.0
  0
LINE
  5
8C1
  8
0
 10
65.800000000000011
 20
31.19349999999999
 30
0.0
 11
65.493500000000012
 21
31.499999999999989
 31
0.0
  0
LINE
  5
8C2
  8
0
 10
65.493500000000012
 20
28.5
 30
0.0
 11
65.800000000000011
 21
28.806499999999989
 31
0.0
  0
LINE
  5
8C3
  8
0
 10
65.800000000000011
 20
31.19349999999999
 30
0.0
 11
65.800000000000011
 21
28.806499999999989
 31
0.0
  0
LINE
  5
8C4
  8
0
 10
56.900000000000027
 20
28.5
 30
0.0
 11
65.493500000000012
 21
28.5
 31
0.0
  0
LINE
  5
8C5
  8
0
 10
65.493500000000012
 20
31.499999999999989
 30
0.0
 11
56.900000000000027
 21
31.499999999999989
 31
0.0
  0
LINE
  5
8C6
  8
0
 10
65.493500000000012
 20
31.499999999999989
 30
0.0
 11
65.493500000000012
 21
28.5
 31
0.0
  0
LINE
  5
8C7
  8
0
 10
56.900000000000027
 20
31.499999999999989
 30
0.0
 11
56.900000000000027
 21
28.5
 31
0.0
  0
LINE
  5
8C8
  8
0
 10
55.680816411546942
 20
26.0
 30
0.0
 11
55.800000000000011
 21
26.0
 31
0.0
  0
LINE
  5
8C9
  8
0
 10
55.800000000000011
 20
33.999999999999993
 30
0.0
 11
55.680816411546942
 21
33.999999999999993
 31
0.0
  0
LINE
  5
8CA
  8
0
 10
55.800000000000011
 20
33.999999999999993
 30
0.0
 11
55.800000000000011
 21
26.0
 31
0.0
  0
POLYLINE
  5
8CB
  8
0
 66
     1
 10
0.0
 20
0.0
 30
0.0
  0
VERTEX
  5
CAF
  8
0
 10
55.100000000000023
 20
32.800000000000011
 30
0.0
  0
VERTEX
  5
CB0
  8
0
 10
55.0989720345029
 20
32.774989655309383
 30
0.0
  0
VERTEX
  5
CB1
  8
0
 10
55.095237219676001
 20
32.746755431093902
 30
0.0
  0
VERTEX
  5
CB2
  8
0
 10
55.084639064274029
 20
32.70523395603265
 30
0.0
  0
VERTEX
  5
CB3
  8
0
 10
55.071095448388228
 20
32.671519426125251
 30
0.0
  0
VERTEX
  5
CB4
  8
0
 10
55.051756373800259
 20
32.636847530662401
 30
0.0
  0
VERTEX
  5
CB5
  8
0
 10
55.032715760433859
 20
32.610676533821838
 30
0.0
  0
VERTEX
  5
CB6
  8
0
 10
55.00338331143336
 20
32.57946603746722
 30
0.0
  0
VERTEX
  5
CB7
  8
0
 10
54.978445188089097
 20
32.558811205266032
 30
0.0
  0
VERTEX
  5
CB8
  8
0
 10
54.955197662172679
 20
32.543263392450278
 30
0.0
  0
VERTEX
  5
CB9
  8
0
 10
54.91411784566565
 20
32.52224660125912
 30
0.0
  0
VERTEX
  5
CBA
  8
0
 10
54.877764830636089
 20
32.509990253427212
 30
0.0
  0
VERTEX
  5
CBB
  8
0
 10
54.84540163935673
 20
32.503455414576621
 30
0.0
  0
VERTEX
  5
CBC
  8
0
 10
54.800000000000011
 20
32.5
 30
0.0
  0
SEQEND
  5
CBD
  8
0
  0
LINE
  5
8CC
  8
0
 10
54.800000000000011
 20
32.5
 30
0.0
 11
54.589012073452999
 21
32.5
 31
0.0
  0
POLYLINE
  5
8CD
  8
0
 66
     1
 10
0.0
 20
0.0
 30
0.0
  0
VERTEX
  5
CBE
  8
0
 10
54.800000000000011
 20
27.5
 30
0.0
  0
VERTEX
  5
CBF
  8
0
 10
54.84120214311028
 20
27.497254472884769
 30
0.0
  0
VERTEX
  5
CC0
  8
0
 10
54.88938494524735
 20
27.486374460389239
 30
0.0
  0
VERTEX
  5
CC1
  8
0
 10
54.917799279706912
 20
27.475941634198669
 30
0.0
  0
VERTEX
  5
CC2
  8
0
 10
54.949054740124353
 20
27.460351079211271
 30
0.0
  0
VERTEX
  5
CC3
  8
0
 10
54.971609978647763
 20
27.44609491669436
 30
0.0
  0
VERTEX
  5
CC4
  8
0
 10
54.995810682023539
 20
27.42728435231114
 30
0.0
  0
VERTEX
  5
CC5
  8
0
 10
55.02407739236272
 20
27.3994726102299
 30
0.0
  0
VERTEX
  5
CC6
  8
0
 10
55.046682851402949
 20
27.370726596708661
 30
0.0
  0
VERTEX
  5
CC7
  8
0
 10
55.067053937398157
 20
27.336682824525091
 30
0.0
  0
VERTEX
  5
CC8
  8
0
 10
55.080114721349617
 20
27.307404575709079
 30
0.0
  0
VERTEX
  5
CC9
  8
0
 10
55.09270337866792
 20
27.265762695476941
 30
0.0
  0
VERTEX
  5
CCA
  8
0
 10
55.098487940145333
 20
27.23044802227809
 30
0.0
  0
VERTEX
  5
CCB
  8
0
 10
55.100000000000023
 20
27.199999999999982
 30
0.0
  0
SEQEND
  5
CCC
  8
0
  0
LINE
  5
8CE
  8
0
 10
55.100000000000023
 20
27.199999999999982
 30
0.0
 11
55.100000000000023
 21
26.666833337500229
 31
0.0
  0
ARC
  5
8CF
  8
0
 10
59.599999999999739
 20
30.00000000000022
 30
0.0
 40
5.5999999999996533
 50
134.41530859719219
 51
143.47251491833899
  0
ARC
  5
8D0
  8
0
 10
59.599999999999987
 20
30.0
 30
0.0
 40
5.5999999999999828
 50
153.48522536574049
 51
206.5147746342594
  0
ARC
  5
8D1
  8
0
 10
59.600000000000712
 20
30.000000000000561
 30
0.0
 40
5.600000000000894
 50
216.52748508166351
 51
225.5846914028055
  0
LINE
  5
8D2
  8
0
 10
55.100000000000023
 20
33.333166662499792
 30
0.0
 11
55.100000000000023
 21
32.800000000000011
 31
0.0
  0
LINE
  5
8D3
  8
0
 10
55.680816411546942
 20
33.999999999999993
 30
0.0
 11
55.680816411546942
 21
26.0
 31
0.0
  0
LINE
  5
8D4
  8
0
 10
54.589012073452999
 20
27.5
 30
0.0
 11
54.800000000000011
 21
27.5
 31
0.0
  0
LINE
  5
8D5
  8
3
 10
65.800000000000011
 20
31.19349999999999
 30
0.0
 11
56.369126427480147
 21
31.19349999999999
 31
0.0
  0
LINE
  5
8D7
  8
3
 10
65.800000000000011
 20
28.806499999999989
 30
0.0
 11
56.369126427480182
 21
28.806499999999989
 31
0.0
  0
POLYLINE
  5
8E6
  8
0
 66
     1
 10
0.0
 20
0.0
 30
0.0
  0
VERTEX
  5
CCD
  8
0
 10
28.561250543006171
 20
32.5
 30
0.0
  0
VERTEX
  5
CCE
  8
0
 10
28.434728312456912
 20
32.502745527115223
 30
0.0
  0
VERTEX
  5
CCF
  8
0
 10
28.311274903202271
 20
32.51362553961075
 30
0.0
  0
VERTEX
  5
CD0
  8
0
 10
28.248967412373649
 20
32.524058365801316
 30
0.0
  0
VERTEX
  5
CD1
  8
0
 10
28.189229018131531
 20
32.539648920788707
 30
0.0
  0
VERTEX
  5
CD2
  8
0
 10
28.151875083440419
 20
32.553905083305629
 30
0.0
  0
VERTEX
  5
CD3
  8
0
 10
28.117827074796711
 20
32.572715647688852
 30
0.0
  0
VERTEX
  5
CD4
  8
0
 10
28.087360571364911
 20
32.600527389770093
 30
0.0
  0
VERTEX
  5
CD5
  8
0
 10
28.072767705999951
 20
32.629273403291329
 30
0.0
  0
VERTEX
  5
CD6
  8
0
 10
28.071492386231629
 20
32.663317175474887
 30
0.0
  0
VERTEX
  5
CD7
  8
0
 10
28.081519625086859
 20
32.692595424290907
 30
0.0
  0
VERTEX
  5
CD8
  8
0
 10
28.111025799571909
 20
32.734237304523042
 30
0.0
  0
VERTEX
  5
CD9
  8
0
 10
28.14906659659113
 20
32.769551977721903
 30
0.0
  0
VERTEX
  5
CDA
  8
0
 10
28.191685867997482
 20
32.800000000000011
 30
0.0
  0
SEQEND
  5
CDB
  8
0
  0
ARC
  5
8E7
  8
0
 10
30.0
 20
30.0
 30
0.0
 40
3.3331666624997829
 50
57.14455531554264
 51
122.8554446844573
  0
POLYLINE
  5
8E8
  8
0
 66
     1
 10
0.0
 20
0.0
 30
0.0
  0
VERTEX
  5
CDC
  8
0
 10
31.808314132002469
 20
32.800000000000011
 30
0.0
  0
VERTEX
  5
CDD
  8
0
 10
31.843955827857432
 20
32.774989655309383
 30
0.0
  0
VERTEX
  5
CDE
  8
0
 10
31.876818290289069
 20
32.746755431093902
 30
0.0
  0
VERTEX
  5
CDF
  8
0
 10
31.911341116401651
 20
32.70523395603265
 30
0.0
  0
VERTEX
  5
CE0
  8
0
 10
31.926657083714051
 20
32.671519426125251
 30
0.0
  0
VERTEX
  5
CE1
  8
0
 10
31.928863659456709
 20
32.636847530662401
 30
0.0
  0
VERTEX
  5
CE2
  8
0
 10
31.91944854340051
 20
32.610676533821838
 30
0.0
  0
VERTEX
  5
CE3
  8
0
 10
31.89142009610336
 20
32.57946603746722
 30
0.0
  0
VERTEX
  5
CE4
  8
0
 10
31.858414551391888
 20
32.558811205266032
 30
0.0
  0
VERTEX
  5
CE5
  8
0
 10
31.821434203899742
 20
32.543263392450278
 30
0.0
  0
VERTEX
  5
CE6
  8
0
 10
31.7437605966037
 20
32.52224660125912
 30
0.0
  0
VERTEX
  5
CE7
  8
0
 10
31.661427711909109
 20
32.509990253427212
 30
0.0
  0
VERTEX
  5
CE8
  8
0
 10
31.57686569377228
 20
32.503455414576621
 30
0.0
  0
VERTEX
  5
CE9
  8
0
 10
31.438749456989399
 20
32.5
 30
0.0
  0
SEQEND
  5
CEA
  8
0
  0
LINE
  5
8E9
  8
0
 10
31.438749456989399
 20
32.5
 30
0.0
 11
28.561250543006171
 21
32.5
 31
0.0
  0
CIRCLE
  5
8EA
  8
0
 10
30.0
 20
30.0
 30
0.0
 40
4.0
  0
POLYLINE
  5
8EB
  8
0
 66
     1
 10
0.0
 20
0.0
 30
0.0
  0
VERTEX
  5
CEB
  8
0
 10
31.438749456993779
 20
27.5
 30
0.0
  0
VERTEX
  5
CEC
  8
0
 10
31.565271687543
 20
27.497254472884769
 30
0.0
  0
VERTEX
  5
CED
  8
0
 10
31.688725096797668
 20
27.486374460389239
 30
0.0
  0
VERTEX
  5
CEE
  8
0
 10
31.751032587626302
 20
27.475941634198669
 30
0.0
  0
VERTEX
  5
CEF
  8
0
 10
31.810770981868419
 20
27.460351079211271
 30
0.0
  0
VERTEX
  5
CF0
  8
0
 10
31.848124916559531
 20
27.44609491669436
 30
0.0
  0
VERTEX
  5
CF1
  8
0
 10
31.882172925203239
 20
27.42728435231114
 30
0.0
  0
VERTEX
  5
CF2
  8
0
 10
31.912639428635028
 20
27.3994726102299
 30
0.0
  0
VERTEX
  5
CF3
  8
0
 10
31.927232293999971
 20
27.370726596708661
 30
0.0
  0
VERTEX
  5
CF4
  8
0
 10
31.928507613768321
 20
27.336682824525091
 30
0.0
  0
VERTEX
  5
CF5
  8
0
 10
31.918480374913091
 20
27.307404575709079
 30
0.0
  0
VERTEX
  5
CF6
  8
0
 10
31.888974200428009
 20
27.265762695476941
 30
0.0
  0
VERTEX
  5
CF7
  8
0
 10
31.850933403408821
 20
27.23044802227809
 30
0.0
  0
VERTEX
  5
CF8
  8
0
 10
31.808314132002469
 20
27.199999999999982
 30
0.0
  0
SEQEND
  5
CF9
  8
0
  0
ARC
  5
8EC
  8
0
 10
30.0
 20
30.0
 30
0.0
 40
3.3331666624997869
 50
237.14455531554259
 51
302.85544468445732
  0
POLYLINE
  5
8ED
  8
0
 66
     1
 10
0.0
 20
0.0
 30
0.0
  0
VERTEX
  5
CFA
  8
0
 10
28.191685867997482
 20
27.199999999999982
 30
0.0
  0
VERTEX
  5
CFB
  8
0
 10
28.156044172142568
 20
27.22501034469061
 30
0.0
  0
VERTEX
  5
CFC
  8
0
 10
28.123181709710941
 20
27.253244568906059
 30
0.0
  0
VERTEX
  5
CFD
  8
0
 10
28.088658883598331
 20
27.294766043967339
 30
0.0
  0
VERTEX
  5
CFE
  8
0
 10
28.07334291628592
 20
27.328480573874739
 30
0.0
  0
VERTEX
  5
CFF
  8
0
 10
28.071136340543259
 20
27.363152469337589
 30
0.0
  0
VERTEX
  5
D00
  8
0
 10
28.08055145659949
 20
27.389323466178119
 30
0.0
  0
VERTEX
  5
D01
  8
0
 10
28.108579903896612
 20
27.420533962532769
 30
0.0
  0
VERTEX
  5
D02
  8
0
 10
28.141585448608112
 20
27.441188794733961
 30
0.0
  0
VERTEX
  5
D03
  8
0
 10
28.17856579610023
 20
27.456736607549711
 30
0.0
  0
VERTEX
  5
D04
  8
0
 10
28.256239403396311
 20
27.47775339874087
 30
0.0
  0
VERTEX
  5
D05
  8
0
 10
28.338572288090859
 20
27.490009746572781
 30
0.0
  0
VERTEX
  5
D06
  8
0
 10
28.42313430622767
 20
27.496544585423369
 30
0.0
  0
VERTEX
  5
D07
  8
0
 10
28.561250543006171
 20
27.5
 30
0.0
  0
SEQEND
  5
D08
  8
0
  0
LINE
  5
8EE
  8
0
 10
28.561250543006171
 20
27.5
 30
0.0
 11
31.438749456993779
 21
27.5
 31
0.0
  0
LINE
  5
8F3
  8
0
 10
56.000000000000028
 20
56.900000000000013
 30
0.0
 11
56.153589838486262
 21
56.900000000000013
 31
0.0
  0
LINE
  5
8F4
  8
0
 10
56.153589838486262
 20
59.100000000000001
 30
0.0
 11
56.000000000000028
 21
59.100000000000001
 31
0.0
  0
ARC
  5
8F6
  8
0
 10
56.153589838486262
 20
56.699999999999989
 30
0.0
 40
0.2000000000000067
 50
60.000000000000071
 51
89.999999999998366
  0
ARC
  5
8F7
  8
0
 10
56.153589838486262
 20
59.300000000000011
 30
0.0
 40
0.2000000000000082
 50
270.0
 51
299.99999999999812
  0
ARC
  5
8F9
  8
0
 10
56.000000000000028
 20
56.699999999999989
 30
0.0
 40
0.2000000000000002
 50
90.0
 51
180.0
  0
ARC
  5
8FA
  8
0
 10
56.000000000000028
 20
59.300000000000011
 30
0.0
 40
0.2
 50
180.0
 51
270.0
  0
LINE
  5
8FC
  8
0
 10
56.253589838486249
 20
56.87320508075689
 30
0.0
 11
56.900000000000027
 21
56.5
 31
0.0
  0
LINE
  5
8FD
  8
0
 10
56.900000000000027
 20
59.5
 30
0.0
 11
56.253589838486249
 21
59.12679491924311
 31
0.0
  0
LINE
  5
8FE
  8
0
 10
65.800000000000011
 20
59.1935
 30
0.0
 11
65.800000000000011
 21
56.806499999999993
 31
0.0
  0
LINE
  5
8FF
  8
0
 10
65.800000000000011
 20
59.1935
 30
0.0
 11
65.49350000000004
 21
59.5
 31
0.0
  0
LINE
  5
900
  8
0
 10
65.49350000000004
 20
56.5
 30
0.0
 11
65.800000000000011
 21
56.806499999999993
 31
0.0
  0
LINE
  5
901
  8
0
 10
65.49350000000004
 20
59.5
 30
0.0
 11
65.49350000000004
 21
56.5
 31
0.0
  0
LINE
  5
902
  8
0
 10
56.900000000000027
 20
59.5
 30
0.0
 11
56.900000000000027
 21
56.5
 31
0.0
  0
LINE
  5
903
  8
0
 10
56.900000000000027
 20
56.5
 30
0.0
 11
65.49350000000004
 21
56.5
 31
0.0
  0
LINE
  5
904
  8
0
 10
65.49350000000004
 20
59.5
 30
0.0
 11
56.900000000000027
 21
59.5
 31
0.0
  0
LINE
  5
906
  8
0
 10
55.80000000000004
 20
62.0
 30
0.0
 11
55.80000000000004
 21
54.0
 31
0.0
  0
LINE
  5
907
  8
0
 10
55.680816411546942
 20
54.0
 30
0.0
 11
55.80000000000004
 21
54.0
 31
0.0
  0
LINE
  5
908
  8
0
 10
55.80000000000004
 20
62.0
 30
0.0
 11
55.680816411546942
 21
62.0
 31
0.0
  0
POLYLINE
  5
909
  8
0
 66
     1
 10
0.0
 20
0.0
 30
0.0
  0
VERTEX
  5
D09
  8
0
 10
54.800000000000011
 20
59.438749456993811
 30
0.0
  0
VERTEX
  5
D0A
  8
0
 10
54.841202143110308
 20
59.565271687543053
 30
0.0
  0
VERTEX
  5
D0B
  8
0
 10
54.889384945247372
 20
59.688725096797732
 30
0.0
  0
VERTEX
  5
D0C
  8
0
 10
54.917799279706941
 20
59.751032587626327
 30
0.0
  0
VERTEX
  5
D0D
  8
0
 10
54.949054740124382
 20
59.810770981868437
 30
0.0
  0
VERTEX
  5
D0E
  8
0
 10
54.971609978647791
 20
59.848124916559549
 30
0.0
  0
VERTEX
  5
D0F
  8
0
 10
54.995810682023539
 20
59.882172925203257
 30
0.0
  0
VERTEX
  5
D10
  8
0
 10
55.024077392362749
 20
59.91263942863506
 30
0.0
  0
VERTEX
  5
D11
  8
0
 10
55.046682851402949
 20
59.927232294000021
 30
0.0
  0
VERTEX
  5
D12
  8
0
 10
55.067053937398157
 20
59.928507613768353
 30
0.0
  0
VERTEX
  5
D13
  8
0
 10
55.080114721349617
 20
59.918480374913123
 30
0.0
  0
VERTEX
  5
D14
  8
0
 10
55.09270337866792
 20
59.888974200428073
 30
0.0
  0
VERTEX
  5
D15
  8
0
 10
55.098487940145333
 20
59.850933403408867
 30
0.0
  0
VERTEX
  5
D16
  8
0
 10
55.100000000000023
 20
59.808314132002486
 30
0.0
  0
SEQEND
  5
D17
  8
0
  0
LINE
  5
90A
  8
0
 10
55.100000000000023
 20
59.808314132002486
 30
0.0
 11
55.100000000000023
 21
56.191685867997514
 31
0.0
  0
POLYLINE
  5
90B
  8
0
 66
     1
 10
0.0
 20
0.0
 30
0.0
  0
VERTEX
  5
D18
  8
0
 10
55.100000000000023
 20
56.191685867997514
 30
0.0
  0
VERTEX
  5
D19
  8
0
 10
55.098972034502928
 20
56.156044172142543
 30
0.0
  0
VERTEX
  5
D1A
  8
0
 10
55.095237219676022
 20
56.123181709710927
 30
0.0
  0
VERTEX
  5
D1B
  8
0
 10
55.084639064274029
 20
56.088658883598328
 30
0.0
  0
VERTEX
  5
D1C
  8
0
 10
55.071095448388263
 20
56.073342916285931
 30
0.0
  0
VERTEX
  5
D1D
  8
0
 10
55.051756373800288
 20
56.071136340543262
 30
0.0
  0
VERTEX
  5
D1E
  8
0
 10
55.032715760433859
 20
56.080551456599501
 30
0.0
  0
VERTEX
  5
D1F
  8
0
 10
55.003383311433389
 20
56.108579903896612
 30
0.0
  0
VERTEX
  5
D20
  8
0
 10
54.978445188089097
 20
56.141585448608112
 30
0.0
  0
VERTEX
  5
D21
  8
0
 10
54.955197662172679
 20
56.17856579610023
 30
0.0
  0
VERTEX
  5
D22
  8
0
 10
54.91411784566565
 20
56.256239403396307
 30
0.0
  0
VERTEX
  5
D23
  8
0
 10
54.877764830636117
 20
56.338572288090859
 30
0.0
  0
VERTEX
  5
D24
  8
0
 10
54.84540163935673
 20
56.423134306227702
 30
0.0
  0
VERTEX
  5
D25
  8
0
 10
54.800000000000011
 20
56.561250543010573
 30
0.0
  0
SEQEND
  5
D26
  8
0
  0
ARC
  5
90C
  8
0
 10
59.599999999985101
 20
58.000000000002188
 30
0.0
 40
5.0109879265320849
 50
163.31445147949589
 51
196.685548520504
  0
LINE
  5
90D
  8
0
 10
55.680816411546942
 20
62.0
 30
0.0
 11
55.680816411546942
 21
54.0
 31
0.0
  0
ARC
  5
90E
  8
0
 10
59.600000000000023
 20
58.0
 30
0.0
 40
5.5999999999999961
 50
134.41530859719219
 51
225.58469140280781
  0
LINE
  5
90F
  8
3
 10
65.800000000000011
 20
56.806499999999993
 30
0.0
 11
56.369126427480147
 21
56.806499999999993
 31
0.0
  0
LINE
  5
911
  8
3
 10
65.800000000000011
 20
59.1935
 30
0.0
 11
56.369126427480182
 21
59.1935
 31
0.0
  0
LINE
  5
C24
  8
1
 10
67.800000000000011
 20
30.0
 30
0.0
 11
52.0
 21
30.0
 31
0.0
  0
LINE
  5
C28
  8
1
 10
67.800000000000011
 20
58.0
 30
0.0
 11
52.000000000000021
 21
58.0
 31
0.0
  0
LINE
  5
C31
  8
1
 10
30.0
 20
36.0
 30
0.0
 11
30.0
 21
23.999999999999989
 31
0.0
  0
LINE
  5
C32
  8
1
 10
36.0
 20
30.0
 30
0.0
 11
24.0
 21
30.0
 31
0.0
  0
ENDSEC
  0
EOF
