  0
SECTION
  2
HEADER
  9
$ACADVER
  1
AC1009
  9
$INSBASE
 10
0.0
 20
0.0
 30
0.0
  9
$EXTMIN
 10
0.0
 20
-1.4802182810368341
 30
0.0
  9
$EXTMAX
 10
70.400000000000034
 20
66.5
 30
0.0
  9
$LIMMIN
 10
0.0
 20
0.0
  9
$LIMMAX
 10
375.0
 20
270.0
  9
$ORTHOMODE
 70
     1
  9
$REGENMODE
 70
     1
  9
$FILLMODE
 70
     1
  9
$QTEXTMODE
 70
     0
  9
$MIRRTEXT
 70
     0
  9
$DRAGMODE
 70
     2
  9
$LTSCALE
 40
5.0
  9
$OSMODE
 70
    37
  9
$ATTMODE
 70
     1
  9
$TEXTSIZE
 40
0.2
  9
$TRACEWID
 40
0.05
  9
$TEXTSTYLE
  7
STANDARD
  9
$CLAYER
  8
4
  9
$CELTYPE
  6
BYLAYER
  9
$CECOLOR
 62
   256
  9
$DIMSCALE
 40
1.0
  9
$DIMASZ
 40
3.0
  9
$DIMEXO
 40
2.0
  9
$DIMDLI
 40
0.38
  9
$DIMRND
 40
0.0
  9
$DIMDLE
 40
0.0
  9
$DIMEXE
 40
2.0
  9
$DIMTP
 40
0.0
  9
$DIMTM
 40
0.0
  9
$DIMTXT
 40
3.2000000000000002
  9
$DIMCEN
 40
0.09
  9
$DIMTSZ
 40
0.0
  9
$DIMTOL
 70
     0
  9
$DIMLIM
 70
     0
  9
$DIMTIH
 70
     0
  9
$DIMTOH
 70
     0
  9
$DIMSE1
 70
     0
  9
$DIMSE2
 70
     0
  9
$DIMTAD
 70
     1
  9
$DIMZIN
 70
     8
  9
$DIMBLK
  1

  9
$DIMASO
 70
     1
  9
$DIMSHO
 70
     0
  9
$DIMPOST
  1

  9
$DIMAPOST
  1

  9
$DIMALT
 70
     0
  9
$DIMALTD
 70
     2
  9
$DIMALTF
 40
25.399999999999999
  9
$DIMLFAC
 40
1.0
  9
$DIMTOFL
 70
     1
  9
$DIMTVP
 40
1.6000000000000001
  9
$DIMTIX
 70
     1
  9
$DIMSOXD
 70
     0
  9
$DIMSAH
 70
     0
  9
$DIMBLK1
  1

  9
$DIMBLK2
  1

  9
$DIMSTYLE
  2
STANDARD
  9
$DIMCLRD
 70
   256
  9
$DIMCLRE
 70
   256
  9
$DIMCLRT
 70
   256
  9
$DIMTFAC
 40
1.0
  9
$DIMGAP
 40
1.0
  9
$LUNITS
 70
     2
  9
$LUPREC
 70
     1
  9
$SKETCHINC
 40
0.1
  9
$FILLETRAD
 40
0.0
  9
$AUNITS
 70
     0
  9
$AUPREC
 70
     0
  9
$MENU
  1
E:\r13\win\SUPPORT\ACAD
  9
$ELEVATION
 40
0.0
  9
$PELEVATION
 40
0.0
  9
$THICKNESS
 40
0.0
  9
$LIMCHECK
 70
     0
  9
$BLIPMODE
 70
     0
  9
$CHAMFERA
 40
0.0
  9
$CHAMFERB
 40
0.0
  9
$SKPOLY
 70
     0
  9
$TDCREATE
 40
2449839.8447916671
  9
$TDUPDATE
 40
2459207.6377512729
  9
$TDINDWG
 40
0.1344778588
  9
$TDUSRTIMER
 40
0.1344778588
  9
$USRTIMER
 70
     1
  9
$ANGBASE
 50
0.0
  9
$ANGDIR
 70
     0
  9
$PDMODE
 70
     0
  9
$PDSIZE
 40
0.0
  9
$PLINEWID
 40
0.0
  9
$COORDS
 70
     1
  9
$SPLFRAME
 70
     0
  9
$SPLINETYPE
 70
     6
  9
$SPLINESEGS
 70
     8
  9
$ATTDIA
 70
     0
  9
$ATTREQ
 70
     1
  9
$HANDLING
 70
     1
  9
$HANDSEED
  5
F69
  9
$SURFTAB1
 70
     6
  9
$SURFTAB2
 70
     6
  9
$SURFTYPE
 70
     6
  9
$SURFU
 70
     6
  9
$SURFV
 70
     6
  9
$UCSNAME
  2

  9
$UCSORG
 10
0.0
 20
0.0
 30
0.0
  9
$UCSXDIR
 10
1.0
 20
0.0
 30
0.0
  9
$UCSYDIR
 10
0.0
 20
1.0
 30
0.0
  9
$PUCSNAME
  2

  9
$PUCSORG
 10
0.0
 20
0.0
 30
0.0
  9
$PUCSXDIR
 10
1.0
 20
0.0
 30
0.0
  9
$PUCSYDIR
 10
0.0
 20
1.0
 30
0.0
  9
$USERI1
 70
     0
  9
$USERI2
 70
     1
  9
$USERI3
 70
     1
  9
$USERI4
 70
     0
  9
$USERI5
 70
     0
  9
$USERR1
 40
0.0
  9
$USERR2
 40
0.0
  9
$USERR3
 40
0.0
  9
$USERR4
 40
0.0
  9
$USERR5
 40
0.0
  9
$WORLDVIEW
 70
     1
  9
$SHADEDGE
 70
     3
  9
$SHADEDIF
 70
    70
  9
$TILEMODE
 70
     1
  9
$MAXACTVP
 70
    16
  9
$PLIMCHECK
 70
     0
  9
$PEXTMIN
 10
1.0000000000000000E+020
 20
1.0000000000000000E+020
 30
1.0000000000000000E+020
  9
$PEXTMAX
 10
-1.0000000000000000E+020
 20
-1.0000000000000000E+020
 30
-1.0000000000000000E+020
  9
$PLIMMIN
 10
0.0
 20
0.0
  9
$PLIMMAX
 10
12.0
 20
9.0
  9
$UNITMODE
 70
     0
  9
$VISRETAIN
 70
     0
  9
$PLINEGEN
 70
     0
  9
$PSLTSCALE
 70
     0
  0
ENDSEC
  0
SECTION
  2
TABLES
  0
TABLE
  2
VPORT
 70
     1
  0
VPORT
  2
*ACTIVE
 70
     0
 10
0.0
 20
0.0
 11
1.0
 21
1.0
 12
132.35294117647061
 22
50.0
 13
0.0
 23
0.0
 14
10.0
 24
10.0
 15
10.0
 25
10.0
 16
0.0
 26
0.0
 36
1.0
 17
0.0
 27
0.0
 37
0.0
 40
100.0
 41
2.6470588235294108
 42
50.0
 43
0.0
 44
0.0
 50
0.0
 51
0.0
 71
     0
 72
   500
 73
     1
 74
     0
 75
     0
 76
     0
 77
     0
 78
     2
  0
ENDTAB
  0
TABLE
  2
LTYPE
 70
     4
  0
LTYPE
  2
CONTINUOUS
 70
     0
  3
Solid Line
 72
    65
 73
     0
 40
0.0
  0
LTYPE
  2
CENTER
 70
     0
  3
____ _ ____ _ ____ _ ____ _ ____ _ ____ _ ____
 72
    65
 73
     4
 40
2.0
 49
1.25
 49
-0.25
 49
0.25
 49
-0.25
  0
LTYPE
  2
HIDDEN
 70
     0
  3
_ _ _ _ _ _ _ _ _ _ _ _ _ _ _ _ _ _ _ _ _ _ _
 72
    65
 73
     2
 40
0.375
 49
0.25
 49
-0.125
  0
LTYPE
  2
PHANTOM2
 70
     0
  3
___ _ _ ___ _ _ ___ _ _ ___ _ _
 72
    65
 73
     6
 40
1.25
 49
0.625
 49
-0.125
 49
0.125
 49
-0.125
 49
0.125
 49
-0.125
  0
ENDTAB
  0
TABLE
  2
LAYER
 70
     6
  0
LAYER
  2
0
 70
     0
 62
     7
  6
CONTINUOUS
  0
LAYER
  2
1
 70
     0
 62
     1
  6
CENTER
  0
LAYER
  2
2
 70
     0
 62
     2
  6
HIDDEN
  0
LAYER
  2
DEFPOINTS
 70
     0
 62
     7
  6
CONTINUOUS
  0
LAYER
  2
4
 70
     0
 62
     4
  6
CONTINUOUS
  0
LAYER
  2
3
 70
     0
 62
     3
  6
CONTINUOUS
  0
ENDTAB
  0
TABLE
  2
STYLE
 70
     2
  0
STYLE
  2
STANDARD
 70
     0
 40
0.0
 41
1.0
 50
0.0
 71
     0
 42
0.2
  3
TXT
  4
BIGFONT
  0
STYLE
  2
STANDARD1
 70
     0
 40
0.0
 41
1.0
 50
0.0
 71
     0
 42
3.0
  3
txt
  4

  0
ENDTAB
  0
TABLE
  2
VIEW
 70
     1
  0
VIEW
  2
ALL
 70
     0
 40
270.0
 10
220.99159663865549
 20
135.0
 41
0.0
 11
0.0
 21
0.0
 31
1.0
 12
0.0
 22
0.0
 32
0.0
 42
0.0
 43
0.0
 44
0.0
 50
0.0
 71
     0
  0
ENDTAB
  0
TABLE
  2
UCS
 70
     0
  0
ENDTAB
  0
TABLE
  2
APPID
 70
     9
  0
APPID
  2
ACAD
 70
     0
  0
APPID
  2
ACAD_MLEADERVER
 70
     0
  0
APPID
  2
ACAD_NAV_VCDISPLAY
 70
     0
  0
APPID
  2
ACAD_EXEMPT_FROM_CAD_STANDARDS
 70
     0
  0
APPID
  2
ACAD_DSTYLE_DIMJAG
 70
     0
  0
APPID
  2
ACAD_DSTYLE_DIMTALN
 70
     0
  0
APPID
  2
ACAECLAYERSTANDARD
 70
     0
  0
APPID
  2
ACCMTRANSPARENCY
 70
     0
  0
APPID
  2
DCO15
 70
     0
  0
ENDTAB
  0
TABLE
  2
DIMSTYLE
 70
     1
  0
DIMSTYLE
  2
STANDARD
 70
     0
  3

  4

  5

  6

  7

 40
1.0
 41
0.18
 42
0.0625
 43
0.38
 44
0.18
 45
0.0
 46
0.0
 47
0.0
 48
0.0
140
0.18
141
0.09
142
0.0
143
25.399999999999999
144
1.0
145
0.0
146
1.0
147
0.09
 71
     0
 72
     0
 73
     1
 74
     1
 75
     0
 76
     0
 77
     0
 78
     0
170
     0
171
     2
172
     0
173
     0
174
     0
175
     0
176
     0
177
     0
178
     0
  0
ENDTAB
  0
ENDSEC
  0
SECTION
  2
BLOCKS
  0
BLOCK
  8
0
  2
$MODEL_SPACE
 70
     0
 10
0.0
 20
0.0
 30
0.0
  3
$MODEL_SPACE
  1

  0
ENDBLK
  5
10E
  8
0
  0
BLOCK
 67
     1
  8
0
  2
$PAPER_SPACE
 70
     0
 10
0.0
 20
0.0
 30
0.0
  3
$PAPER_SPACE
  1

  0
ENDBLK
  5
10C
 67
     1
  8
0
  0
ENDSEC
  0
SECTION
  2
ENTITIES
  0
TEXT
  5
4DC
  8
0
 62
     3
 10
0.0
 20
0.0
 30
0.0
 40
5.0
  1
HD-BHS04X10
  7
STANDARD1
  0
LINE
  5
D56
  8
0
 10
58.800000000000011
 20
28.550000000000001
 30
0.0
 11
58.840192378864693
 21
28.550000000000001
 31
0.0
  0
LINE
  5
D57
  8
0
 10
58.840192378864693
 20
31.449999999999999
 30
0.0
 11
58.800000000000011
 21
31.449999999999999
 31
0.0
  0
ARC
  5
D58
  8
0
 10
58.840192378864693
 20
28.150000000000009
 30
0.0
 40
0.3999999999999949
 50
59.999999999999972
 51
90.0
  0
ARC
  5
D59
  8
0
 10
58.840192378864693
 20
31.850000000000001
 30
0.0
 40
0.3999999999999966
 50
270.0
 51
300.0
  0
ARC
  5
D5B
  8
0
 10
58.800000000000011
 20
28.150000000000009
 30
0.0
 40
0.3999999999999997
 50
90.0
 51
180.0
  0
ARC
  5
D5C
  8
0
 10
58.800000000000011
 20
31.850000000000001
 30
0.0
 40
0.3999999999999996
 50
180.0
 51
270.0
  0
LINE
  5
D5E
  8
0
 10
59.040192378864667
 20
28.496410161513779
 30
0.0
 11
59.900000000000013
 21
28.0
 31
0.0
  0
LINE
  5
D5F
  8
0
 10
59.900000000000013
 20
32.0
 30
0.0
 11
59.040192378864667
 21
31.503589838486221
 31
0.0
  0
LINE
  5
D61
  8
0
 10
68.400000000000006
 20
31.570499999999999
 30
0.0
 11
67.970500000000015
 21
32.0
 31
0.0
  0
LINE
  5
D62
  8
0
 10
67.970500000000015
 20
28.0
 30
0.0
 11
68.400000000000006
 21
28.429500000000001
 31
0.0
  0
LINE
  5
D63
  8
0
 10
68.400000000000006
 20
31.570499999999999
 30
0.0
 11
68.400000000000006
 21
28.429500000000001
 31
0.0
  0
LINE
  5
D64
  8
0
 10
59.900000000000013
 20
28.0
 30
0.0
 11
67.970500000000015
 21
28.0
 31
0.0
  0
LINE
  5
D65
  8
0
 10
67.970500000000015
 20
32.0
 30
0.0
 11
59.900000000000013
 21
32.0
 31
0.0
  0
LINE
  5
D66
  8
0
 10
67.970500000000015
 20
32.0
 30
0.0
 11
67.970500000000015
 21
28.0
 31
0.0
  0
LINE
  5
D67
  8
0
 10
59.900000000000013
 20
32.0
 30
0.0
 11
59.900000000000013
 21
28.0
 31
0.0
  0
LINE
  5
D68
  8
0
 10
58.373774706058207
 20
24.5
 30
0.0
 11
58.399999999999999
 21
24.5
 31
0.0
  0
LINE
  5
D69
  8
0
 10
58.399999999999999
 20
35.5
 30
0.0
 11
58.373774706058207
 21
35.5
 31
0.0
  0
LINE
  5
D6A
  8
0
 10
58.399999999999999
 20
35.5
 30
0.0
 11
58.399999999999999
 21
24.5
 31
0.0
  0
POLYLINE
  5
D6B
  8
0
 66
     1
 10
0.0
 20
0.0
 30
0.0
  0
VERTEX
  5
F07
  8
0
 10
57.400000000000013
 20
33.300000000000011
 30
0.0
  0
VERTEX
  5
F08
  8
0
 10
57.393682024548582
 20
33.238755665918767
 30
0.0
  0
VERTEX
  5
F09
  8
0
 10
57.376671439551302
 20
33.184013300173618
 30
0.0
  0
VERTEX
  5
F0A
  8
0
 10
57.353332764905609
 20
33.139306159964718
 30
0.0
  0
VERTEX
  5
F0B
  8
0
 10
57.322622921782418
 20
33.098905408583278
 30
0.0
  0
VERTEX
  5
F0C
  8
0
 10
57.280564054708229
 20
33.060424078531817
 30
0.0
  0
VERTEX
  5
F0D
  8
0
 10
57.248445069669913
 20
33.039292440278622
 30
0.0
  0
VERTEX
  5
F0E
  8
0
 10
57.217220779964151
 20
33.023849155814077
 30
0.0
  0
VERTEX
  5
F0F
  8
0
 10
57.163525161483108
 20
33.006732850292643
 30
0.0
  0
VERTEX
  5
F10
  8
0
 10
57.114261483541299
 20
33.000339174920711
 30
0.0
  0
VERTEX
  5
F11
  8
0
 10
57.100000000000023
 20
33.0
 30
0.0
  0
SEQEND
  5
F12
  8
0
  0
LINE
  5
D6C
  8
0
 10
57.100000000000023
 20
33.0
 30
0.0
 11
56.209173679699937
 21
33.0
 31
0.0
  0
POLYLINE
  5
D6D
  8
0
 66
     1
 10
0.0
 20
0.0
 30
0.0
  0
VERTEX
  5
F13
  8
0
 10
57.100000000000023
 20
27.0
 30
0.0
  0
VERTEX
  5
F14
  8
0
 10
57.15248294676055
 20
26.995460486916642
 30
0.0
  0
VERTEX
  5
F15
  8
0
 10
57.21018230493587
 20
26.97903379666144
 30
0.0
  0
VERTEX
  5
F16
  8
0
 10
57.261731402795078
 20
26.952671631470441
 30
0.0
  0
VERTEX
  5
F17
  8
0
 10
57.288717884216737
 20
26.933192810948501
 30
0.0
  0
VERTEX
  5
F18
  8
0
 10
57.315386528898472
 20
26.90882682578891
 30
0.0
  0
VERTEX
  5
F19
  8
0
 10
57.347356670025079
 20
26.86974886684192
 30
0.0
  0
VERTEX
  5
F1A
  8
0
 10
57.372670468697919
 20
26.82510321938328
 30
0.0
  0
VERTEX
  5
F1B
  8
0
 10
57.388795740184889
 20
26.78122204412022
 30
0.0
  0
VERTEX
  5
F1C
  8
0
 10
57.396399711300312
 20
26.746345143252949
 30
0.0
  0
VERTEX
  5
F1D
  8
0
 10
57.39967814839698
 20
26.713892709360149
 30
0.0
  0
VERTEX
  5
F1E
  8
0
 10
57.400000000000013
 20
26.699999999999989
 30
0.0
  0
SEQEND
  5
F1F
  8
0
  0
LINE
  5
D6E
  8
0
 10
57.400000000000013
 20
26.699999999999989
 30
0.0
 11
57.400000000000013
 21
25.325601642991909
 31
0.0
  0
ARC
  5
D6F
  8
0
 10
62.200000000000017
 20
29.999999999999989
 30
0.0
 40
6.7000000000000126
 50
124.82546029397599
 51
135.7595228987328
  0
ARC
  5
D70
  8
0
 10
62.199999999999982
 20
30.0
 30
0.0
 40
6.6999999999999904
 50
153.39986503902159
 51
206.60013496097841
  0
ARC
  5
D71
  8
0
 10
62.200000000000131
 20
30.000000000000131
 30
0.0
 40
6.7000000000001716
 50
224.2404771012672
 51
235.17453970602389
  0
LINE
  5
D72
  8
0
 10
57.400000000000013
 20
34.674398357008101
 30
0.0
 11
57.400000000000013
 21
33.300000000000011
 31
0.0
  0
LINE
  5
D73
  8
0
 10
58.373774706058207
 20
35.5
 30
0.0
 11
58.373774706058207
 21
24.5
 31
0.0
  0
LINE
  5
D74
  8
0
 10
56.209173679699937
 20
27.0
 30
0.0
 11
57.100000000000023
 21
27.0
 31
0.0
  0
LINE
  5
D75
  8
3
 10
68.400000000000006
 20
31.570499999999999
 30
0.0
 11
59.156084178149172
 21
31.570499999999988
 31
0.0
  0
LINE
  5
D77
  8
3
 10
68.400000000000006
 20
28.429500000000001
 30
0.0
 11
59.156084178149143
 21
28.429500000000012
 31
0.0
  0
POLYLINE
  5
D86
  8
0
 66
     1
 10
0.0
 20
0.0
 30
0.0
  0
VERTEX
  5
F20
  8
0
 10
26.85675327089967
 20
33.0
 30
0.0
  0
VERTEX
  5
F21
  8
0
 10
26.777382804486709
 20
33.004539513083358
 30
0.0
  0
VERTEX
  5
F22
  8
0
 10
26.703716855561211
 20
33.02096620333856
 30
0.0
  0
VERTEX
  5
F23
  8
0
 10
26.65077724296896
 20
33.047328368529563
 30
0.0
  0
VERTEX
  5
F24
  8
0
 10
26.62894852701481
 20
33.066807189051509
 30
0.0
  0
VERTEX
  5
F25
  8
0
 10
26.61249359484427
 20
33.091173174211079
 30
0.0
  0
VERTEX
  5
F26
  8
0
 10
26.602444915029029
 20
33.130251133158083
 30
0.0
  0
VERTEX
  5
F27
  8
0
 10
26.607814859320289
 20
33.17489678061672
 30
0.0
  0
VERTEX
  5
F28
  8
0
 10
26.626310322350442
 20
33.218777955879787
 30
0.0
  0
VERTEX
  5
F29
  8
0
 10
26.676085290590919
 20
33.286107290639848
 30
0.0
  0
VERTEX
  5
F2A
  8
0
 10
26.68941092855064
 20
33.300000000000011
 30
0.0
  0
SEQEND
  5
F2B
  8
0
  0
ARC
  5
D87
  8
0
 10
30.0
 20
30.0
 30
0.0
 40
4.674398357008096
 50
44.908221706486067
 51
135.0917782935139
  0
POLYLINE
  5
D88
  8
0
 66
     1
 10
0.0
 20
0.0
 30
0.0
  0
VERTEX
  5
F2C
  8
0
 10
33.310589071449392
 20
33.300000000000011
 30
0.0
  0
VERTEX
  5
F2D
  8
0
 10
33.361512941419619
 20
33.238755665918767
 30
0.0
  0
VERTEX
  5
F2E
  8
0
 10
33.389330450439637
 20
33.184013300173618
 30
0.0
  0
VERTEX
  5
F2F
  8
0
 10
33.39773064651542
 20
33.139306159964718
 30
0.0
  0
VERTEX
  5
F30
  8
0
 10
33.390866866382567
 20
33.098905408583278
 30
0.0
  0
VERTEX
  5
F31
  8
0
 10
33.364959797637091
 20
33.060424078531817
 30
0.0
  0
VERTEX
  5
F32
  8
0
 10
33.336883488337072
 20
33.039292440278622
 30
0.0
  0
VERTEX
  5
F33
  8
0
 10
33.30427715654443
 20
33.023849155814077
 30
0.0
  0
VERTEX
  5
F34
  8
0
 10
33.237813494745858
 20
33.006732850292643
 30
0.0
  0
VERTEX
  5
F35
  8
0
 10
33.165948290424907
 20
33.000339174920711
 30
0.0
  0
VERTEX
  5
F36
  8
0
 10
33.143246729100362
 20
33.0
 30
0.0
  0
SEQEND
  5
F37
  8
0
  0
LINE
  5
D89
  8
0
 10
33.143246729100362
 20
33.0
 30
0.0
 11
26.85675327089967
 21
33.0
 31
0.0
  0
CIRCLE
  5
D8A
  8
0
 10
30.0
 20
30.0
 30
0.0
 40
5.5
  0
POLYLINE
  5
D8B
  8
0
 66
     1
 10
0.0
 20
0.0
 30
0.0
  0
VERTEX
  5
F38
  8
0
 10
33.143246729100362
 20
27.0
 30
0.0
  0
VERTEX
  5
F39
  8
0
 10
33.222617195513301
 20
26.995460486916642
 30
0.0
  0
VERTEX
  5
F3A
  8
0
 10
33.296283144438803
 20
26.97903379666144
 30
0.0
  0
VERTEX
  5
F3B
  8
0
 10
33.349222757031072
 20
26.952671631470441
 30
0.0
  0
VERTEX
  5
F3C
  8
0
 10
33.371051472985187
 20
26.933192810948501
 30
0.0
  0
VERTEX
  5
F3D
  8
0
 10
33.38750640515574
 20
26.90882682578891
 30
0.0
  0
VERTEX
  5
F3E
  8
0
 10
33.39755508497101
 20
26.86974886684192
 30
0.0
  0
VERTEX
  5
F3F
  8
0
 10
33.392185140679707
 20
26.82510321938328
 30
0.0
  0
VERTEX
  5
F40
  8
0
 10
33.373689677649573
 20
26.78122204412022
 30
0.0
  0
VERTEX
  5
F41
  8
0
 10
33.323914709409081
 20
26.713892709360149
 30
0.0
  0
VERTEX
  5
F42
  8
0
 10
33.310589071449357
 20
26.699999999999989
 30
0.0
  0
SEQEND
  5
F43
  8
0
  0
ARC
  5
D8C
  8
0
 10
30.0
 20
29.999999999999989
 30
0.0
 40
4.6743983570080863
 50
224.9082217064861
 51
315.09177829351393
  0
POLYLINE
  5
D8D
  8
0
 66
     1
 10
0.0
 20
0.0
 30
0.0
  0
VERTEX
  5
F44
  8
0
 10
26.68941092855064
 20
26.699999999999989
 30
0.0
  0
VERTEX
  5
F45
  8
0
 10
26.638487058580409
 20
26.76124433408123
 30
0.0
  0
VERTEX
  5
F46
  8
0
 10
26.610669549560392
 20
26.815986699826379
 30
0.0
  0
VERTEX
  5
F47
  8
0
 10
26.602269353484608
 20
26.860693840035282
 30
0.0
  0
VERTEX
  5
F48
  8
0
 10
26.609133133617458
 20
26.901094591416719
 30
0.0
  0
VERTEX
  5
F49
  8
0
 10
26.63504020236293
 20
26.93957592146818
 30
0.0
  0
VERTEX
  5
F4A
  8
0
 10
26.66311651166296
 20
26.960707559721389
 30
0.0
  0
VERTEX
  5
F4B
  8
0
 10
26.695722843455592
 20
26.97615084418592
 30
0.0
  0
VERTEX
  5
F4C
  8
0
 10
26.762186505254171
 20
26.993267149707361
 30
0.0
  0
VERTEX
  5
F4D
  8
0
 10
26.834051709575121
 20
26.999660825079289
 30
0.0
  0
VERTEX
  5
F4E
  8
0
 10
26.85675327089967
 20
27.0
 30
0.0
  0
SEQEND
  5
F4F
  8
0
  0
LINE
  5
D8E
  8
0
 10
26.85675327089967
 20
27.0
 30
0.0
 11
33.143246729100362
 21
27.0
 31
0.0
  0
LINE
  5
D93
  8
0
 10
58.800000000000011
 20
59.550000000000011
 30
0.0
 11
58.840192378864693
 21
59.550000000000011
 31
0.0
  0
LINE
  5
D94
  8
0
 10
58.840192378864693
 20
62.449999999999989
 30
0.0
 11
58.800000000000011
 21
62.449999999999989
 31
0.0
  0
ARC
  5
D96
  8
0
 10
58.840192378864693
 20
59.149999999999999
 30
0.0
 40
0.3999999999999949
 50
59.999999999999972
 51
90.0
  0
ARC
  5
D97
  8
0
 10
58.840192378864693
 20
62.850000000000001
 30
0.0
 40
0.3999999999999966
 50
270.0
 51
300.0
  0
ARC
  5
D99
  8
0
 10
58.800000000000011
 20
59.149999999999999
 30
0.0
 40
0.3999999999999997
 50
90.0
 51
180.0
  0
ARC
  5
D9A
  8
0
 10
58.800000000000011
 20
62.850000000000001
 30
0.0
 40
0.3999999999999996
 50
180.0
 51
270.0
  0
LINE
  5
D9C
  8
0
 10
59.040192378864703
 20
59.496410161513779
 30
0.0
 11
59.900000000000027
 21
59.0
 31
0.0
  0
LINE
  5
D9D
  8
0
 10
59.900000000000027
 20
63.0
 30
0.0
 11
59.040192378864703
 21
62.503589838486221
 31
0.0
  0
LINE
  5
D9E
  8
0
 10
68.400000000000034
 20
62.57050000000001
 30
0.0
 11
68.400000000000034
 21
59.42949999999999
 31
0.0
  0
LINE
  5
D9F
  8
0
 10
68.400000000000034
 20
62.57050000000001
 30
0.0
 11
67.970500000000015
 21
63.0
 31
0.0
  0
LINE
  5
DA0
  8
0
 10
67.970500000000015
 20
59.0
 30
0.0
 11
68.400000000000034
 21
59.42949999999999
 31
0.0
  0
LINE
  5
DA1
  8
0
 10
67.970500000000015
 20
63.0
 30
0.0
 11
67.970500000000015
 21
59.0
 31
0.0
  0
LINE
  5
DA2
  8
0
 10
59.900000000000027
 20
63.0
 30
0.0
 11
59.900000000000027
 21
59.0
 31
0.0
  0
LINE
  5
DA3
  8
0
 10
59.900000000000027
 20
59.0
 30
0.0
 11
67.970500000000015
 21
59.0
 31
0.0
  0
LINE
  5
DA4
  8
0
 10
67.970500000000015
 20
63.0
 30
0.0
 11
59.900000000000027
 21
63.0
 31
0.0
  0
LINE
  5
DA6
  8
0
 10
58.400000000000027
 20
66.5
 30
0.0
 11
58.400000000000027
 21
55.5
 31
0.0
  0
LINE
  5
DA7
  8
0
 10
58.373774706058207
 20
55.5
 30
0.0
 11
58.400000000000027
 21
55.5
 31
0.0
  0
LINE
  5
DA8
  8
0
 10
58.400000000000027
 20
66.5
 30
0.0
 11
58.373774706058207
 21
66.5
 31
0.0
  0
POLYLINE
  5
DA9
  8
0
 66
     1
 10
0.0
 20
0.0
 30
0.0
  0
VERTEX
  5
F50
  8
0
 10
57.100000000000023
 20
64.143246729100326
 30
0.0
  0
VERTEX
  5
F51
  8
0
 10
57.152482946760578
 20
64.222617195513294
 30
0.0
  0
VERTEX
  5
F52
  8
0
 10
57.21018230493587
 20
64.296283144438803
 30
0.0
  0
VERTEX
  5
F53
  8
0
 10
57.2617314027951
 20
64.349222757031043
 30
0.0
  0
VERTEX
  5
F54
  8
0
 10
57.288717884216737
 20
64.371051472985187
 30
0.0
  0
VERTEX
  5
F55
  8
0
 10
57.3153865288985
 20
64.387506405155733
 30
0.0
  0
VERTEX
  5
F56
  8
0
 10
57.347356670025079
 20
64.397555084970975
 30
0.0
  0
VERTEX
  5
F57
  8
0
 10
57.372670468697947
 20
64.392185140679715
 30
0.0
  0
VERTEX
  5
F58
  8
0
 10
57.388795740184918
 20
64.373689677649566
 30
0.0
  0
VERTEX
  5
F59
  8
0
 10
57.396399711300312
 20
64.350991360764624
 30
0.0
  0
VERTEX
  5
F5A
  8
0
 10
57.39967814839698
 20
64.323914709409081
 30
0.0
  0
VERTEX
  5
F5B
  8
0
 10
57.400000000000027
 20
64.310589071449357
 30
0.0
  0
SEQEND
  5
F5C
  8
0
  0
LINE
  5
DAA
  8
0
 10
57.400000000000027
 20
64.310589071449357
 30
0.0
 11
57.400000000000027
 21
57.689410928550643
 31
0.0
  0
POLYLINE
  5
DAB
  8
0
 66
     1
 10
0.0
 20
0.0
 30
0.0
  0
VERTEX
  5
F5D
  8
0
 10
57.400000000000027
 20
57.689410928550643
 30
0.0
  0
VERTEX
  5
F5E
  8
0
 10
57.393682024548582
 20
57.638487058580381
 30
0.0
  0
VERTEX
  5
F5F
  8
0
 10
57.37667143955133
 20
57.610669549560392
 30
0.0
  0
VERTEX
  5
F60
  8
0
 10
57.353332764905609
 20
57.602269353484587
 30
0.0
  0
VERTEX
  5
F61
  8
0
 10
57.322622921782447
 20
57.609133133617441
 30
0.0
  0
VERTEX
  5
F62
  8
0
 10
57.280564054708229
 20
57.635040202362909
 30
0.0
  0
VERTEX
  5
F63
  8
0
 10
57.248445069669913
 20
57.663116511662963
 30
0.0
  0
VERTEX
  5
F64
  8
0
 10
57.217220779964173
 20
57.69572284345557
 30
0.0
  0
VERTEX
  5
F65
  8
0
 10
57.163525161483108
 20
57.762186505254142
 30
0.0
  0
VERTEX
  5
F66
  8
0
 10
57.114261483541299
 20
57.834051709575107
 30
0.0
  0
VERTEX
  5
F67
  8
0
 10
57.100000000000023
 20
57.856753270899667
 30
0.0
  0
SEQEND
  5
F68
  8
0
  0
ARC
  5
DAC
  8
0
 10
62.200000000000017
 20
61.0
 30
0.0
 40
5.9908263203000498
 50
148.35352145701731
 51
211.64647854298261
  0
LINE
  5
DAD
  8
0
 10
58.373774706058207
 20
66.5
 30
0.0
 11
58.373774706058207
 21
55.5
 31
0.0
  0
ARC
  5
DAE
  8
0
 10
62.200000000000017
 20
61.0
 30
0.0
 40
6.6999999999999966
 50
124.82546029397599
 51
235.17453970602389
  0
LINE
  5
DAF
  8
3
 10
68.400000000000034
 20
59.42949999999999
 30
0.0
 11
59.1560841781492
 21
59.42949999999999
 31
0.0
  0
LINE
  5
DB1
  8
3
 10
68.400000000000034
 20
62.57050000000001
 30
0.0
 11
59.156084178149221
 21
62.570500000000003
 31
0.0
  0
LINE
  5
E4A
  8
1
 10
53.5
 20
30.0
 30
0.0
 11
70.400000000000006
 21
30.0
 31
0.0
  0
LINE
  5
E4D
  8
1
 10
53.500000000000028
 20
61.0
 30
0.0
 11
70.400000000000034
 21
61.0
 31
0.0
  0
LINE
  5
E50
  8
1
 10
30.0
 20
37.5
 30
0.0
 11
30.0
 21
22.5
 31
0.0
  0
LINE
  5
E51
  8
1
 10
37.5
 20
30.0
 30
0.0
 11
22.5
 21
30.0
 31
0.0
  0
ENDSEC
  0
EOF
