  0
SECTION
  2
HEADER
  9
$ACADVER
  1
AC1009
  9
$INSBASE
 10
0.0
 20
0.0
 30
0.0
  9
$EXTMIN
 10
0.0
 20
-1.4802182810368341
 30
0.0
  9
$EXTMAX
 10
79.0
 20
71.000000000000014
 30
0.0
  9
$LIMMIN
 10
0.0
 20
0.0
  9
$LIMMAX
 10
375.0
 20
270.0
  9
$ORTHOMODE
 70
     1
  9
$REGENMODE
 70
     1
  9
$FILLMODE
 70
     1
  9
$QTEXTMODE
 70
     0
  9
$MIRRTEXT
 70
     0
  9
$DRAGMODE
 70
     2
  9
$LTSCALE
 40
5.0
  9
$OSMODE
 70
    37
  9
$ATTMODE
 70
     1
  9
$TEXTSIZE
 40
0.2
  9
$TRACEWID
 40
0.05
  9
$TEXTSTYLE
  7
STANDARD
  9
$CLAYER
  8
4
  9
$CELTYPE
  6
BYLAYER
  9
$CECOLOR
 62
   256
  9
$DIMSCALE
 40
1.0
  9
$DIMASZ
 40
3.0
  9
$DIMEXO
 40
2.0
  9
$DIMDLI
 40
0.38
  9
$DIMRND
 40
0.0
  9
$DIMDLE
 40
0.0
  9
$DIMEXE
 40
2.0
  9
$DIMTP
 40
0.0
  9
$DIMTM
 40
0.0
  9
$DIMTXT
 40
3.2000000000000002
  9
$DIMCEN
 40
0.09
  9
$DIMTSZ
 40
0.0
  9
$DIMTOL
 70
     0
  9
$DIMLIM
 70
     0
  9
$DIMTIH
 70
     0
  9
$DIMTOH
 70
     0
  9
$DIMSE1
 70
     0
  9
$DIMSE2
 70
     0
  9
$DIMTAD
 70
     1
  9
$DIMZIN
 70
     8
  9
$DIMBLK
  1

  9
$DIMASO
 70
     1
  9
$DIMSHO
 70
     0
  9
$DIMPOST
  1

  9
$DIMAPOST
  1

  9
$DIMALT
 70
     0
  9
$DIMALTD
 70
     2
  9
$DIMALTF
 40
25.399999999999999
  9
$DIMLFAC
 40
1.0
  9
$DIMTOFL
 70
     1
  9
$DIMTVP
 40
1.6000000000000001
  9
$DIMTIX
 70
     1
  9
$DIMSOXD
 70
     0
  9
$DIMSAH
 70
     0
  9
$DIMBLK1
  1

  9
$DIMBLK2
  1

  9
$DIMSTYLE
  2
STANDARD
  9
$DIMCLRD
 70
   256
  9
$DIMCLRE
 70
   256
  9
$DIMCLRT
 70
   256
  9
$DIMTFAC
 40
1.0
  9
$DIMGAP
 40
1.0
  9
$LUNITS
 70
     2
  9
$LUPREC
 70
     1
  9
$SKETCHINC
 40
0.1
  9
$FILLETRAD
 40
0.0
  9
$AUNITS
 70
     0
  9
$AUPREC
 70
     0
  9
$MENU
  1
E:\r13\win\SUPPORT\ACAD
  9
$ELEVATION
 40
0.0
  9
$PELEVATION
 40
0.0
  9
$THICKNESS
 40
0.0
  9
$LIMCHECK
 70
     0
  9
$BLIPMODE
 70
     0
  9
$CHAMFERA
 40
0.0
  9
$CHAMFERB
 40
0.0
  9
$SKPOLY
 70
     0
  9
$TDCREATE
 40
2449839.8447916671
  9
$TDUPDATE
 40
2459207.6377715738
  9
$TDINDWG
 40
0.1841526505
  9
$TDUSRTIMER
 40
0.1841526505
  9
$USRTIMER
 70
     1
  9
$ANGBASE
 50
0.0
  9
$ANGDIR
 70
     0
  9
$PDMODE
 70
     0
  9
$PDSIZE
 40
0.0
  9
$PLINEWID
 40
0.0
  9
$COORDS
 70
     1
  9
$SPLFRAME
 70
     0
  9
$SPLINETYPE
 70
     6
  9
$SPLINESEGS
 70
     8
  9
$ATTDIA
 70
     0
  9
$ATTREQ
 70
     1
  9
$HANDLING
 70
     1
  9
$HANDSEED
  5
14C7
  9
$SURFTAB1
 70
     6
  9
$SURFTAB2
 70
     6
  9
$SURFTYPE
 70
     6
  9
$SURFU
 70
     6
  9
$SURFV
 70
     6
  9
$UCSNAME
  2

  9
$UCSORG
 10
0.0
 20
0.0
 30
0.0
  9
$UCSXDIR
 10
1.0
 20
0.0
 30
0.0
  9
$UCSYDIR
 10
0.0
 20
1.0
 30
0.0
  9
$PUCSNAME
  2

  9
$PUCSORG
 10
0.0
 20
0.0
 30
0.0
  9
$PUCSXDIR
 10
1.0
 20
0.0
 30
0.0
  9
$PUCSYDIR
 10
0.0
 20
1.0
 30
0.0
  9
$USERI1
 70
     0
  9
$USERI2
 70
     1
  9
$USERI3
 70
     1
  9
$USERI4
 70
     0
  9
$USERI5
 70
     0
  9
$USERR1
 40
0.0
  9
$USERR2
 40
0.0
  9
$USERR3
 40
0.0
  9
$USERR4
 40
0.0
  9
$USERR5
 40
0.0
  9
$WORLDVIEW
 70
     1
  9
$SHADEDGE
 70
     3
  9
$SHADEDIF
 70
    70
  9
$TILEMODE
 70
     1
  9
$MAXACTVP
 70
    16
  9
$PLIMCHECK
 70
     0
  9
$PEXTMIN
 10
1.0000000000000000E+020
 20
1.0000000000000000E+020
 30
1.0000000000000000E+020
  9
$PEXTMAX
 10
-1.0000000000000000E+020
 20
-1.0000000000000000E+020
 30
-1.0000000000000000E+020
  9
$PLIMMIN
 10
0.0
 20
0.0
  9
$PLIMMAX
 10
12.0
 20
9.0
  9
$UNITMODE
 70
     0
  9
$VISRETAIN
 70
     0
  9
$PLINEGEN
 70
     0
  9
$PSLTSCALE
 70
     0
  0
ENDSEC
  0
SECTION
  2
TABLES
  0
TABLE
  2
VPORT
 70
     1
  0
VPORT
  2
*ACTIVE
 70
     0
 10
0.0
 20
0.0
 11
1.0
 21
1.0
 12
132.35294117647061
 22
50.0
 13
0.0
 23
0.0
 14
10.0
 24
10.0
 15
10.0
 25
10.0
 16
0.0
 26
0.0
 36
1.0
 17
0.0
 27
0.0
 37
0.0
 40
100.0
 41
2.6470588235294108
 42
50.0
 43
0.0
 44
0.0
 50
0.0
 51
0.0
 71
     0
 72
   500
 73
     1
 74
     0
 75
     0
 76
     0
 77
     0
 78
     2
  0
ENDTAB
  0
TABLE
  2
LTYPE
 70
     4
  0
LTYPE
  2
CONTINUOUS
 70
     0
  3
Solid Line
 72
    65
 73
     0
 40
0.0
  0
LTYPE
  2
CENTER
 70
     0
  3
____ _ ____ _ ____ _ ____ _ ____ _ ____ _ ____
 72
    65
 73
     4
 40
2.0
 49
1.25
 49
-0.25
 49
0.25
 49
-0.25
  0
LTYPE
  2
HIDDEN
 70
     0
  3
_ _ _ _ _ _ _ _ _ _ _ _ _ _ _ _ _ _ _ _ _ _ _
 72
    65
 73
     2
 40
0.375
 49
0.25
 49
-0.125
  0
LTYPE
  2
PHANTOM2
 70
     0
  3
___ _ _ ___ _ _ ___ _ _ ___ _ _
 72
    65
 73
     6
 40
1.25
 49
0.625
 49
-0.125
 49
0.125
 49
-0.125
 49
0.125
 49
-0.125
  0
ENDTAB
  0
TABLE
  2
LAYER
 70
     6
  0
LAYER
  2
0
 70
     0
 62
     7
  6
CONTINUOUS
  0
LAYER
  2
1
 70
     0
 62
     1
  6
CENTER
  0
LAYER
  2
2
 70
     0
 62
     2
  6
HIDDEN
  0
LAYER
  2
DEFPOINTS
 70
     0
 62
     7
  6
CONTINUOUS
  0
LAYER
  2
4
 70
     0
 62
     4
  6
CONTINUOUS
  0
LAYER
  2
3
 70
     0
 62
     3
  6
CONTINUOUS
  0
ENDTAB
  0
TABLE
  2
STYLE
 70
     2
  0
STYLE
  2
STANDARD
 70
     0
 40
0.0
 41
1.0
 50
0.0
 71
     0
 42
0.2
  3
TXT
  4
BIGFONT
  0
STYLE
  2
STANDARD1
 70
     0
 40
0.0
 41
1.0
 50
0.0
 71
     0
 42
3.0
  3
txt
  4

  0
ENDTAB
  0
TABLE
  2
VIEW
 70
     1
  0
VIEW
  2
ALL
 70
     0
 40
270.0
 10
220.99159663865549
 20
135.0
 41
0.0
 11
0.0
 21
0.0
 31
1.0
 12
0.0
 22
0.0
 32
0.0
 42
0.0
 43
0.0
 44
0.0
 50
0.0
 71
     0
  0
ENDTAB
  0
TABLE
  2
UCS
 70
     0
  0
ENDTAB
  0
TABLE
  2
APPID
 70
    10
  0
APPID
  2
ACAD
 70
     0
  0
APPID
  2
ACAD_MLEADERVER
 70
     0
  0
APPID
  2
ACAD_NAV_VCDISPLAY
 70
     0
  0
APPID
  2
ACAD_EXEMPT_FROM_CAD_STANDARDS
 70
     0
  0
APPID
  2
ACAD_DSTYLE_DIMJAG
 70
     0
  0
APPID
  2
ACAD_DSTYLE_DIMTALN
 70
     0
  0
APPID
  2
ACAECLAYERSTANDARD
 70
     0
  0
APPID
  2
ACCMTRANSPARENCY
 70
     0
  0
APPID
  2
DCO15
 70
     0
  0
APPID
  2
ACAD_DSTYLE_DIMRADIAL_EXTENSION
 70
     0
  0
ENDTAB
  0
TABLE
  2
DIMSTYLE
 70
     1
  0
DIMSTYLE
  2
STANDARD
 70
     0
  3

  4

  5

  6

  7

 40
1.0
 41
0.18
 42
0.0625
 43
0.38
 44
0.18
 45
0.0
 46
0.0
 47
0.0
 48
0.0
140
0.18
141
0.09
142
0.0
143
25.399999999999999
144
1.0
145
0.0
146
1.0
147
0.09
 71
     0
 72
     0
 73
     1
 74
     1
 75
     0
 76
     0
 77
     0
 78
     0
170
     0
171
     2
172
     0
173
     0
174
     0
175
     0
176
     0
177
     0
178
     0
  0
ENDTAB
  0
ENDSEC
  0
SECTION
  2
BLOCKS
  0
BLOCK
  8
0
  2
$MODEL_SPACE
 70
     0
 10
0.0
 20
0.0
 30
0.0
  3
$MODEL_SPACE
  1

  0
ENDBLK
  5
10E
  8
0
  0
BLOCK
 67
     1
  8
0
  2
$PAPER_SPACE
 70
     0
 10
0.0
 20
0.0
 30
0.0
  3
$PAPER_SPACE
  1

  0
ENDBLK
  5
10C
 67
     1
  8
0
  0
ENDSEC
  0
SECTION
  2
ENTITIES
  0
TEXT
  5
4DC
  8
0
 62
     3
 10
0.0
 20
0.0
 30
0.0
 40
5.0
  1
HD-BHS05X16
  7
STANDARD1
  0
LINE
  5
13DC
  8
0
 10
61.39999999999997
 20
28.149999999999999
 30
0.0
 11
61.46698729810776
 21
28.149999999999999
 31
0.0
  0
LINE
  5
13DD
  8
0
 10
61.46698729810776
 20
31.850000000000001
 30
0.0
 11
61.39999999999997
 21
31.850000000000001
 31
0.0
  0
ARC
  5
13DE
  8
0
 10
61.46698729810776
 20
27.750000000000011
 30
0.0
 40
0.3999999999999963
 50
60.0
 51
90.0
  0
ARC
  5
13DF
  8
0
 10
61.46698729810776
 20
32.25
 30
0.0
 40
0.3999999999999964
 50
270.0
 51
300.0
  0
ARC
  5
13E0
  8
0
 10
61.39999999999997
 20
27.75
 30
0.0
 40
0.4000000000000002
 50
90.0
 51
180.0
  0
ARC
  5
13E1
  8
0
 10
61.39999999999997
 20
32.250000000000007
 30
0.0
 40
0.4000000000000008
 50
180.0000000000002
 51
270.0
  0
LINE
  5
13E2
  8
0
 10
61.666987298107749
 20
28.096410161513781
 30
0.0
 11
62.699999999999989
 21
27.5
 31
0.0
  0
LINE
  5
13E3
  8
0
 10
62.699999999999989
 20
32.5
 30
0.0
 11
61.666987298107749
 21
31.90358983848623
 31
0.0
  0
LINE
  5
13E4
  8
0
 10
76.999999999999972
 20
32.00950000000001
 30
0.0
 11
76.509499999999974
 21
32.5
 31
0.0
  0
LINE
  5
13E5
  8
0
 10
76.509499999999974
 20
27.5
 30
0.0
 11
76.999999999999972
 21
27.990500000000011
 31
0.0
  0
LINE
  5
13E6
  8
0
 10
76.999999999999972
 20
32.00950000000001
 30
0.0
 11
76.999999999999972
 21
27.990500000000011
 31
0.0
  0
LINE
  5
13E7
  8
0
 10
62.699999999999989
 20
27.5
 30
0.0
 11
76.509499999999974
 21
27.5
 31
0.0
  0
LINE
  5
13E8
  8
0
 10
76.509499999999974
 20
32.5
 30
0.0
 11
62.699999999999989
 21
32.5
 31
0.0
  0
LINE
  5
13E9
  8
0
 10
76.509499999999974
 20
32.5
 30
0.0
 11
76.509499999999974
 21
27.5
 31
0.0
  0
LINE
  5
13EA
  8
0
 10
62.699999999999989
 20
32.5
 30
0.0
 11
62.699999999999989
 21
27.5
 31
0.0
  0
POLYLINE
  5
13EB
  8
0
 66
     1
 10
0.0
 20
0.0
 30
0.0
  0
VERTEX
  5
147F
  8
0
 10
59.999999999999972
 20
34.20000000000001
 30
0.0
  0
VERTEX
  5
1480
  8
0
 10
59.994381317345471
 20
34.152926616150637
 30
0.0
  0
VERTEX
  5
1481
  8
0
 10
59.979741925308183
 20
34.112291161867859
 30
0.0
  0
VERTEX
  5
1482
  8
0
 10
59.954545373731378
 20
34.07305226485591
 30
0.0
  0
VERTEX
  5
1483
  8
0
 10
59.927274676506563
 20
34.045723764888251
 30
0.0
  0
VERTEX
  5
1484
  8
0
 10
59.887768447513167
 20
34.020287174578108
 30
0.0
  0
VERTEX
  5
1485
  8
0
 10
59.829732987310017
 20
34.002222474821792
 30
0.0
  0
VERTEX
  5
1486
  8
0
 10
59.799999999999947
 20
34.0
 30
0.0
  0
SEQEND
  5
1487
  8
0
  0
LINE
  5
13EC
  8
0
 10
59.799999999999947
 20
34.0
 30
0.0
 11
57.986853475730243
 21
34.0
 31
0.0
  0
POLYLINE
  5
13ED
  8
0
 66
     1
 10
0.0
 20
0.0
 30
0.0
  0
VERTEX
  5
1488
  8
0
 10
59.799999999999947
 20
26.0
 30
0.0
  0
VERTEX
  5
1489
  8
0
 10
59.870182681711121
 20
25.98728158261784
 30
0.0
  0
VERTEX
  5
148A
  8
0
 10
59.909914639742048
 20
25.967089113859561
 30
0.0
  0
VERTEX
  5
148B
  8
0
 10
59.948603319745729
 20
25.933854597831161
 30
0.0
  0
VERTEX
  5
148C
  8
0
 10
59.975156468699787
 20
25.896541242340302
 30
0.0
  0
VERTEX
  5
148D
  8
0
 10
59.990069987799671
 20
25.862236643050291
 30
0.0
  0
VERTEX
  5
148E
  8
0
 10
59.999550825602661
 20
25.813396566772461
 30
0.0
  0
VERTEX
  5
148F
  8
0
 10
59.999999999999972
 20
25.800000000000001
 30
0.0
  0
SEQEND
  5
1490
  8
0
  0
LINE
  5
13EE
  8
0
 10
59.999999999999972
 20
25.800000000000001
 30
0.0
 11
59.999999999999972
 21
23.473132451167711
 31
0.0
  0
ARC
  5
13EF
  8
0
 10
65.599999999998516
 20
30.000000000001851
 30
0.0
 40
8.5999999999976495
 50
125.5159837645336
 51
130.6293287833295
  0
ARC
  5
13F0
  8
0
 10
65.599999999999966
 20
30.0
 30
0.0
 40
8.5999999999999996
 50
152.28225231038979
 51
207.71774768961009
  0
ARC
  5
13F1
  8
0
 10
65.599999999998829
 20
29.99999999999859
 30
0.0
 40
8.5999999999981913
 50
229.37067121667039
 51
234.48401623546539
  0
LINE
  5
13F2
  8
0
 10
59.999999999999972
 20
36.526867548832293
 30
0.0
 11
59.999999999999972
 21
34.20000000000001
 31
0.0
  0
LINE
  5
13F3
  8
0
 10
57.986853475730243
 20
26.000000000000011
 30
0.0
 11
59.799999999999947
 21
26.0
 31
0.0
  0
LINE
  5
13F4
  8
0
 10
60.604001601281247
 20
23.0
 30
0.0
 11
60.999999999999972
 21
23.0
 31
0.0
  0
LINE
  5
13F5
  8
0
 10
60.999999999999972
 20
37.0
 30
0.0
 11
60.604001601281247
 21
37.0
 31
0.0
  0
LINE
  5
13F6
  8
0
 10
60.999999999999972
 20
37.000000000000007
 30
0.0
 11
60.999999999999972
 21
23.0
 31
0.0
  0
LINE
  5
13F7
  8
0
 10
60.604001601281247
 20
37.0
 30
0.0
 11
60.604001601281247
 21
23.0
 31
0.0
  0
LINE
  5
13F8
  8
3
 10
76.999999999999972
 20
32.00950000000001
 30
0.0
 11
61.85042907888743
 21
32.00950000000001
 31
0.0
  0
LINE
  5
13F9
  8
3
 10
76.999999999999972
 20
27.990500000000011
 30
0.0
 11
61.85042907888743
 21
27.990500000000011
 31
0.0
  0
LINE
  5
13FA
  8
1
 10
54.999999999999972
 20
30.0
 30
0.0
 11
79.0
 21
30.0
 31
0.0
  0
LINE
  5
13FB
  8
0
 10
61.399999999999999
 20
62.149999999999991
 30
0.0
 11
61.46698729810776
 21
62.149999999999991
 31
0.0
  0
LINE
  5
13FC
  8
0
 10
61.46698729810776
 20
65.849999999999994
 30
0.0
 11
61.399999999999999
 21
65.849999999999994
 31
0.0
  0
ARC
  5
13FD
  8
0
 10
61.46698729810776
 20
61.75
 30
0.0
 40
0.3999999999999963
 50
60.0
 51
90.0
  0
ARC
  5
13FE
  8
0
 10
61.46698729810776
 20
66.249999999999986
 30
0.0
 40
0.3999999999999964
 50
270.0
 51
300.0
  0
ARC
  5
13FF
  8
0
 10
61.399999999999999
 20
61.749999999999993
 30
0.0
 40
0.4000000000000002
 50
90.0
 51
180.0
  0
ARC
  5
1400
  8
0
 10
61.399999999999999
 20
66.25
 30
0.0
 40
0.4000000000000008
 50
180.0
 51
270.0
  0
LINE
  5
1401
  8
0
 10
61.666987298107792
 20
62.096410161513759
 30
0.0
 11
62.699999999999989
 21
61.499999999999993
 31
0.0
  0
LINE
  5
1402
  8
0
 10
62.699999999999989
 20
66.5
 30
0.0
 11
61.666987298107792
 21
65.903589838486212
 31
0.0
  0
LINE
  5
1403
  8
0
 10
77.0
 20
66.009499999999989
 30
0.0
 11
77.0
 21
61.99049999999999
 31
0.0
  0
LINE
  5
1404
  8
0
 10
77.0
 20
66.009499999999989
 30
0.0
 11
76.509500000000003
 21
66.499999999999986
 31
0.0
  0
LINE
  5
1405
  8
0
 10
76.509500000000003
 20
61.499999999999993
 30
0.0
 11
77.0
 21
61.99049999999999
 31
0.0
  0
LINE
  5
1406
  8
0
 10
76.509500000000003
 20
66.499999999999986
 30
0.0
 11
76.509500000000003
 21
61.499999999999993
 31
0.0
  0
LINE
  5
1407
  8
0
 10
62.699999999999989
 20
66.5
 30
0.0
 11
62.699999999999989
 21
61.499999999999993
 31
0.0
  0
LINE
  5
1408
  8
0
 10
62.699999999999989
 20
61.499999999999993
 30
0.0
 11
76.509500000000003
 21
61.499999999999993
 31
0.0
  0
LINE
  5
1409
  8
0
 10
76.509500000000003
 20
66.499999999999986
 30
0.0
 11
62.699999999999989
 21
66.5
 31
0.0
  0
POLYLINE
  5
140A
  8
0
 66
     1
 10
0.0
 20
0.0
 30
0.0
  0
VERTEX
  5
1491
  8
0
 10
59.800000000000011
 20
68.931531202375169
 30
0.0
  0
VERTEX
  5
1492
  8
0
 10
59.870182681711157
 20
69.002727696151283
 30
0.0
  0
VERTEX
  5
1493
  8
0
 10
59.909914639742048
 20
69.031754999741963
 30
0.0
  0
VERTEX
  5
1494
  8
0
 10
59.94860331974575
 20
69.048581694974587
 30
0.0
  0
VERTEX
  5
1495
  8
0
 10
59.975156468699822
 20
69.048045312056573
 30
0.0
  0
VERTEX
  5
1496
  8
0
 10
59.9900699877997
 20
69.036625820934688
 30
0.0
  0
VERTEX
  5
1497
  8
0
 10
59.999550825602682
 20
69.006727547798022
 30
0.0
  0
VERTEX
  5
1498
  8
0
 10
60.0
 20
68.995998398718712
 30
0.0
  0
SEQEND
  5
1499
  8
0
  0
LINE
  5
140B
  8
0
 10
60.0
 20
68.995998398718712
 30
0.0
 11
60.0
 21
59.004001601281267
 31
0.0
  0
POLYLINE
  5
140C
  8
0
 66
     1
 10
0.0
 20
0.0
 30
0.0
  0
VERTEX
  5
149A
  8
0
 10
60.0
 20
59.004001601281267
 30
0.0
  0
VERTEX
  5
149B
  8
0
 10
59.994381317345493
 20
58.971059783061392
 30
0.0
  0
VERTEX
  5
149C
  8
0
 10
59.979741925308247
 20
58.954035218723227
 30
0.0
  0
VERTEX
  5
149D
  8
0
 10
59.954545373731428
 20
58.950337901354693
 30
0.0
  0
VERTEX
  5
149E
  8
0
 10
59.927274676506592
 20
58.958937946977109
 30
0.0
  0
VERTEX
  5
149F
  8
0
 10
59.887768447513217
 20
58.983257857463933
 30
0.0
  0
VERTEX
  5
14A0
  8
0
 10
59.829732987310052
 20
59.035502657439153
 30
0.0
  0
VERTEX
  5
14A1
  8
0
 10
59.800000000000011
 20
59.068468797624838
 30
0.0
  0
SEQEND
  5
14A2
  8
0
  0
ARC
  5
140D
  8
0
 10
65.599999999999937
 20
64.000000000000014
 30
0.0
 40
7.6131465242696557
 50
139.62668308505911
 51
220.3733169149408
  0
ARC
  5
140E
  8
0
 10
65.600000000000023
 20
63.999999999999993
 30
0.0
 40
8.6000000000000014
 50
125.5159837645346
 51
234.4840162354653
  0
LINE
  5
140F
  8
0
 10
61.0
 20
71.0
 30
0.0
 11
61.0
 21
56.999999999999993
 31
0.0
  0
LINE
  5
1410
  8
0
 10
60.604001601281283
 20
70.999999999999986
 30
0.0
 11
60.604001601281283
 21
56.999999999999993
 31
0.0
  0
LINE
  5
1411
  8
0
 10
60.604001601281283
 20
56.999999999999993
 30
0.0
 11
61.0
 21
56.999999999999993
 31
0.0
  0
LINE
  5
1412
  8
0
 10
61.0
 20
70.999999999999986
 30
0.0
 11
60.604001601281283
 21
70.999999999999986
 31
0.0
  0
LINE
  5
1413
  8
3
 10
77.0
 20
61.99049999999999
 30
0.0
 11
61.850429078887487
 21
61.990499999999983
 31
0.0
  0
LINE
  5
1414
  8
3
 10
77.0
 20
66.009499999999989
 30
0.0
 11
61.850429078887458
 21
66.009499999999989
 31
0.0
  0
LINE
  5
1415
  8
1
 10
55.0
 20
63.999999999999993
 30
0.0
 11
79.0
 21
63.999999999999979
 31
0.0
  0
POLYLINE
  5
1416
  8
0
 66
     1
 10
0.0
 20
0.0
 30
0.0
  0
VERTEX
  5
14A3
  8
0
 10
25.068468797624821
 20
34.0
 30
0.0
  0
VERTEX
  5
14A4
  8
0
 10
24.9972723038487
 20
34.012718417382168
 30
0.0
  0
VERTEX
  5
14A5
  8
0
 10
24.96824500025804
 20
34.032910886140449
 30
0.0
  0
VERTEX
  5
14A6
  8
0
 10
24.95141830502542
 20
34.066145402168843
 30
0.0
  0
VERTEX
  5
14A7
  8
0
 10
24.95195468794341
 20
34.103458757659709
 30
0.0
  0
VERTEX
  5
14A8
  8
0
 10
24.963374179065308
 20
34.137763356949712
 30
0.0
  0
VERTEX
  5
14A9
  8
0
 10
24.993272452201978
 20
34.18660343322756
 30
0.0
  0
VERTEX
  5
14AA
  8
0
 10
25.004001601281288
 20
34.200000000000003
 30
0.0
  0
SEQEND
  5
14AB
  8
0
  0
ARC
  5
1417
  8
0
 10
30.0
 20
30.0
 30
0.0
 40
6.5268675488322883
 50
40.052853231598029
 51
139.94714676840189
  0
POLYLINE
  5
1418
  8
0
 66
     1
 10
0.0
 20
0.0
 30
0.0
  0
VERTEX
  5
14AC
  8
0
 10
34.995998398718712
 20
34.200000000000003
 30
0.0
  0
VERTEX
  5
14AD
  8
0
 10
35.028940216938587
 20
34.15292661615063
 30
0.0
  0
VERTEX
  5
14AE
  8
0
 10
35.04596478127678
 20
34.112291161867859
 30
0.0
  0
VERTEX
  5
14AF
  8
0
 10
35.049662098645292
 20
34.073052264855903
 30
0.0
  0
VERTEX
  5
14B0
  8
0
 10
35.04106205302287
 20
34.045723764888237
 30
0.0
  0
VERTEX
  5
14B1
  8
0
 10
35.016742142536032
 20
34.020287174578108
 30
0.0
  0
VERTEX
  5
14B2
  8
0
 10
34.96449734256084
 20
34.002222474821792
 30
0.0
  0
VERTEX
  5
14B3
  8
0
 10
34.93153120237514
 20
34.0
 30
0.0
  0
SEQEND
  5
14B4
  8
0
  0
LINE
  5
1419
  8
0
 10
34.93153120237514
 20
34.0
 30
0.0
 11
25.068468797624821
 21
34.0
 31
0.0
  0
CIRCLE
  5
141A
  8
0
 10
30.0
 20
30.0
 30
0.0
 40
6.9999999999999991
  0
POLYLINE
  5
141B
  8
0
 66
     1
 10
0.0
 20
0.0
 30
0.0
  0
VERTEX
  5
14B5
  8
0
 10
34.931531202375197
 20
26.0
 30
0.0
  0
VERTEX
  5
14B6
  8
0
 10
35.002727696151283
 20
25.98728158261784
 30
0.0
  0
VERTEX
  5
14B7
  8
0
 10
35.031754999741963
 20
25.967089113859551
 30
0.0
  0
VERTEX
  5
14B8
  8
0
 10
35.048581694974587
 20
25.933854597831161
 30
0.0
  0
VERTEX
  5
14B9
  8
0
 10
35.048045312056587
 20
25.896541242340291
 30
0.0
  0
VERTEX
  5
14BA
  8
0
 10
35.036625820934688
 20
25.862236643050291
 30
0.0
  0
VERTEX
  5
14BB
  8
0
 10
35.00672754779805
 20
25.813396566772461
 30
0.0
  0
VERTEX
  5
14BC
  8
0
 10
34.995998398718712
 20
25.800000000000001
 30
0.0
  0
SEQEND
  5
14BD
  8
0
  0
ARC
  5
141C
  8
0
 10
30.0
 20
30.0
 30
0.0
 40
6.5268675488322838
 50
220.05285323159799
 51
319.94714676840192
  0
POLYLINE
  5
141D
  8
0
 66
     1
 10
0.0
 20
0.0
 30
0.0
  0
VERTEX
  5
14BE
  8
0
 10
25.004001601281288
 20
25.800000000000001
 30
0.0
  0
VERTEX
  5
14BF
  8
0
 10
24.971059783061399
 20
25.84707338384937
 30
0.0
  0
VERTEX
  5
14C0
  8
0
 10
24.954035218723241
 20
25.887708838132149
 30
0.0
  0
VERTEX
  5
14C1
  8
0
 10
24.95033790135469
 20
25.9269477351441
 30
0.0
  0
VERTEX
  5
14C2
  8
0
 10
24.958937946977102
 20
25.95427623511176
 30
0.0
  0
VERTEX
  5
14C3
  8
0
 10
24.98325785746394
 20
25.979712825421899
 30
0.0
  0
VERTEX
  5
14C4
  8
0
 10
25.035502657439171
 20
25.997777525178218
 30
0.0
  0
VERTEX
  5
14C5
  8
0
 10
25.068468797624821
 20
26.0
 30
0.0
  0
SEQEND
  5
14C6
  8
0
  0
LINE
  5
141E
  8
0
 10
25.068468797624821
 20
26.0
 30
0.0
 11
34.931531202375197
 21
26.0
 31
0.0
  0
LINE
  5
141F
  8
1
 10
30.0
 20
21.0
 30
0.0
 11
30.0
 21
39.0
 31
0.0
  0
LINE
  5
1420
  8
1
 10
39.0
 20
30.0
 30
0.0
 11
21.0
 21
30.0
 31
0.0
  0
ENDSEC
  0
EOF
