  0
SECTION
  2
HEADER
  9
$ACADVER
  1
AC1009
  9
$INSBASE
 10
0.0
 20
0.0
 30
0.0
  9
$EXTMIN
 10
0.0
 20
-1.4802182810368341
 30
0.0
  9
$EXTMAX
 10
107.0
 20
100.0000000000001
 30
0.0
  9
$LIMMIN
 10
0.0
 20
0.0
  9
$LIMMAX
 10
375.0
 20
270.0
  9
$ORTHOMODE
 70
     1
  9
$REGENMODE
 70
     1
  9
$FILLMODE
 70
     1
  9
$QTEXTMODE
 70
     0
  9
$MIRRTEXT
 70
     0
  9
$DRAGMODE
 70
     2
  9
$LTSCALE
 40
5.0
  9
$OSMODE
 70
    37
  9
$ATTMODE
 70
     1
  9
$TEXTSIZE
 40
0.2
  9
$TRACEWID
 40
0.05
  9
$TEXTSTYLE
  7
STANDARD
  9
$CLAYER
  8
4
  9
$CELTYPE
  6
BYLAYER
  9
$CECOLOR
 62
   256
  9
$DIMSCALE
 40
1.0
  9
$DIMASZ
 40
3.0
  9
$DIMEXO
 40
2.0
  9
$DIMDLI
 40
0.38
  9
$DIMRND
 40
0.0
  9
$DIMDLE
 40
0.0
  9
$DIMEXE
 40
2.0
  9
$DIMTP
 40
0.0
  9
$DIMTM
 40
0.0
  9
$DIMTXT
 40
3.2000000000000002
  9
$DIMCEN
 40
0.09
  9
$DIMTSZ
 40
0.0
  9
$DIMTOL
 70
     0
  9
$DIMLIM
 70
     0
  9
$DIMTIH
 70
     0
  9
$DIMTOH
 70
     0
  9
$DIMSE1
 70
     0
  9
$DIMSE2
 70
     0
  9
$DIMTAD
 70
     1
  9
$DIMZIN
 70
     8
  9
$DIMBLK
  1

  9
$DIMASO
 70
     1
  9
$DIMSHO
 70
     0
  9
$DIMPOST
  1

  9
$DIMAPOST
  1

  9
$DIMALT
 70
     0
  9
$DIMALTD
 70
     2
  9
$DIMALTF
 40
25.399999999999999
  9
$DIMLFAC
 40
1.0
  9
$DIMTOFL
 70
     1
  9
$DIMTVP
 40
1.6000000000000001
  9
$DIMTIX
 70
     1
  9
$DIMSOXD
 70
     0
  9
$DIMSAH
 70
     0
  9
$DIMBLK1
  1

  9
$DIMBLK2
  1

  9
$DIMSTYLE
  2
STANDARD
  9
$DIMCLRD
 70
   256
  9
$DIMCLRE
 70
   256
  9
$DIMCLRT
 70
   256
  9
$DIMTFAC
 40
1.0
  9
$DIMGAP
 40
1.0
  9
$LUNITS
 70
     2
  9
$LUPREC
 70
     1
  9
$SKETCHINC
 40
0.1
  9
$FILLETRAD
 40
0.0
  9
$AUNITS
 70
     0
  9
$AUPREC
 70
     0
  9
$MENU
  1
E:\r13\win\SUPPORT\ACAD
  9
$ELEVATION
 40
0.0
  9
$PELEVATION
 40
0.0
  9
$THICKNESS
 40
0.0
  9
$LIMCHECK
 70
     0
  9
$BLIPMODE
 70
     0
  9
$CHAMFERA
 40
0.0
  9
$CHAMFERB
 40
0.0
  9
$SKPOLY
 70
     0
  9
$TDCREATE
 40
2449839.8447916671
  9
$TDUPDATE
 40
2459207.6378002781
  9
$TDINDWG
 40
0.3394070139
  9
$TDUSRTIMER
 40
0.3394070139
  9
$USRTIMER
 70
     1
  9
$ANGBASE
 50
0.0
  9
$ANGDIR
 70
     0
  9
$PDMODE
 70
     0
  9
$PDSIZE
 40
0.0
  9
$PLINEWID
 40
0.0
  9
$COORDS
 70
     1
  9
$SPLFRAME
 70
     0
  9
$SPLINETYPE
 70
     6
  9
$SPLINESEGS
 70
     8
  9
$ATTDIA
 70
     0
  9
$ATTREQ
 70
     1
  9
$HANDLING
 70
     1
  9
$HANDSEED
  5
1931
  9
$SURFTAB1
 70
     6
  9
$SURFTAB2
 70
     6
  9
$SURFTYPE
 70
     6
  9
$SURFU
 70
     6
  9
$SURFV
 70
     6
  9
$UCSNAME
  2

  9
$UCSORG
 10
0.0
 20
0.0
 30
0.0
  9
$UCSXDIR
 10
1.0
 20
0.0
 30
0.0
  9
$UCSYDIR
 10
0.0
 20
1.0
 30
0.0
  9
$PUCSNAME
  2

  9
$PUCSORG
 10
0.0
 20
0.0
 30
0.0
  9
$PUCSXDIR
 10
1.0
 20
0.0
 30
0.0
  9
$PUCSYDIR
 10
0.0
 20
1.0
 30
0.0
  9
$USERI1
 70
     0
  9
$USERI2
 70
     1
  9
$USERI3
 70
     1
  9
$USERI4
 70
     0
  9
$USERI5
 70
     0
  9
$USERR1
 40
0.0
  9
$USERR2
 40
0.0
  9
$USERR3
 40
0.0
  9
$USERR4
 40
0.0
  9
$USERR5
 40
0.0
  9
$WORLDVIEW
 70
     1
  9
$SHADEDGE
 70
     3
  9
$SHADEDIF
 70
    70
  9
$TILEMODE
 70
     1
  9
$MAXACTVP
 70
    16
  9
$PLIMCHECK
 70
     0
  9
$PEXTMIN
 10
1.0000000000000000E+020
 20
1.0000000000000000E+020
 30
1.0000000000000000E+020
  9
$PEXTMAX
 10
-1.0000000000000000E+020
 20
-1.0000000000000000E+020
 30
-1.0000000000000000E+020
  9
$PLIMMIN
 10
0.0
 20
0.0
  9
$PLIMMAX
 10
12.0
 20
9.0
  9
$UNITMODE
 70
     0
  9
$VISRETAIN
 70
     0
  9
$PLINEGEN
 70
     0
  9
$PSLTSCALE
 70
     0
  0
ENDSEC
  0
SECTION
  2
TABLES
  0
TABLE
  2
VPORT
 70
     1
  0
VPORT
  2
*ACTIVE
 70
     0
 10
0.0
 20
0.0
 11
1.0
 21
1.0
 12
198.52941176470591
 22
75.0
 13
0.0
 23
0.0
 14
10.0
 24
10.0
 15
10.0
 25
10.0
 16
0.0
 26
0.0
 36
1.0
 17
0.0
 27
0.0
 37
0.0
 40
150.0
 41
2.6470588235294108
 42
50.0
 43
0.0
 44
0.0
 50
0.0
 51
0.0
 71
     0
 72
   500
 73
     1
 74
     0
 75
     0
 76
     0
 77
     0
 78
     2
  0
ENDTAB
  0
TABLE
  2
LTYPE
 70
     4
  0
LTYPE
  2
CONTINUOUS
 70
     0
  3
Solid Line
 72
    65
 73
     0
 40
0.0
  0
LTYPE
  2
CENTER
 70
     0
  3
____ _ ____ _ ____ _ ____ _ ____ _ ____ _ ____
 72
    65
 73
     4
 40
2.0
 49
1.25
 49
-0.25
 49
0.25
 49
-0.25
  0
LTYPE
  2
HIDDEN
 70
     0
  3
_ _ _ _ _ _ _ _ _ _ _ _ _ _ _ _ _ _ _ _ _ _ _
 72
    65
 73
     2
 40
0.375
 49
0.25
 49
-0.125
  0
LTYPE
  2
PHANTOM2
 70
     0
  3
___ _ _ ___ _ _ ___ _ _ ___ _ _
 72
    65
 73
     6
 40
1.25
 49
0.625
 49
-0.125
 49
0.125
 49
-0.125
 49
0.125
 49
-0.125
  0
ENDTAB
  0
TABLE
  2
LAYER
 70
     6
  0
LAYER
  2
0
 70
     0
 62
     7
  6
CONTINUOUS
  0
LAYER
  2
1
 70
     0
 62
     1
  6
CENTER
  0
LAYER
  2
2
 70
     0
 62
     2
  6
HIDDEN
  0
LAYER
  2
DEFPOINTS
 70
     0
 62
     7
  6
CONTINUOUS
  0
LAYER
  2
4
 70
     0
 62
     4
  6
CONTINUOUS
  0
LAYER
  2
3
 70
     0
 62
     3
  6
CONTINUOUS
  0
ENDTAB
  0
TABLE
  2
STYLE
 70
     2
  0
STYLE
  2
STANDARD
 70
     0
 40
0.0
 41
1.0
 50
0.0
 71
     0
 42
0.2
  3
TXT
  4
BIGFONT
  0
STYLE
  2
STANDARD1
 70
     0
 40
0.0
 41
1.0
 50
0.0
 71
     0
 42
3.0
  3
txt
  4

  0
ENDTAB
  0
TABLE
  2
VIEW
 70
     1
  0
VIEW
  2
ALL
 70
     0
 40
270.0
 10
220.99159663865549
 20
135.0
 41
0.0
 11
0.0
 21
0.0
 31
1.0
 12
0.0
 22
0.0
 32
0.0
 42
0.0
 43
0.0
 44
0.0
 50
0.0
 71
     0
  0
ENDTAB
  0
TABLE
  2
UCS
 70
     0
  0
ENDTAB
  0
TABLE
  2
APPID
 70
    10
  0
APPID
  2
ACAD
 70
     0
  0
APPID
  2
ACAD_MLEADERVER
 70
     0
  0
APPID
  2
ACAD_NAV_VCDISPLAY
 70
     0
  0
APPID
  2
ACAD_EXEMPT_FROM_CAD_STANDARDS
 70
     0
  0
APPID
  2
ACAD_DSTYLE_DIMJAG
 70
     0
  0
APPID
  2
ACAD_DSTYLE_DIMTALN
 70
     0
  0
APPID
  2
ACAECLAYERSTANDARD
 70
     0
  0
APPID
  2
ACCMTRANSPARENCY
 70
     0
  0
APPID
  2
DCO15
 70
     0
  0
APPID
  2
ACAD_DSTYLE_DIMRADIAL_EXTENSION
 70
     0
  0
ENDTAB
  0
TABLE
  2
DIMSTYLE
 70
     1
  0
DIMSTYLE
  2
STANDARD
 70
     0
  3

  4

  5

  6

  7

 40
1.0
 41
0.18
 42
0.0625
 43
0.38
 44
0.18
 45
0.0
 46
0.0
 47
0.0
 48
0.0
140
0.18
141
0.09
142
0.0
143
25.399999999999999
144
1.0
145
0.0
146
1.0
147
0.09
 71
     0
 72
     0
 73
     1
 74
     1
 75
     0
 76
     0
 77
     0
 78
     0
170
     0
171
     2
172
     0
173
     0
174
     0
175
     0
176
     0
177
     0
178
     0
  0
ENDTAB
  0
ENDSEC
  0
SECTION
  2
BLOCKS
  0
BLOCK
  8
0
  2
$MODEL_SPACE
 70
     0
 10
0.0
 20
0.0
 30
0.0
  3
$MODEL_SPACE
  1

  0
ENDBLK
  5
10E
  8
0
  0
BLOCK
 67
     1
  8
0
  2
$PAPER_SPACE
 70
     0
 10
0.0
 20
0.0
 30
0.0
  3
$PAPER_SPACE
  1

  0
ENDBLK
  5
10C
 67
     1
  8
0
  0
ENDSEC
  0
SECTION
  2
ENTITIES
  0
TEXT
  5
4DC
  8
0
 62
     3
 10
0.0
 20
0.0
 30
0.0
 40
5.0
  1
HD-BHS08X20
  7
STANDARD1
  0
LINE
  5
183E
  8
0
 10
85.599999999999994
 20
37.0
 30
0.0
 11
85.807179676972439
 21
37.0
 31
0.0
  0
LINE
  5
183F
  8
0
 10
85.807179676972439
 20
43.0
 30
0.0
 11
85.599999999999994
 21
43.0
 31
0.0
  0
ARC
  5
1840
  8
0
 10
85.807179676972439
 20
36.400000000000013
 30
0.0
 40
0.599999999999989
 50
60.0
 51
90.0
  0
ARC
  5
1841
  8
0
 10
85.807179676972439
 20
43.59999999999998
 30
0.0
 40
0.5999999999999895
 50
270.0
 51
300.0
  0
ARC
  5
1842
  8
0
 10
85.599999999999994
 20
36.399999999999999
 30
0.0
 40
0.6000000000000001
 50
90.0
 51
180.0
  0
ARC
  5
1843
  8
0
 10
85.599999999999994
 20
43.600000000000001
 30
0.0
 40
0.6000000000000006
 50
180.0
 51
270.0
  0
LINE
  5
1844
  8
0
 10
86.107179676972436
 20
36.919615242270673
 30
0.0
 11
87.699999999999989
 21
36.0
 31
0.0
  0
LINE
  5
1845
  8
0
 10
87.699999999999989
 20
44.0
 30
0.0
 11
86.107179676972436
 21
43.080384757729327
 31
0.0
  0
LINE
  5
1846
  8
0
 10
105.0
 20
43.23299999999999
 30
0.0
 11
104.233
 21
44.0
 31
0.0
  0
LINE
  5
1847
  8
0
 10
104.233
 20
36.0
 30
0.0
 11
105.0
 21
36.767000000000003
 31
0.0
  0
LINE
  5
1848
  8
0
 10
105.0
 20
43.23299999999999
 30
0.0
 11
105.0
 21
36.767000000000003
 31
0.0
  0
LINE
  5
1849
  8
0
 10
87.699999999999989
 20
36.0
 30
0.0
 11
104.233
 21
36.0
 31
0.0
  0
LINE
  5
184A
  8
0
 10
104.233
 20
44.0
 30
0.0
 11
87.699999999999989
 21
44.0
 31
0.0
  0
LINE
  5
184B
  8
0
 10
104.233
 20
44.0
 30
0.0
 11
104.233
 21
36.0
 31
0.0
  0
LINE
  5
184C
  8
0
 10
87.699999999999989
 20
44.0
 30
0.0
 11
87.699999999999989
 21
36.0
 31
0.0
  0
LINE
  5
184D
  8
0
 10
84.693376137081913
 20
30.0
 30
0.0
 11
85.0
 21
30.0
 31
0.0
  0
LINE
  5
184E
  8
0
 10
85.0
 20
50.0
 30
0.0
 11
84.693376137081913
 21
50.0
 31
0.0
  0
LINE
  5
184F
  8
0
 10
85.0
 20
50.0
 30
0.0
 11
85.0
 21
30.0
 31
0.0
  0
POLYLINE
  5
1850
  8
0
 66
     1
 10
0.0
 20
0.0
 30
0.0
  0
VERTEX
  5
18E1
  8
0
 10
83.499999999999986
 20
46.699999999999989
 30
0.0
  0
VERTEX
  5
18E2
  8
0
 10
83.495204694325054
 20
46.656466939994317
 30
0.0
  0
VERTEX
  5
18E3
  8
0
 10
83.484252885392891
 20
46.622212634545242
 30
0.0
  0
VERTEX
  5
18E4
  8
0
 10
83.469786652993164
 20
46.594299988337831
 30
0.0
  0
VERTEX
  5
18E5
  8
0
 10
83.450440945543093
 20
46.56821410582274
 30
0.0
  0
VERTEX
  5
18E6
  8
0
 10
83.430123955128096
 20
46.548119269483728
 30
0.0
  0
VERTEX
  5
18E7
  8
0
 10
83.395921039654581
 20
46.52450312210302
 30
0.0
  0
VERTEX
  5
18E8
  8
0
 10
83.339845666437924
 20
46.504009380668052
 30
0.0
  0
VERTEX
  5
18E9
  8
0
 10
83.300000000000011
 20
46.5
 30
0.0
  0
SEQEND
  5
18EA
  8
0
  0
LINE
  5
1851
  8
0
 10
83.300000000000011
 20
46.5
 30
0.0
 11
81.741669750802288
 21
46.5
 31
0.0
  0
POLYLINE
  5
1852
  8
0
 66
     1
 10
0.0
 20
0.0
 30
0.0
  0
VERTEX
  5
18EB
  8
0
 10
83.300000000000011
 20
33.5
 30
0.0
  0
VERTEX
  5
18EC
  8
0
 10
83.371469247191527
 20
33.486794396880519
 30
0.0
  0
VERTEX
  5
18ED
  8
0
 10
83.403815536963023
 20
33.47094541317356
 30
0.0
  0
VERTEX
  5
18EE
  8
0
 10
83.438294145155027
 20
33.444480896369882
 30
0.0
  0
VERTEX
  5
18EF
  8
0
 10
83.458990685405936
 20
33.421334092299503
 30
0.0
  0
VERTEX
  5
18F0
  8
0
 10
83.476332992612754
 20
33.394375185913617
 30
0.0
  0
VERTEX
  5
18F1
  8
0
 10
83.487989008636561
 20
33.368265164118682
 30
0.0
  0
VERTEX
  5
18F2
  8
0
 10
83.498022056999531
 20
33.328058241956199
 30
0.0
  0
VERTEX
  5
18F3
  8
0
 10
83.499999999999986
 20
33.299999999999997
 30
0.0
  0
SEQEND
  5
18F4
  8
0
  0
LINE
  5
1853
  8
0
 10
83.499999999999986
 20
33.299999999999997
 30
0.0
 11
83.499999999999986
 21
31.125880325350579
 31
0.0
  0
ARC
  5
1854
  8
0
 10
92.999999999999488
 20
40.000000000000533
 30
0.0
 40
12.999999999999259
 50
129.71513723182551
 51
136.95092019976329
  0
ARC
  5
1855
  8
0
 10
93.0
 20
40.0
 30
0.0
 40
13.0
 50
150.0000000000006
 51
209.99999999999929
  0
ARC
  5
1856
  8
0
 10
92.999999999999972
 20
39.99999999999995
 30
0.0
 40
12.999999999999931
 50
223.04907980023671
 51
230.28486276817449
  0
LINE
  5
1857
  8
0
 10
83.499999999999986
 20
48.874119674649421
 30
0.0
 11
83.499999999999986
 21
46.699999999999989
 31
0.0
  0
LINE
  5
1858
  8
0
 10
84.693376137081913
 20
50.0
 30
0.0
 11
84.693376137081913
 21
30.0
 31
0.0
  0
LINE
  5
1859
  8
0
 10
81.741669750802288
 20
33.5
 30
0.0
 11
83.300000000000011
 21
33.5
 31
0.0
  0
LINE
  5
185A
  8
3
 10
105.0
 20
43.23299999999999
 30
0.0
 11
86.371517030594646
 21
43.23299999999999
 31
0.0
  0
LINE
  5
185B
  8
3
 10
105.0
 20
36.767000000000003
 30
0.0
 11
86.371517030594674
 21
36.767000000000003
 31
0.0
  0
LINE
  5
185C
  8
1
 10
78.0
 20
40.0
 30
0.0
 11
107.0
 21
40.0
 31
0.0
  0
LINE
  5
185D
  8
0
 10
85.599999999999994
 20
87.000000000000014
 30
0.0
 11
85.807179676972439
 21
87.000000000000014
 31
0.0
  0
LINE
  5
185E
  8
0
 10
85.807179676972439
 20
93.000000000000014
 30
0.0
 11
85.599999999999994
 21
93.000000000000014
 31
0.0
  0
ARC
  5
185F
  8
0
 10
85.807179676972439
 20
86.40000000000002
 30
0.0
 40
0.599999999999989
 50
60.0
 51
90.0
  0
ARC
  5
1860
  8
0
 10
85.807179676972439
 20
93.600000000000009
 30
0.0
 40
0.5999999999999895
 50
270.0
 51
300.0
  0
ARC
  5
1861
  8
0
 10
85.599999999999994
 20
86.40000000000002
 30
0.0
 40
0.6000000000000001
 50
90.0
 51
180.0
  0
ARC
  5
1862
  8
0
 10
85.599999999999994
 20
93.600000000000009
 30
0.0
 40
0.6000000000000006
 50
180.0
 51
270.0
  0
LINE
  5
1863
  8
0
 10
86.107179676972436
 20
86.91961524227068
 30
0.0
 11
87.699999999999989
 21
86.000000000000014
 31
0.0
  0
LINE
  5
1864
  8
0
 10
87.699999999999989
 20
94.000000000000014
 30
0.0
 11
86.107179676972436
 21
93.080384757729348
 31
0.0
  0
LINE
  5
1865
  8
0
 10
105.0
 20
93.233000000000004
 30
0.0
 11
105.0
 21
86.767000000000024
 31
0.0
  0
LINE
  5
1866
  8
0
 10
105.0
 20
93.233000000000004
 30
0.0
 11
104.233
 21
94.000000000000014
 31
0.0
  0
LINE
  5
1867
  8
0
 10
104.233
 20
86.000000000000014
 30
0.0
 11
105.0
 21
86.767000000000024
 31
0.0
  0
LINE
  5
1868
  8
0
 10
104.233
 20
94.000000000000014
 30
0.0
 11
104.233
 21
86.000000000000014
 31
0.0
  0
LINE
  5
1869
  8
0
 10
87.699999999999989
 20
94.000000000000014
 30
0.0
 11
87.699999999999989
 21
86.000000000000014
 31
0.0
  0
LINE
  5
186A
  8
0
 10
87.699999999999989
 20
86.000000000000014
 30
0.0
 11
104.233
 21
86.000000000000014
 31
0.0
  0
LINE
  5
186B
  8
0
 10
104.233
 20
94.000000000000014
 30
0.0
 11
87.699999999999989
 21
94.000000000000014
 31
0.0
  0
LINE
  5
186C
  8
0
 10
85.0
 20
100.0
 30
0.0
 11
85.0
 21
80.000000000000014
 31
0.0
  0
LINE
  5
186D
  8
0
 10
84.693376137081913
 20
80.000000000000014
 30
0.0
 11
85.0
 21
80.000000000000014
 31
0.0
  0
LINE
  5
186E
  8
0
 10
85.0
 20
100.0
 30
0.0
 11
84.693376137081913
 21
100.0
 31
0.0
  0
POLYLINE
  5
186F
  8
0
 66
     1
 10
0.0
 20
0.0
 30
0.0
  0
VERTEX
  5
18F5
  8
0
 10
83.300000000000011
 20
95.714892824891834
 30
0.0
  0
VERTEX
  5
18F6
  8
0
 10
83.371469247191527
 20
95.819755004612745
 30
0.0
  0
VERTEX
  5
18F7
  8
0
 10
83.403815536963023
 20
95.855312968032422
 30
0.0
  0
VERTEX
  5
18F8
  8
0
 10
83.438294145155027
 20
95.882087250913912
 30
0.0
  0
VERTEX
  5
18F9
  8
0
 10
83.458990685405936
 20
95.889846868441396
 30
0.0
  0
VERTEX
  5
18FA
  8
0
 10
83.476332992612754
 20
95.887740445020498
 30
0.0
  0
VERTEX
  5
18FB
  8
0
 10
83.487989008636561
 20
95.877222130117985
 30
0.0
  0
VERTEX
  5
18FC
  8
0
 10
83.498022056999531
 20
95.847872121379226
 30
0.0
  0
VERTEX
  5
18FD
  8
0
 10
83.499999999999986
 20
95.818934610390485
 30
0.0
  0
SEQEND
  5
18FE
  8
0
  0
LINE
  5
1870
  8
0
 10
83.499999999999986
 20
95.818934610390485
 30
0.0
 11
83.499999999999986
 21
84.181065389609529
 31
0.0
  0
POLYLINE
  5
1871
  8
0
 66
     1
 10
0.0
 20
0.0
 30
0.0
  0
VERTEX
  5
18FF
  8
0
 10
83.499999999999986
 20
84.181065389609529
 30
0.0
  0
VERTEX
  5
1900
  8
0
 10
83.495204694325054
 20
84.139085901159916
 30
0.0
  0
VERTEX
  5
1901
  8
0
 10
83.484252885392891
 20
84.11809072887759
 30
0.0
  0
VERTEX
  5
1902
  8
0
 10
83.469786652993164
 20
84.110157792916681
 30
0.0
  0
VERTEX
  5
1903
  8
0
 10
83.450440945543093
 20
84.112344666549234
 30
0.0
  0
VERTEX
  5
1904
  8
0
 10
83.430123955128096
 20
84.122959374105719
 30
0.0
  0
VERTEX
  5
1905
  8
0
 10
83.395921039654581
 20
84.152562413063464
 30
0.0
  0
VERTEX
  5
1906
  8
0
 10
83.339845666437924
 20
84.222519560574554
 30
0.0
  0
VERTEX
  5
1907
  8
0
 10
83.300000000000011
 20
84.285107175108735
 30
0.0
  0
SEQEND
  5
1908
  8
0
  0
ARC
  5
1872
  8
0
 10
92.999999999998948
 20
90.000000000000284
 30
0.0
 40
11.258330249196661
 50
149.49493022032701
 51
210.50506977967299
  0
LINE
  5
1873
  8
0
 10
84.693376137081913
 20
100.0
 30
0.0
 11
84.693376137081913
 21
80.000000000000014
 31
0.0
  0
ARC
  5
1874
  8
0
 10
93.0
 20
90.000000000000014
 30
0.0
 40
13.0
 50
129.71513723182551
 51
230.28486276817461
  0
LINE
  5
1875
  8
3
 10
105.0
 20
86.767000000000024
 30
0.0
 11
86.371517030594646
 21
86.767000000000024
 31
0.0
  0
LINE
  5
1876
  8
3
 10
105.0
 20
93.233000000000004
 30
0.0
 11
86.371517030594646
 21
93.233000000000004
 31
0.0
  0
LINE
  5
1877
  8
1
 10
78.0
 20
90.000000000000014
 30
0.0
 11
107.0
 21
90.000000000000014
 31
0.0
  0
POLYLINE
  5
1878
  8
0
 66
     1
 10
0.0
 20
0.0
 30
0.0
  0
VERTEX
  5
1909
  8
0
 10
34.28510717510818
 20
46.5
 30
0.0
  0
VERTEX
  5
190A
  8
0
 10
34.180244995387277
 20
46.513205603119481
 30
0.0
  0
VERTEX
  5
190B
  8
0
 10
34.144687031967578
 20
46.52905458682644
 30
0.0
  0
VERTEX
  5
190C
  8
0
 10
34.117912749086088
 20
46.555519103630111
 30
0.0
  0
VERTEX
  5
190D
  8
0
 10
34.110153131558612
 20
46.578665907700497
 30
0.0
  0
VERTEX
  5
190E
  8
0
 10
34.112259554979516
 20
46.605624814086383
 30
0.0
  0
VERTEX
  5
190F
  8
0
 10
34.122777869882022
 20
46.631734835881318
 30
0.0
  0
VERTEX
  5
1910
  8
0
 10
34.152127878620782
 20
46.671941758043801
 30
0.0
  0
VERTEX
  5
1911
  8
0
 10
34.181065389609529
 20
46.699999999999989
 30
0.0
  0
SEQEND
  5
1912
  8
0
  0
ARC
  5
1879
  8
0
 10
40.0
 20
40.0
 30
0.0
 40
8.8741196746494229
 50
49.025760137360763
 51
130.97423986263911
  0
POLYLINE
  5
187A
  8
0
 66
     1
 10
0.0
 20
0.0
 30
0.0
  0
VERTEX
  5
1913
  8
0
 10
45.818934610390457
 20
46.699999999999989
 30
0.0
  0
VERTEX
  5
1914
  8
0
 10
45.860914098840077
 20
46.656466939994317
 30
0.0
  0
VERTEX
  5
1915
  8
0
 10
45.881909271122417
 20
46.622212634545242
 30
0.0
  0
VERTEX
  5
1916
  8
0
 10
45.889842207083348
 20
46.594299988337831
 30
0.0
  0
VERTEX
  5
1917
  8
0
 10
45.887655333450759
 20
46.56821410582274
 30
0.0
  0
VERTEX
  5
1918
  8
0
 10
45.877040625894303
 20
46.548119269483728
 30
0.0
  0
VERTEX
  5
1919
  8
0
 10
45.847437586936543
 20
46.52450312210302
 30
0.0
  0
VERTEX
  5
191A
  8
0
 10
45.77748043942546
 20
46.504009380668052
 30
0.0
  0
VERTEX
  5
191B
  8
0
 10
45.714892824891272
 20
46.5
 30
0.0
  0
SEQEND
  5
191C
  8
0
  0
LINE
  5
187B
  8
0
 10
45.714892824891272
 20
46.5
 30
0.0
 11
34.28510717510818
 21
46.5
 31
0.0
  0
CIRCLE
  5
187C
  8
0
 10
40.0
 20
40.0
 30
0.0
 40
10.0
  0
POLYLINE
  5
187D
  8
0
 66
     1
 10
0.0
 20
0.0
 30
0.0
  0
VERTEX
  5
191D
  8
0
 10
45.714892824891812
 20
33.5
 30
0.0
  0
VERTEX
  5
191E
  8
0
 10
45.819755004612709
 20
33.486794396880519
 30
0.0
  0
VERTEX
  5
191F
  8
0
 10
45.855312968032393
 20
33.47094541317356
 30
0.0
  0
VERTEX
  5
1920
  8
0
 10
45.882087250913877
 20
33.444480896369882
 30
0.0
  0
VERTEX
  5
1921
  8
0
 10
45.889846868441388
 20
33.421334092299503
 30
0.0
  0
VERTEX
  5
1922
  8
0
 10
45.887740445020484
 20
33.394375185913617
 30
0.0
  0
VERTEX
  5
1923
  8
0
 10
45.877222130117978
 20
33.368265164118682
 30
0.0
  0
VERTEX
  5
1924
  8
0
 10
45.847872121379197
 20
33.328058241956199
 30
0.0
  0
VERTEX
  5
1925
  8
0
 10
45.818934610389753
 20
33.299999999999997
 30
0.0
  0
SEQEND
  5
1926
  8
0
  0
ARC
  5
187E
  8
0
 10
39.999999999999659
 20
39.999999999999069
 30
0.0
 40
8.8741196746484903
 50
229.02576013735859
 51
310.9742398626413
  0
POLYLINE
  5
187F
  8
0
 66
     1
 10
0.0
 20
0.0
 30
0.0
  0
VERTEX
  5
1927
  8
0
 10
34.181065389609557
 20
33.299999999999997
 30
0.0
  0
VERTEX
  5
1928
  8
0
 10
34.139085901159937
 20
33.34353306000569
 30
0.0
  0
VERTEX
  5
1929
  8
0
 10
34.118090728877583
 20
33.377787365454758
 30
0.0
  0
VERTEX
  5
192A
  8
0
 10
34.110157792916681
 20
33.405700011662162
 30
0.0
  0
VERTEX
  5
192B
  8
0
 10
34.112344666549227
 20
33.431785894177253
 30
0.0
  0
VERTEX
  5
192C
  8
0
 10
34.122959374105712
 20
33.451880730516272
 30
0.0
  0
VERTEX
  5
192D
  8
0
 10
34.152562413063471
 20
33.475496877896973
 30
0.0
  0
VERTEX
  5
192E
  8
0
 10
34.222519560574568
 20
33.495990619331941
 30
0.0
  0
VERTEX
  5
192F
  8
0
 10
34.28510717510818
 20
33.5
 30
0.0
  0
SEQEND
  5
1930
  8
0
  0
LINE
  5
1880
  8
0
 10
34.28510717510818
 20
33.5
 30
0.0
 11
45.714892824891812
 21
33.5
 31
0.0
  0
LINE
  5
1881
  8
1
 10
40.0
 20
28.0
 30
0.0
 11
40.0
 21
52.0
 31
0.0
  0
LINE
  5
1882
  8
1
 10
52.0
 20
40.0
 30
0.0
 11
28.0
 21
40.0
 31
0.0
  0
ENDSEC
  0
EOF
