  0
SECTION
  2
HEADER
  9
$ACADVER
  1
AC1009
  9
$INSBASE
 10
0.0
 20
0.0
 30
0.0
  9
$EXTMIN
 10
0.0
 20
-1.4802182810368341
 30
0.0
  9
$EXTMAX
 10
63.0
 20
63.5
 30
0.0
  9
$LIMMIN
 10
0.0
 20
0.0
  9
$LIMMAX
 10
375.0
 20
270.0
  9
$ORTHOMODE
 70
     1
  9
$REGENMODE
 70
     1
  9
$FILLMODE
 70
     1
  9
$QTEXTMODE
 70
     0
  9
$MIRRTEXT
 70
     0
  9
$DRAGMODE
 70
     2
  9
$LTSCALE
 40
3.0
  9
$OSMODE
 70
    37
  9
$ATTMODE
 70
     1
  9
$TEXTSIZE
 40
0.2
  9
$TRACEWID
 40
0.05
  9
$TEXTSTYLE
  7
STANDARD
  9
$CLAYER
  8
4
  9
$CELTYPE
  6
BYLAYER
  9
$CECOLOR
 62
   256
  9
$DIMSCALE
 40
1.0
  9
$DIMASZ
 40
3.0
  9
$DIMEXO
 40
2.0
  9
$DIMDLI
 40
0.38
  9
$DIMRND
 40
0.0
  9
$DIMDLE
 40
0.0
  9
$DIMEXE
 40
2.0
  9
$DIMTP
 40
0.0
  9
$DIMTM
 40
0.0
  9
$DIMTXT
 40
3.2000000000000002
  9
$DIMCEN
 40
0.09
  9
$DIMTSZ
 40
0.0
  9
$DIMTOL
 70
     0
  9
$DIMLIM
 70
     0
  9
$DIMTIH
 70
     0
  9
$DIMTOH
 70
     0
  9
$DIMSE1
 70
     0
  9
$DIMSE2
 70
     0
  9
$DIMTAD
 70
     1
  9
$DIMZIN
 70
     8
  9
$DIMBLK
  1

  9
$DIMASO
 70
     1
  9
$DIMSHO
 70
     0
  9
$DIMPOST
  1

  9
$DIMAPOST
  1

  9
$DIMALT
 70
     0
  9
$DIMALTD
 70
     2
  9
$DIMALTF
 40
25.399999999999999
  9
$DIMLFAC
 40
1.0
  9
$DIMTOFL
 70
     1
  9
$DIMTVP
 40
1.6000000000000001
  9
$DIMTIX
 70
     1
  9
$DIMSOXD
 70
     0
  9
$DIMSAH
 70
     0
  9
$DIMBLK1
  1

  9
$DIMBLK2
  1

  9
$DIMSTYLE
  2
STANDARD
  9
$DIMCLRD
 70
   256
  9
$DIMCLRE
 70
   256
  9
$DIMCLRT
 70
   256
  9
$DIMTFAC
 40
1.0
  9
$DIMGAP
 40
1.0
  9
$LUNITS
 70
     2
  9
$LUPREC
 70
     1
  9
$SKETCHINC
 40
0.1
  9
$FILLETRAD
 40
0.0
  9
$AUNITS
 70
     0
  9
$AUPREC
 70
     0
  9
$MENU
  1
E:\r13\win\SUPPORT\ACAD
  9
$ELEVATION
 40
0.0
  9
$PELEVATION
 40
0.0
  9
$THICKNESS
 40
0.0
  9
$LIMCHECK
 70
     0
  9
$BLIPMODE
 70
     0
  9
$CHAMFERA
 40
0.0
  9
$CHAMFERB
 40
0.0
  9
$SKPOLY
 70
     0
  9
$TDCREATE
 40
2449839.8447916671
  9
$TDUPDATE
 40
2459207.6378119681
  9
$TDINDWG
 40
0.2057806713
  9
$TDUSRTIMER
 40
0.2057806713
  9
$USRTIMER
 70
     1
  9
$ANGBASE
 50
0.0
  9
$ANGDIR
 70
     0
  9
$PDMODE
 70
     0
  9
$PDSIZE
 40
0.0
  9
$PLINEWID
 40
0.0
  9
$COORDS
 70
     1
  9
$SPLFRAME
 70
     0
  9
$SPLINETYPE
 70
     6
  9
$SPLINESEGS
 70
     8
  9
$ATTDIA
 70
     0
  9
$ATTREQ
 70
     1
  9
$HANDLING
 70
     1
  9
$HANDSEED
  5
1569
  9
$SURFTAB1
 70
     6
  9
$SURFTAB2
 70
     6
  9
$SURFTYPE
 70
     6
  9
$SURFU
 70
     6
  9
$SURFV
 70
     6
  9
$UCSNAME
  2

  9
$UCSORG
 10
0.0
 20
0.0
 30
0.0
  9
$UCSXDIR
 10
1.0
 20
0.0
 30
0.0
  9
$UCSYDIR
 10
0.0
 20
1.0
 30
0.0
  9
$PUCSNAME
  2

  9
$PUCSORG
 10
0.0
 20
0.0
 30
0.0
  9
$PUCSXDIR
 10
1.0
 20
0.0
 30
0.0
  9
$PUCSYDIR
 10
0.0
 20
1.0
 30
0.0
  9
$USERI1
 70
     0
  9
$USERI2
 70
     1
  9
$USERI3
 70
     1
  9
$USERI4
 70
     0
  9
$USERI5
 70
     0
  9
$USERR1
 40
0.0
  9
$USERR2
 40
0.0
  9
$USERR3
 40
0.0
  9
$USERR4
 40
0.0
  9
$USERR5
 40
0.0
  9
$WORLDVIEW
 70
     1
  9
$SHADEDGE
 70
     3
  9
$SHADEDIF
 70
    70
  9
$TILEMODE
 70
     1
  9
$MAXACTVP
 70
    16
  9
$PLIMCHECK
 70
     0
  9
$PEXTMIN
 10
1.0000000000000000E+020
 20
1.0000000000000000E+020
 30
1.0000000000000000E+020
  9
$PEXTMAX
 10
-1.0000000000000000E+020
 20
-1.0000000000000000E+020
 30
-1.0000000000000000E+020
  9
$PLIMMIN
 10
0.0
 20
0.0
  9
$PLIMMAX
 10
12.0
 20
9.0
  9
$UNITMODE
 70
     0
  9
$VISRETAIN
 70
     0
  9
$PLINEGEN
 70
     0
  9
$PSLTSCALE
 70
     0
  0
ENDSEC
  0
SECTION
  2
TABLES
  0
TABLE
  2
VPORT
 70
     1
  0
VPORT
  2
*ACTIVE
 70
     0
 10
0.0
 20
0.0
 11
1.0
 21
1.0
 12
132.35294117647061
 22
50.0
 13
0.0
 23
0.0
 14
10.0
 24
10.0
 15
10.0
 25
10.0
 16
0.0
 26
0.0
 36
1.0
 17
0.0
 27
0.0
 37
0.0
 40
100.0
 41
2.6470588235294108
 42
50.0
 43
0.0
 44
0.0
 50
0.0
 51
0.0
 71
     0
 72
   500
 73
     1
 74
     0
 75
     0
 76
     0
 77
     0
 78
     2
  0
ENDTAB
  0
TABLE
  2
LTYPE
 70
     4
  0
LTYPE
  2
CONTINUOUS
 70
     0
  3
Solid Line
 72
    65
 73
     0
 40
0.0
  0
LTYPE
  2
CENTER
 70
     0
  3
____ _ ____ _ ____ _ ____ _ ____ _ ____ _ ____
 72
    65
 73
     4
 40
2.0
 49
1.25
 49
-0.25
 49
0.25
 49
-0.25
  0
LTYPE
  2
HIDDEN
 70
     0
  3
_ _ _ _ _ _ _ _ _ _ _ _ _ _ _ _ _ _ _ _ _ _ _
 72
    65
 73
     2
 40
0.375
 49
0.25
 49
-0.125
  0
LTYPE
  2
PHANTOM2
 70
     0
  3
___ _ _ ___ _ _ ___ _ _ ___ _ _
 72
    65
 73
     6
 40
1.25
 49
0.625
 49
-0.125
 49
0.125
 49
-0.125
 49
0.125
 49
-0.125
  0
ENDTAB
  0
TABLE
  2
LAYER
 70
     6
  0
LAYER
  2
0
 70
     0
 62
     7
  6
CONTINUOUS
  0
LAYER
  2
1
 70
     0
 62
     1
  6
CENTER
  0
LAYER
  2
2
 70
     0
 62
     2
  6
HIDDEN
  0
LAYER
  2
DEFPOINTS
 70
     0
 62
     7
  6
CONTINUOUS
  0
LAYER
  2
4
 70
     0
 62
     4
  6
CONTINUOUS
  0
LAYER
  2
3
 70
     0
 62
     3
  6
CONTINUOUS
  0
ENDTAB
  0
TABLE
  2
STYLE
 70
     2
  0
STYLE
  2
STANDARD
 70
     0
 40
0.0
 41
1.0
 50
0.0
 71
     0
 42
0.2
  3
TXT
  4
BIGFONT
  0
STYLE
  2
STANDARD1
 70
     0
 40
0.0
 41
1.0
 50
0.0
 71
     0
 42
3.0
  3
txt
  4

  0
ENDTAB
  0
TABLE
  2
VIEW
 70
     1
  0
VIEW
  2
ALL
 70
     0
 40
270.0
 10
220.99159663865549
 20
135.0
 41
0.0
 11
0.0
 21
0.0
 31
1.0
 12
0.0
 22
0.0
 32
0.0
 42
0.0
 43
0.0
 44
0.0
 50
0.0
 71
     0
  0
ENDTAB
  0
TABLE
  2
UCS
 70
     0
  0
ENDTAB
  0
TABLE
  2
APPID
 70
     9
  0
APPID
  2
ACAD
 70
     0
  0
APPID
  2
ACAD_MLEADERVER
 70
     0
  0
APPID
  2
ACAD_NAV_VCDISPLAY
 70
     0
  0
APPID
  2
ACAD_EXEMPT_FROM_CAD_STANDARDS
 70
     0
  0
APPID
  2
ACAD_DSTYLE_DIMJAG
 70
     0
  0
APPID
  2
ACAD_DSTYLE_DIMTALN
 70
     0
  0
APPID
  2
ACAECLAYERSTANDARD
 70
     0
  0
APPID
  2
ACCMTRANSPARENCY
 70
     0
  0
APPID
  2
DCO15
 70
     0
  0
ENDTAB
  0
TABLE
  2
DIMSTYLE
 70
     1
  0
DIMSTYLE
  2
STANDARD
 70
     0
  3

  4

  5

  6

  7

 40
1.0
 41
0.18
 42
0.0625
 43
0.38
 44
0.18
 45
0.0
 46
0.0
 47
0.0
 48
0.0
140
0.18
141
0.09
142
0.0
143
25.399999999999999
144
1.0
145
0.0
146
1.0
147
0.09
 71
     0
 72
     0
 73
     1
 74
     1
 75
     0
 76
     0
 77
     0
 78
     0
170
     0
171
     2
172
     0
173
     0
174
     0
175
     0
176
     0
177
     0
178
     0
  0
ENDTAB
  0
ENDSEC
  0
SECTION
  2
BLOCKS
  0
BLOCK
  8
0
  2
$MODEL_SPACE
 70
     0
 10
0.0
 20
0.0
 30
0.0
  3
$MODEL_SPACE
  1

  0
ENDBLK
  5
10E
  8
0
  0
BLOCK
 67
     1
  8
0
  2
$PAPER_SPACE
 70
     0
 10
0.0
 20
0.0
 30
0.0
  3
$PAPER_SPACE
  1

  0
ENDBLK
  5
10C
 67
     1
  8
0
  0
ENDSEC
  0
SECTION
  2
ENTITIES
  0
TEXT
  5
4DC
  8
0
 62
     3
 10
0.0
 20
0.0
 30
0.0
 40
5.0
  1
HD-CNC04
  7
STANDARD1
  0
LINE
  5
10E8
  8
2
 10
56.0
 20
28.379000000000008
 30
0.0
 11
60.621000000000002
 21
28.379000000000008
 31
0.0
  0
LINE
  5
10E9
  8
2
 10
60.621000000000002
 20
31.620999999999999
 30
0.0
 11
56.0
 21
31.620999999999999
 31
0.0
  0
LINE
  5
10EA
  8
2
 10
55.064115213643618
 20
30.0
 30
0.0
 11
56.0
 21
28.379000000000008
 31
0.0
  0
LINE
  5
10EB
  8
2
 10
56.0
 20
31.620999999999999
 30
0.0
 11
55.064115213643618
 21
30.0
 31
0.0
  0
LINE
  5
10EC
  8
2
 10
56.0
 20
31.620999999999999
 30
0.0
 11
56.0
 21
28.379000000000008
 31
0.0
  0
LINE
  5
10ED
  8
2
 10
60.621000000000002
 20
28.379000000000008
 30
0.0
 11
61.0
 21
28.0
 31
0.0
  0
LINE
  5
10EE
  8
2
 10
61.0
 20
32.0
 30
0.0
 11
60.621000000000002
 21
31.620999999999999
 31
0.0
  0
LINE
  5
10EF
  8
2
 10
60.621000000000002
 20
31.620999999999999
 30
0.0
 11
60.621000000000002
 21
28.379000000000008
 31
0.0
  0
POLYLINE
  5
10F0
  8
0
 66
     1
 10
0.0
 20
0.0
 30
0.0
  0
VERTEX
  5
12B9
  8
0
 10
60.054219839583908
 20
26.35288568297003
 30
0.0
  0
VERTEX
  5
12BA
  8
0
 10
60.10500511354121
 20
26.29320787507412
 30
0.0
  0
VERTEX
  5
12BB
  8
0
 10
60.142098903805191
 20
26.233556329938331
 30
0.0
  0
VERTEX
  5
12BC
  8
0
 10
60.170665430724277
 20
26.168851659866519
 30
0.0
  0
VERTEX
  5
12BD
  8
0
 10
60.188127599182231
 20
26.108311804142531
 30
0.0
  0
VERTEX
  5
12BE
  8
0
 10
60.197356118426448
 20
26.051506814402739
 30
0.0
  0
VERTEX
  5
12BF
  8
0
 10
60.199999999999989
 20
26.0
 30
0.0
  0
SEQEND
  5
12C0
  8
0
  0
POLYLINE
  5
10F1
  8
0
 66
     1
 10
0.0
 20
0.0
 30
0.0
  0
VERTEX
  5
12C1
  8
0
 10
60.200000000000017
 20
34.0
 30
0.0
  0
VERTEX
  5
12C2
  8
0
 10
60.197395564330861
 20
33.94888045354439
 30
0.0
  0
VERTEX
  5
12C3
  8
0
 10
60.188314974875311
 20
33.892536120893929
 30
0.0
  0
VERTEX
  5
12C4
  8
0
 10
60.170304674984997
 20
33.830131103310919
 30
0.0
  0
VERTEX
  5
12C5
  8
0
 10
60.140435570579967
 20
33.763321931366661
 30
0.0
  0
VERTEX
  5
12C6
  8
0
 10
60.104427493076713
 20
33.705995913559548
 30
0.0
  0
VERTEX
  5
12C7
  8
0
 10
60.054219839583823
 20
33.647114317029981
 30
0.0
  0
SEQEND
  5
12C8
  8
0
  0
LINE
  5
10F2
  8
0
 10
59.699999999999982
 20
33.5
 30
0.0
 11
55.132503002402409
 21
33.5
 31
0.0
  0
ARC
  5
10F3
  8
0
 10
64.500000000000057
 20
29.999999999999989
 30
0.0
 40
10.00000000000006
 50
159.51268488527751
 51
200.48731511472249
  0
LINE
  5
10F4
  8
0
 10
55.132503002402409
 20
26.5
 30
0.0
 11
59.699999999999982
 21
26.5
 31
0.0
  0
POLYLINE
  5
10F5
  8
0
 10
55.353051510658531
 20
33.500000000000021
 30
0.0
 66
     1
 70
     8
  0
VERTEX
  8
0
  5
1361
 10
55.3531
 20
33.5000
 30
0.000000
  70
    32
  0
VERTEX
  8
0
  5
1362
 10
55.3462
 20
33.4731
 30
0.000000
  70
    32
  0
VERTEX
  8
0
  5
1363
 10
55.3395
 20
33.4461
 30
0.000000
  70
    32
  0
VERTEX
  8
0
  5
1364
 10
55.3329
 20
33.4192
 30
0.000000
  70
    32
  0
VERTEX
  8
0
  5
1365
 10
55.3264
 20
33.3922
 30
0.000000
  70
    32
  0
VERTEX
  8
0
  5
1366
 10
55.3200
 20
33.3652
 30
0.000000
  70
    32
  0
VERTEX
  8
0
  5
1367
 10
55.3138
 20
33.3382
 30
0.000000
  70
    32
  0
VERTEX
  8
0
  5
1368
 10
55.3076
 20
33.3111
 30
0.000000
  70
    32
  0
VERTEX
  8
0
  5
1369
 10
55.3015
 20
33.2841
 30
0.000000
  70
    32
  0
VERTEX
  8
0
  5
136A
 10
55.2956
 20
33.2570
 30
0.000000
  70
    32
  0
VERTEX
  8
0
  5
136B
 10
55.2897
 20
33.2299
 30
0.000000
  70
    32
  0
VERTEX
  8
0
  5
136C
 10
55.2839
 20
33.2028
 30
0.000000
  70
    32
  0
VERTEX
  8
0
  5
136D
 10
55.2783
 20
33.1757
 30
0.000000
  70
    32
  0
VERTEX
  8
0
  5
136E
 10
55.2728
 20
33.1486
 30
0.000000
  70
    32
  0
VERTEX
  8
0
  5
136F
 10
55.2673
 20
33.1214
 30
0.000000
  70
    32
  0
VERTEX
  8
0
  5
1370
 10
55.2620
 20
33.0942
 30
0.000000
  70
    32
  0
VERTEX
  8
0
  5
1371
 10
55.2568
 20
33.0670
 30
0.000000
  70
    32
  0
VERTEX
  8
0
  5
1372
 10
55.2517
 20
33.0398
 30
0.000000
  70
    32
  0
VERTEX
  8
0
  5
1373
 10
55.2467
 20
33.0126
 30
0.000000
  70
    32
  0
VERTEX
  8
0
  5
1374
 10
55.2418
 20
32.9854
 30
0.000000
  70
    32
  0
VERTEX
  8
0
  5
1375
 10
55.2370
 20
32.9581
 30
0.000000
  70
    32
  0
VERTEX
  8
0
  5
1376
 10
55.2323
 20
32.9309
 30
0.000000
  70
    32
  0
VERTEX
  8
0
  5
1377
 10
55.2277
 20
32.9036
 30
0.000000
  70
    32
  0
VERTEX
  8
0
  5
1378
 10
55.2232
 20
32.8763
 30
0.000000
  70
    32
  0
VERTEX
  8
0
  5
1379
 10
55.2189
 20
32.8490
 30
0.000000
  70
    32
  0
VERTEX
  8
0
  5
137A
 10
55.2146
 20
32.8217
 30
0.000000
  70
    32
  0
VERTEX
  8
0
  5
137B
 10
55.2105
 20
32.7944
 30
0.000000
  70
    32
  0
VERTEX
  8
0
  5
137C
 10
55.2064
 20
32.7671
 30
0.000000
  70
    32
  0
VERTEX
  8
0
  5
137D
 10
55.2025
 20
32.7397
 30
0.000000
  70
    32
  0
VERTEX
  8
0
  5
137E
 10
55.1986
 20
32.7123
 30
0.000000
  70
    32
  0
VERTEX
  8
0
  5
137F
 10
55.1949
 20
32.6850
 30
0.000000
  70
    32
  0
VERTEX
  8
0
  5
1380
 10
55.1913
 20
32.6576
 30
0.000000
  70
    32
  0
VERTEX
  8
0
  5
1381
 10
55.1878
 20
32.6302
 30
0.000000
  70
    32
  0
VERTEX
  8
0
  5
1382
 10
55.1844
 20
32.6028
 30
0.000000
  70
    32
  0
VERTEX
  8
0
  5
1383
 10
55.1811
 20
32.5754
 30
0.000000
  70
    32
  0
VERTEX
  8
0
  5
1384
 10
55.1779
 20
32.5480
 30
0.000000
  70
    32
  0
VERTEX
  8
0
  5
1385
 10
55.1749
 20
32.5205
 30
0.000000
  70
    32
  0
VERTEX
  8
0
  5
1386
 10
55.1719
 20
32.4931
 30
0.000000
  70
    32
  0
VERTEX
  8
0
  5
1387
 10
55.1690
 20
32.4656
 30
0.000000
  70
    32
  0
VERTEX
  8
0
  5
1388
 10
55.1663
 20
32.4382
 30
0.000000
  70
    32
  0
VERTEX
  8
0
  5
1389
 10
55.1636
 20
32.4107
 30
0.000000
  70
    32
  0
VERTEX
  8
0
  5
138A
 10
55.1611
 20
32.3832
 30
0.000000
  70
    32
  0
VERTEX
  8
0
  5
138B
 10
55.1587
 20
32.3558
 30
0.000000
  70
    32
  0
VERTEX
  8
0
  5
138C
 10
55.1563
 20
32.3283
 30
0.000000
  70
    32
  0
VERTEX
  8
0
  5
138D
 10
55.1541
 20
32.3008
 30
0.000000
  70
    32
  0
VERTEX
  8
0
  5
138E
 10
55.1520
 20
32.2733
 30
0.000000
  70
    32
  0
VERTEX
  8
0
  5
138F
 10
55.1500
 20
32.2458
 30
0.000000
  70
    32
  0
VERTEX
  8
0
  5
1390
 10
55.1481
 20
32.2183
 30
0.000000
  70
    32
  0
VERTEX
  8
0
  5
1391
 10
55.1463
 20
32.1907
 30
0.000000
  70
    32
  0
VERTEX
  8
0
  5
1392
 10
55.1447
 20
32.1632
 30
0.000000
  70
    32
  0
VERTEX
  8
0
  5
1393
 10
55.1431
 20
32.1357
 30
0.000000
  70
    32
  0
VERTEX
  8
0
  5
1394
 10
55.1416
 20
32.1082
 30
0.000000
  70
    32
  0
VERTEX
  8
0
  5
1395
 10
55.1403
 20
32.0806
 30
0.000000
  70
    32
  0
VERTEX
  8
0
  5
1396
 10
55.1390
 20
32.0531
 30
0.000000
  70
    32
  0
VERTEX
  8
0
  5
1397
 10
55.1379
 20
32.0256
 30
0.000000
  70
    32
  0
VERTEX
  8
0
  5
1398
 10
55.1369
 20
31.9980
 30
0.000000
  70
    32
  0
VERTEX
  8
0
  5
1399
 10
55.1360
 20
31.9705
 30
0.000000
  70
    32
  0
VERTEX
  8
0
  5
139A
 10
55.1352
 20
31.9429
 30
0.000000
  70
    32
  0
VERTEX
  8
0
  5
139B
 10
55.1344
 20
31.9154
 30
0.000000
  70
    32
  0
VERTEX
  8
0
  5
139C
 10
55.1339
 20
31.8878
 30
0.000000
  70
    32
  0
VERTEX
  8
0
  5
139D
 10
55.1334
 20
31.8602
 30
0.000000
  70
    32
  0
VERTEX
  8
0
  5
139E
 10
55.1330
 20
31.8327
 30
0.000000
  70
    32
  0
VERTEX
  8
0
  5
139F
 10
55.1327
 20
31.8051
 30
0.000000
  70
    32
  0
VERTEX
  8
0
  5
13A0
 10
55.1326
 20
31.7776
 30
0.000000
  70
    32
  0
VERTEX
  8
0
  5
13A1
 10
55.1325
 20
31.7500
 30
0.000000
  70
    32
  0
VERTEX
  8
0
  5
13A2
 10
55.1326
 20
31.7224
 30
0.000000
  70
    32
  0
VERTEX
  8
0
  5
13A3
 10
55.1327
 20
31.6949
 30
0.000000
  70
    32
  0
VERTEX
  8
0
  5
13A4
 10
55.1330
 20
31.6673
 30
0.000000
  70
    32
  0
VERTEX
  8
0
  5
13A5
 10
55.1334
 20
31.6398
 30
0.000000
  70
    32
  0
VERTEX
  8
0
  5
13A6
 10
55.1339
 20
31.6122
 30
0.000000
  70
    32
  0
VERTEX
  8
0
  5
13A7
 10
55.1344
 20
31.5846
 30
0.000000
  70
    32
  0
VERTEX
  8
0
  5
13A8
 10
55.1352
 20
31.5571
 30
0.000000
  70
    32
  0
VERTEX
  8
0
  5
13A9
 10
55.1360
 20
31.5295
 30
0.000000
  70
    32
  0
VERTEX
  8
0
  5
13AA
 10
55.1369
 20
31.5020
 30
0.000000
  70
    32
  0
VERTEX
  8
0
  5
13AB
 10
55.1379
 20
31.4744
 30
0.000000
  70
    32
  0
VERTEX
  8
0
  5
13AC
 10
55.1390
 20
31.4469
 30
0.000000
  70
    32
  0
VERTEX
  8
0
  5
13AD
 10
55.1403
 20
31.4194
 30
0.000000
  70
    32
  0
VERTEX
  8
0
  5
13AE
 10
55.1416
 20
31.3918
 30
0.000000
  70
    32
  0
VERTEX
  8
0
  5
13AF
 10
55.1431
 20
31.3643
 30
0.000000
  70
    32
  0
VERTEX
  8
0
  5
13B0
 10
55.1447
 20
31.3368
 30
0.000000
  70
    32
  0
VERTEX
  8
0
  5
13B1
 10
55.1463
 20
31.3093
 30
0.000000
  70
    32
  0
VERTEX
  8
0
  5
13B2
 10
55.1481
 20
31.2817
 30
0.000000
  70
    32
  0
VERTEX
  8
0
  5
13B3
 10
55.1500
 20
31.2542
 30
0.000000
  70
    32
  0
VERTEX
  8
0
  5
13B4
 10
55.1520
 20
31.2267
 30
0.000000
  70
    32
  0
VERTEX
  8
0
  5
13B5
 10
55.1541
 20
31.1992
 30
0.000000
  70
    32
  0
VERTEX
  8
0
  5
13B6
 10
55.1563
 20
31.1717
 30
0.000000
  70
    32
  0
VERTEX
  8
0
  5
13B7
 10
55.1587
 20
31.1442
 30
0.000000
  70
    32
  0
VERTEX
  8
0
  5
13B8
 10
55.1611
 20
31.1168
 30
0.000000
  70
    32
  0
VERTEX
  8
0
  5
13B9
 10
55.1636
 20
31.0893
 30
0.000000
  70
    32
  0
VERTEX
  8
0
  5
13BA
 10
55.1663
 20
31.0618
 30
0.000000
  70
    32
  0
VERTEX
  8
0
  5
13BB
 10
55.1690
 20
31.0344
 30
0.000000
  70
    32
  0
VERTEX
  8
0
  5
13BC
 10
55.1719
 20
31.0069
 30
0.000000
  70
    32
  0
VERTEX
  8
0
  5
13BD
 10
55.1749
 20
30.9795
 30
0.000000
  70
    32
  0
VERTEX
  8
0
  5
13BE
 10
55.1779
 20
30.9520
 30
0.000000
  70
    32
  0
VERTEX
  8
0
  5
13BF
 10
55.1811
 20
30.9246
 30
0.000000
  70
    32
  0
VERTEX
  8
0
  5
13C0
 10
55.1844
 20
30.8972
 30
0.000000
  70
    32
  0
VERTEX
  8
0
  5
13C1
 10
55.1878
 20
30.8698
 30
0.000000
  70
    32
  0
VERTEX
  8
0
  5
13C2
 10
55.1913
 20
30.8424
 30
0.000000
  70
    32
  0
VERTEX
  8
0
  5
13C3
 10
55.1949
 20
30.8150
 30
0.000000
  70
    32
  0
VERTEX
  8
0
  5
13C4
 10
55.1986
 20
30.7877
 30
0.000000
  70
    32
  0
VERTEX
  8
0
  5
13C5
 10
55.2025
 20
30.7603
 30
0.000000
  70
    32
  0
VERTEX
  8
0
  5
13C6
 10
55.2064
 20
30.7329
 30
0.000000
  70
    32
  0
VERTEX
  8
0
  5
13C7
 10
55.2105
 20
30.7056
 30
0.000000
  70
    32
  0
VERTEX
  8
0
  5
13C8
 10
55.2146
 20
30.6783
 30
0.000000
  70
    32
  0
VERTEX
  8
0
  5
13C9
 10
55.2189
 20
30.6510
 30
0.000000
  70
    32
  0
VERTEX
  8
0
  5
13CA
 10
55.2232
 20
30.6237
 30
0.000000
  70
    32
  0
VERTEX
  8
0
  5
13CB
 10
55.2277
 20
30.5964
 30
0.000000
  70
    32
  0
VERTEX
  8
0
  5
13CC
 10
55.2323
 20
30.5691
 30
0.000000
  70
    32
  0
VERTEX
  8
0
  5
13CD
 10
55.2370
 20
30.5419
 30
0.000000
  70
    32
  0
VERTEX
  8
0
  5
13CE
 10
55.2418
 20
30.5146
 30
0.000000
  70
    32
  0
VERTEX
  8
0
  5
13CF
 10
55.2467
 20
30.4874
 30
0.000000
  70
    32
  0
VERTEX
  8
0
  5
13D0
 10
55.2517
 20
30.4602
 30
0.000000
  70
    32
  0
VERTEX
  8
0
  5
13D1
 10
55.2568
 20
30.4330
 30
0.000000
  70
    32
  0
VERTEX
  8
0
  5
13D2
 10
55.2620
 20
30.4058
 30
0.000000
  70
    32
  0
VERTEX
  8
0
  5
13D3
 10
55.2673
 20
30.3786
 30
0.000000
  70
    32
  0
VERTEX
  8
0
  5
13D4
 10
55.2728
 20
30.3514
 30
0.000000
  70
    32
  0
VERTEX
  8
0
  5
13D5
 10
55.2783
 20
30.3243
 30
0.000000
  70
    32
  0
VERTEX
  8
0
  5
13D6
 10
55.2839
 20
30.2972
 30
0.000000
  70
    32
  0
VERTEX
  8
0
  5
13D7
 10
55.2897
 20
30.2701
 30
0.000000
  70
    32
  0
VERTEX
  8
0
  5
13D8
 10
55.2956
 20
30.2430
 30
0.000000
  70
    32
  0
VERTEX
  8
0
  5
13D9
 10
55.3015
 20
30.2159
 30
0.000000
  70
    32
  0
VERTEX
  8
0
  5
13DA
 10
55.3076
 20
30.1889
 30
0.000000
  70
    32
  0
VERTEX
  8
0
  5
13DB
 10
55.3138
 20
30.1618
 30
0.000000
  70
    32
  0
VERTEX
  8
0
  5
13DC
 10
55.3200
 20
30.1348
 30
0.000000
  70
    32
  0
VERTEX
  8
0
  5
13DD
 10
55.3264
 20
30.1078
 30
0.000000
  70
    32
  0
VERTEX
  8
0
  5
13DE
 10
55.3329
 20
30.0808
 30
0.000000
  70
    32
  0
VERTEX
  8
0
  5
13DF
 10
55.3395
 20
30.0539
 30
0.000000
  70
    32
  0
VERTEX
  8
0
  5
13E0
 10
55.3462
 20
30.0269
 30
0.000000
  70
    32
  0
VERTEX
  8
0
  5
13E1
 10
55.3531
 20
30.0000
 30
0.000000
  70
    32
  0
SEQEND
  8
0
  5
13E2
  0
LINE
  5
10F6
  8
0
 10
60.054219839583823
 20
30.0
 30
0.0
 11
55.353051510658503
 21
30.0
 31
0.0
  0
POLYLINE
  5
10F7
  8
0
 10
55.353051510658503
 20
30.000000000000007
 30
0.0
 66
     1
 70
     8
  0
VERTEX
  8
0
  5
13E3
 10
55.3531
 20
30.0000
 30
0.000000
  70
    32
  0
VERTEX
  8
0
  5
13E4
 10
55.3462
 20
29.9731
 30
0.000000
  70
    32
  0
VERTEX
  8
0
  5
13E5
 10
55.3395
 20
29.9461
 30
0.000000
  70
    32
  0
VERTEX
  8
0
  5
13E6
 10
55.3329
 20
29.9192
 30
0.000000
  70
    32
  0
VERTEX
  8
0
  5
13E7
 10
55.3264
 20
29.8922
 30
0.000000
  70
    32
  0
VERTEX
  8
0
  5
13E8
 10
55.3200
 20
29.8652
 30
0.000000
  70
    32
  0
VERTEX
  8
0
  5
13E9
 10
55.3138
 20
29.8382
 30
0.000000
  70
    32
  0
VERTEX
  8
0
  5
13EA
 10
55.3076
 20
29.8111
 30
0.000000
  70
    32
  0
VERTEX
  8
0
  5
13EB
 10
55.3015
 20
29.7841
 30
0.000000
  70
    32
  0
VERTEX
  8
0
  5
13EC
 10
55.2956
 20
29.7570
 30
0.000000
  70
    32
  0
VERTEX
  8
0
  5
13ED
 10
55.2897
 20
29.7299
 30
0.000000
  70
    32
  0
VERTEX
  8
0
  5
13EE
 10
55.2839
 20
29.7028
 30
0.000000
  70
    32
  0
VERTEX
  8
0
  5
13EF
 10
55.2783
 20
29.6757
 30
0.000000
  70
    32
  0
VERTEX
  8
0
  5
13F0
 10
55.2728
 20
29.6486
 30
0.000000
  70
    32
  0
VERTEX
  8
0
  5
13F1
 10
55.2673
 20
29.6214
 30
0.000000
  70
    32
  0
VERTEX
  8
0
  5
13F2
 10
55.2620
 20
29.5942
 30
0.000000
  70
    32
  0
VERTEX
  8
0
  5
13F3
 10
55.2568
 20
29.5670
 30
0.000000
  70
    32
  0
VERTEX
  8
0
  5
13F4
 10
55.2517
 20
29.5398
 30
0.000000
  70
    32
  0
VERTEX
  8
0
  5
13F5
 10
55.2467
 20
29.5126
 30
0.000000
  70
    32
  0
VERTEX
  8
0
  5
13F6
 10
55.2418
 20
29.4854
 30
0.000000
  70
    32
  0
VERTEX
  8
0
  5
13F7
 10
55.2370
 20
29.4581
 30
0.000000
  70
    32
  0
VERTEX
  8
0
  5
13F8
 10
55.2323
 20
29.4309
 30
0.000000
  70
    32
  0
VERTEX
  8
0
  5
13F9
 10
55.2277
 20
29.4036
 30
0.000000
  70
    32
  0
VERTEX
  8
0
  5
13FA
 10
55.2232
 20
29.3763
 30
0.000000
  70
    32
  0
VERTEX
  8
0
  5
13FB
 10
55.2189
 20
29.3490
 30
0.000000
  70
    32
  0
VERTEX
  8
0
  5
13FC
 10
55.2146
 20
29.3217
 30
0.000000
  70
    32
  0
VERTEX
  8
0
  5
13FD
 10
55.2105
 20
29.2944
 30
0.000000
  70
    32
  0
VERTEX
  8
0
  5
13FE
 10
55.2064
 20
29.2671
 30
0.000000
  70
    32
  0
VERTEX
  8
0
  5
13FF
 10
55.2025
 20
29.2397
 30
0.000000
  70
    32
  0
VERTEX
  8
0
  5
1400
 10
55.1986
 20
29.2123
 30
0.000000
  70
    32
  0
VERTEX
  8
0
  5
1401
 10
55.1949
 20
29.1850
 30
0.000000
  70
    32
  0
VERTEX
  8
0
  5
1402
 10
55.1913
 20
29.1576
 30
0.000000
  70
    32
  0
VERTEX
  8
0
  5
1403
 10
55.1878
 20
29.1302
 30
0.000000
  70
    32
  0
VERTEX
  8
0
  5
1404
 10
55.1844
 20
29.1028
 30
0.000000
  70
    32
  0
VERTEX
  8
0
  5
1405
 10
55.1811
 20
29.0754
 30
0.000000
  70
    32
  0
VERTEX
  8
0
  5
1406
 10
55.1779
 20
29.0480
 30
0.000000
  70
    32
  0
VERTEX
  8
0
  5
1407
 10
55.1749
 20
29.0205
 30
0.000000
  70
    32
  0
VERTEX
  8
0
  5
1408
 10
55.1719
 20
28.9931
 30
0.000000
  70
    32
  0
VERTEX
  8
0
  5
1409
 10
55.1690
 20
28.9656
 30
0.000000
  70
    32
  0
VERTEX
  8
0
  5
140A
 10
55.1663
 20
28.9382
 30
0.000000
  70
    32
  0
VERTEX
  8
0
  5
140B
 10
55.1636
 20
28.9107
 30
0.000000
  70
    32
  0
VERTEX
  8
0
  5
140C
 10
55.1611
 20
28.8832
 30
0.000000
  70
    32
  0
VERTEX
  8
0
  5
140D
 10
55.1587
 20
28.8558
 30
0.000000
  70
    32
  0
VERTEX
  8
0
  5
140E
 10
55.1563
 20
28.8283
 30
0.000000
  70
    32
  0
VERTEX
  8
0
  5
140F
 10
55.1541
 20
28.8008
 30
0.000000
  70
    32
  0
VERTEX
  8
0
  5
1410
 10
55.1520
 20
28.7733
 30
0.000000
  70
    32
  0
VERTEX
  8
0
  5
1411
 10
55.1500
 20
28.7458
 30
0.000000
  70
    32
  0
VERTEX
  8
0
  5
1412
 10
55.1481
 20
28.7183
 30
0.000000
  70
    32
  0
VERTEX
  8
0
  5
1413
 10
55.1463
 20
28.6907
 30
0.000000
  70
    32
  0
VERTEX
  8
0
  5
1414
 10
55.1447
 20
28.6632
 30
0.000000
  70
    32
  0
VERTEX
  8
0
  5
1415
 10
55.1431
 20
28.6357
 30
0.000000
  70
    32
  0
VERTEX
  8
0
  5
1416
 10
55.1416
 20
28.6082
 30
0.000000
  70
    32
  0
VERTEX
  8
0
  5
1417
 10
55.1403
 20
28.5806
 30
0.000000
  70
    32
  0
VERTEX
  8
0
  5
1418
 10
55.1390
 20
28.5531
 30
0.000000
  70
    32
  0
VERTEX
  8
0
  5
1419
 10
55.1379
 20
28.5256
 30
0.000000
  70
    32
  0
VERTEX
  8
0
  5
141A
 10
55.1369
 20
28.4980
 30
0.000000
  70
    32
  0
VERTEX
  8
0
  5
141B
 10
55.1360
 20
28.4705
 30
0.000000
  70
    32
  0
VERTEX
  8
0
  5
141C
 10
55.1352
 20
28.4429
 30
0.000000
  70
    32
  0
VERTEX
  8
0
  5
141D
 10
55.1344
 20
28.4154
 30
0.000000
  70
    32
  0
VERTEX
  8
0
  5
141E
 10
55.1339
 20
28.3878
 30
0.000000
  70
    32
  0
VERTEX
  8
0
  5
141F
 10
55.1334
 20
28.3602
 30
0.000000
  70
    32
  0
VERTEX
  8
0
  5
1420
 10
55.1330
 20
28.3327
 30
0.000000
  70
    32
  0
VERTEX
  8
0
  5
1421
 10
55.1327
 20
28.3051
 30
0.000000
  70
    32
  0
VERTEX
  8
0
  5
1422
 10
55.1326
 20
28.2776
 30
0.000000
  70
    32
  0
VERTEX
  8
0
  5
1423
 10
55.1325
 20
28.2500
 30
0.000000
  70
    32
  0
VERTEX
  8
0
  5
1424
 10
55.1326
 20
28.2224
 30
0.000000
  70
    32
  0
VERTEX
  8
0
  5
1425
 10
55.1327
 20
28.1949
 30
0.000000
  70
    32
  0
VERTEX
  8
0
  5
1426
 10
55.1330
 20
28.1673
 30
0.000000
  70
    32
  0
VERTEX
  8
0
  5
1427
 10
55.1334
 20
28.1398
 30
0.000000
  70
    32
  0
VERTEX
  8
0
  5
1428
 10
55.1339
 20
28.1122
 30
0.000000
  70
    32
  0
VERTEX
  8
0
  5
1429
 10
55.1344
 20
28.0846
 30
0.000000
  70
    32
  0
VERTEX
  8
0
  5
142A
 10
55.1352
 20
28.0571
 30
0.000000
  70
    32
  0
VERTEX
  8
0
  5
142B
 10
55.1360
 20
28.0295
 30
0.000000
  70
    32
  0
VERTEX
  8
0
  5
142C
 10
55.1369
 20
28.0020
 30
0.000000
  70
    32
  0
VERTEX
  8
0
  5
142D
 10
55.1379
 20
27.9744
 30
0.000000
  70
    32
  0
VERTEX
  8
0
  5
142E
 10
55.1390
 20
27.9469
 30
0.000000
  70
    32
  0
VERTEX
  8
0
  5
142F
 10
55.1403
 20
27.9194
 30
0.000000
  70
    32
  0
VERTEX
  8
0
  5
1430
 10
55.1416
 20
27.8918
 30
0.000000
  70
    32
  0
VERTEX
  8
0
  5
1431
 10
55.1431
 20
27.8643
 30
0.000000
  70
    32
  0
VERTEX
  8
0
  5
1432
 10
55.1447
 20
27.8368
 30
0.000000
  70
    32
  0
VERTEX
  8
0
  5
1433
 10
55.1463
 20
27.8093
 30
0.000000
  70
    32
  0
VERTEX
  8
0
  5
1434
 10
55.1481
 20
27.7817
 30
0.000000
  70
    32
  0
VERTEX
  8
0
  5
1435
 10
55.1500
 20
27.7542
 30
0.000000
  70
    32
  0
VERTEX
  8
0
  5
1436
 10
55.1520
 20
27.7267
 30
0.000000
  70
    32
  0
VERTEX
  8
0
  5
1437
 10
55.1541
 20
27.6992
 30
0.000000
  70
    32
  0
VERTEX
  8
0
  5
1438
 10
55.1563
 20
27.6717
 30
0.000000
  70
    32
  0
VERTEX
  8
0
  5
1439
 10
55.1587
 20
27.6442
 30
0.000000
  70
    32
  0
VERTEX
  8
0
  5
143A
 10
55.1611
 20
27.6168
 30
0.000000
  70
    32
  0
VERTEX
  8
0
  5
143B
 10
55.1636
 20
27.5893
 30
0.000000
  70
    32
  0
VERTEX
  8
0
  5
143C
 10
55.1663
 20
27.5618
 30
0.000000
  70
    32
  0
VERTEX
  8
0
  5
143D
 10
55.1690
 20
27.5344
 30
0.000000
  70
    32
  0
VERTEX
  8
0
  5
143E
 10
55.1719
 20
27.5069
 30
0.000000
  70
    32
  0
VERTEX
  8
0
  5
143F
 10
55.1749
 20
27.4795
 30
0.000000
  70
    32
  0
VERTEX
  8
0
  5
1440
 10
55.1779
 20
27.4520
 30
0.000000
  70
    32
  0
VERTEX
  8
0
  5
1441
 10
55.1811
 20
27.4246
 30
0.000000
  70
    32
  0
VERTEX
  8
0
  5
1442
 10
55.1844
 20
27.3972
 30
0.000000
  70
    32
  0
VERTEX
  8
0
  5
1443
 10
55.1878
 20
27.3698
 30
0.000000
  70
    32
  0
VERTEX
  8
0
  5
1444
 10
55.1913
 20
27.3424
 30
0.000000
  70
    32
  0
VERTEX
  8
0
  5
1445
 10
55.1949
 20
27.3150
 30
0.000000
  70
    32
  0
VERTEX
  8
0
  5
1446
 10
55.1986
 20
27.2877
 30
0.000000
  70
    32
  0
VERTEX
  8
0
  5
1447
 10
55.2025
 20
27.2603
 30
0.000000
  70
    32
  0
VERTEX
  8
0
  5
1448
 10
55.2064
 20
27.2329
 30
0.000000
  70
    32
  0
VERTEX
  8
0
  5
1449
 10
55.2105
 20
27.2056
 30
0.000000
  70
    32
  0
VERTEX
  8
0
  5
144A
 10
55.2146
 20
27.1783
 30
0.000000
  70
    32
  0
VERTEX
  8
0
  5
144B
 10
55.2189
 20
27.1510
 30
0.000000
  70
    32
  0
VERTEX
  8
0
  5
144C
 10
55.2232
 20
27.1237
 30
0.000000
  70
    32
  0
VERTEX
  8
0
  5
144D
 10
55.2277
 20
27.0964
 30
0.000000
  70
    32
  0
VERTEX
  8
0
  5
144E
 10
55.2323
 20
27.0691
 30
0.000000
  70
    32
  0
VERTEX
  8
0
  5
144F
 10
55.2370
 20
27.0419
 30
0.000000
  70
    32
  0
VERTEX
  8
0
  5
1450
 10
55.2418
 20
27.0146
 30
0.000000
  70
    32
  0
VERTEX
  8
0
  5
1451
 10
55.2467
 20
26.9874
 30
0.000000
  70
    32
  0
VERTEX
  8
0
  5
1452
 10
55.2517
 20
26.9602
 30
0.000000
  70
    32
  0
VERTEX
  8
0
  5
1453
 10
55.2568
 20
26.9330
 30
0.000000
  70
    32
  0
VERTEX
  8
0
  5
1454
 10
55.2620
 20
26.9058
 30
0.000000
  70
    32
  0
VERTEX
  8
0
  5
1455
 10
55.2673
 20
26.8786
 30
0.000000
  70
    32
  0
VERTEX
  8
0
  5
1456
 10
55.2728
 20
26.8514
 30
0.000000
  70
    32
  0
VERTEX
  8
0
  5
1457
 10
55.2783
 20
26.8243
 30
0.000000
  70
    32
  0
VERTEX
  8
0
  5
1458
 10
55.2839
 20
26.7972
 30
0.000000
  70
    32
  0
VERTEX
  8
0
  5
1459
 10
55.2897
 20
26.7701
 30
0.000000
  70
    32
  0
VERTEX
  8
0
  5
145A
 10
55.2956
 20
26.7430
 30
0.000000
  70
    32
  0
VERTEX
  8
0
  5
145B
 10
55.3015
 20
26.7159
 30
0.000000
  70
    32
  0
VERTEX
  8
0
  5
145C
 10
55.3076
 20
26.6889
 30
0.000000
  70
    32
  0
VERTEX
  8
0
  5
145D
 10
55.3138
 20
26.6618
 30
0.000000
  70
    32
  0
VERTEX
  8
0
  5
145E
 10
55.3200
 20
26.6348
 30
0.000000
  70
    32
  0
VERTEX
  8
0
  5
145F
 10
55.3264
 20
26.6078
 30
0.000000
  70
    32
  0
VERTEX
  8
0
  5
1460
 10
55.3329
 20
26.5808
 30
0.000000
  70
    32
  0
VERTEX
  8
0
  5
1461
 10
55.3395
 20
26.5539
 30
0.000000
  70
    32
  0
VERTEX
  8
0
  5
1462
 10
55.3462
 20
26.5269
 30
0.000000
  70
    32
  0
VERTEX
  8
0
  5
1463
 10
55.3531
 20
26.5000
 30
0.000000
  70
    32
  0
SEQEND
  8
0
  5
1464
  0
POLYLINE
  5
10F8
  8
0
 66
     1
 10
0.0
 20
0.0
 30
0.0
  0
VERTEX
  5
12C9
  8
0
 10
60.054219839583929
 20
30.0
 30
0.0
  0
VERTEX
  5
12CA
  8
0
 10
60.10500511354121
 20
29.877560883398392
 30
0.0
  0
VERTEX
  5
12CB
  8
0
 10
60.142098903805191
 20
29.748301809196921
 30
0.0
  0
VERTEX
  5
12CC
  8
0
 10
60.170665430724277
 20
29.598724282708861
 30
0.0
  0
VERTEX
  5
12CD
  8
0
 10
60.188127599182231
 20
29.447897298870799
 30
0.0
  0
VERTEX
  5
12CE
  8
0
 10
60.197356118426448
 20
29.294007506349249
 30
0.0
  0
VERTEX
  5
12CF
  8
0
 10
60.199999999999989
 20
29.14080797748132
 30
0.0
  0
SEQEND
  5
12D0
  8
0
  0
POLYLINE
  5
10FA
  8
0
 66
     1
 10
0.0
 20
0.0
 30
0.0
  0
VERTEX
  5
12D1
  8
0
 10
60.054219839583823
 20
26.35288568297003
 30
0.0
  0
VERTEX
  5
12D2
  8
0
 10
60.022115912348049
 20
26.382415139622111
 30
0.0
  0
VERTEX
  5
12D3
  8
0
 10
59.987560488520387
 20
26.40903418615309
 30
0.0
  0
VERTEX
  5
12D4
  8
0
 10
59.950816555741312
 20
26.432540235545861
 30
0.0
  0
VERTEX
  5
12D5
  8
0
 10
59.912163757525889
 20
26.45275439257118
 30
0.0
  0
VERTEX
  5
12D6
  8
0
 10
59.871896265007713
 20
26.46952281528846
 30
0.0
  0
VERTEX
  5
12D7
  8
0
 10
59.830320538119032
 20
26.482717885875768
 30
0.0
  0
VERTEX
  5
12D8
  8
0
 10
59.787752993245562
 20
26.492239181878531
 30
0.0
  0
VERTEX
  5
12D9
  8
0
 10
59.744517595106771
 20
26.49801424048507
 30
0.0
  0
VERTEX
  5
12DA
  8
0
 10
59.700943391188787
 20
26.499999110012268
 30
0.0
  0
VERTEX
  5
12DB
  8
0
 10
59.699999999999982
 20
26.5
 30
0.0
  0
SEQEND
  5
12DC
  8
0
  0
POLYLINE
  5
10FB
  8
0
 66
     1
 10
0.0
 20
0.0
 30
0.0
  0
VERTEX
  5
12DD
  8
0
 10
60.199999999999989
 20
26.859192022518691
 30
0.0
  0
VERTEX
  5
12DE
  8
0
 10
60.197395564330861
 20
26.75820998492302
 30
0.0
  0
VERTEX
  5
12DF
  8
0
 10
60.188314974875311
 20
26.66176758938559
 30
0.0
  0
VERTEX
  5
12E0
  8
0
 10
60.170304674984997
 20
26.568710540755578
 30
0.0
  0
VERTEX
  5
12E1
  8
0
 10
60.140435570579967
 20
26.481421543373401
 30
0.0
  0
VERTEX
  5
12E2
  8
0
 10
60.104427493076741
 20
26.414766909644261
 30
0.0
  0
VERTEX
  5
12E3
  8
0
 10
60.054219839583908
 20
26.35288568297003
 30
0.0
  0
SEQEND
  5
12E4
  8
0
  0
POLYLINE
  5
10FC
  8
0
 66
     1
 10
0.0
 20
0.0
 30
0.0
  0
VERTEX
  5
12E5
  8
0
 10
60.054219839583823
 20
33.647114317029981
 30
0.0
  0
VERTEX
  5
12E6
  8
0
 10
60.10500511354121
 20
33.584353008324292
 30
0.0
  0
VERTEX
  5
12E7
  8
0
 10
60.142098903805191
 20
33.514745479258593
 30
0.0
  0
VERTEX
  5
12E8
  8
0
 10
60.170665430724277
 20
33.429872622842318
 30
0.0
  0
VERTEX
  5
12E9
  8
0
 10
60.188127599182231
 20
33.339585494728269
 30
0.0
  0
VERTEX
  5
12EA
  8
0
 10
60.197356118426448
 20
33.24250069194651
 30
0.0
  0
VERTEX
  5
12EB
  8
0
 10
60.199999999999989
 20
33.140807977481323
 30
0.0
  0
SEQEND
  5
12EC
  8
0
  0
POLYLINE
  5
10FD
  8
0
 66
     1
 10
0.0
 20
0.0
 30
0.0
  0
VERTEX
  5
12ED
  8
0
 10
59.699999963499749
 20
33.5
 30
0.0
  0
VERTEX
  5
12EE
  8
0
 10
59.743577835012502
 20
33.501902647772923
 30
0.0
  0
VERTEX
  5
12EF
  8
0
 10
59.786824052887759
 20
33.5075961171557
 30
0.0
  0
VERTEX
  5
12F0
  8
0
 10
59.829409487294747
 20
33.517037077408503
 30
0.0
  0
VERTEX
  5
12F1
  8
0
 10
59.87101003736381
 20
33.530153677123216
 30
0.0
  0
VERTEX
  5
12F2
  8
0
 10
59.911309097789911
 20
33.546846091056011
 30
0.0
  0
VERTEX
  5
12F3
  8
0
 10
59.949999968389882
 20
33.566987279857663
 30
0.0
  0
VERTEX
  5
12F4
  8
0
 10
59.986788188276272
 20
33.590423956919821
 30
0.0
  0
VERTEX
  5
12F5
  8
0
 10
60.021393776882462
 20
33.616977754978613
 30
0.0
  0
VERTEX
  5
12F6
  8
0
 10
60.05355336478371
 20
33.646446583597147
 30
0.0
  0
VERTEX
  5
12F7
  8
0
 10
60.054219839583823
 20
33.647114317029981
 30
0.0
  0
SEQEND
  5
12F8
  8
0
  0
POLYLINE
  5
10FE
  8
0
 66
     1
 10
0.0
 20
0.0
 30
0.0
  0
VERTEX
  5
12F9
  8
0
 10
60.199999999999989
 20
30.859192022518691
 30
0.0
  0
VERTEX
  5
12FA
  8
0
 10
60.197395564330861
 20
30.70709043846739
 30
0.0
  0
VERTEX
  5
12FB
  8
0
 10
60.188314974875311
 20
30.554303710279509
 30
0.0
  0
VERTEX
  5
12FC
  8
0
 10
60.170304674984997
 20
30.398841644066479
 30
0.0
  0
VERTEX
  5
12FD
  8
0
 10
60.140435570579967
 20
30.244743474740069
 30
0.0
  0
VERTEX
  5
12FE
  8
0
 10
60.104427493076741
 20
30.120762823203808
 30
0.0
  0
VERTEX
  5
12FF
  8
0
 10
60.054219839583929
 20
30.0
 30
0.0
  0
SEQEND
  5
1300
  8
0
  0
LINE
  5
10FF
  8
0
 10
60.199999999999989
 20
34.211324865405189
 30
0.0
 11
60.199999999999989
 21
25.788675134594811
 31
0.0
  0
LINE
  5
1100
  8
0
 10
60.199999999999989
 20
25.788675134594811
 30
0.0
 11
60.699999999999989
 21
25.5
 31
0.0
  0
LINE
  5
1101
  8
0
 10
60.699999999999989
 20
34.5
 30
0.0
 11
60.199999999999989
 21
34.211324865405189
 31
0.0
  0
LINE
  5
1102
  8
0
 10
60.699999999999989
 20
25.5
 30
0.0
 11
61.0
 21
25.5
 31
0.0
  0
LINE
  5
1103
  8
0
 10
61.0
 20
34.5
 30
0.0
 11
60.699999999999989
 21
34.5
 31
0.0
  0
LINE
  5
1104
  8
0
 10
61.0
 20
34.5
 30
0.0
 11
61.0
 21
25.5
 31
0.0
  0
LINE
  5
1105
  8
0
 10
60.699999999999989
 20
34.5
 30
0.0
 11
60.699999999999989
 21
25.5
 31
0.0
  0
LINE
  5
1106
  8
2
 10
61.0
 20
32.0
 30
0.0
 11
57.0
 21
32.0
 31
0.0
  0
LINE
  5
1107
  8
2
 10
57.0
 20
28.0
 30
0.0
 11
57.0
 21
32.0
 31
0.0
  0
LINE
  5
1108
  8
2
 10
61.0
 20
28.0
 30
0.0
 11
57.0
 21
28.0
 31
0.0
  0
CIRCLE
  5
1112
  8
0
 10
30.0
 20
30.0
 30
0.0
 40
4.5
  0
LINE
  5
111D
  8
0
 10
25.788675134594801
 20
30.0
 30
0.0
 11
25.95854811567261
 21
30.0
 31
0.0
  0
LINE
  5
1121
  8
0
 10
27.894337567297391
 20
33.647114317029981
 30
0.0
 11
27.97927405783631
 21
33.5
 31
0.0
  0
LINE
  5
1128
  8
0
 10
32.105662432702587
 20
26.35288568297003
 30
0.0
 11
32.0207259421637
 21
26.5
 31
0.0
  0
LINE
  5
1129
  8
0
 10
27.97927405783631
 20
26.5
 30
0.0
 11
27.894337567297391
 21
26.35288568297003
 31
0.0
  0
LINE
  5
112D
  8
0
 10
32.0207259421637
 20
33.5
 30
0.0
 11
32.105662432702587
 21
33.647114317029981
 31
0.0
  0
LINE
  5
112E
  8
0
 10
34.211324865405182
 20
30.0
 30
0.0
 11
34.041451884327387
 21
30.0
 31
0.0
  0
LINE
  5
1132
  8
0
 10
32.0207259421637
 20
26.5
 30
0.0
 11
34.041451884327387
 21
30.0
 31
0.0
  0
LINE
  5
1133
  8
0
 10
34.041451884327387
 20
30.0
 30
0.0
 11
32.0207259421637
 21
33.5
 31
0.0
  0
LINE
  5
1134
  8
0
 10
32.0207259421637
 20
33.5
 30
0.0
 11
27.97927405783631
 21
33.5
 31
0.0
  0
LINE
  5
1135
  8
0
 10
27.97927405783631
 20
33.5
 30
0.0
 11
25.95854811567261
 21
30.0
 31
0.0
  0
LINE
  5
1136
  8
0
 10
25.95854811567261
 20
30.0
 30
0.0
 11
27.97927405783631
 21
26.5
 31
0.0
  0
LINE
  5
1137
  8
0
 10
27.97927405783631
 20
26.5
 30
0.0
 11
32.0207259421637
 21
26.5
 31
0.0
  0
LINE
  5
113C
  8
0
 10
60.200000000000017
 20
63.211324865405167
 30
0.0
 11
60.054219839583929
 21
63.211324865405167
 31
0.0
  0
LINE
  5
113D
  8
0
 10
60.054219839583929
 20
54.788675134594833
 30
0.0
 11
60.200000000000017
 21
54.788675134594833
 31
0.0
  0
LINE
  5
113E
  8
2
 10
55.064115213643618
 20
59.0
 30
0.0
 11
56.0
 21
57.379000000000019
 31
0.0
  0
LINE
  5
113F
  8
2
 10
56.0
 20
60.620999999999981
 30
0.0
 11
55.064115213643618
 21
59.0
 31
0.0
  0
LINE
  5
1140
  8
2
 10
56.0
 20
60.620999999999981
 30
0.0
 11
56.0
 21
57.379000000000019
 31
0.0
  0
LINE
  5
1141
  8
2
 10
56.0
 20
57.379000000000019
 30
0.0
 11
60.621000000000002
 21
57.379000000000019
 31
0.0
  0
LINE
  5
1142
  8
2
 10
60.621000000000002
 20
60.620999999999981
 30
0.0
 11
56.0
 21
60.620999999999981
 31
0.0
  0
LINE
  5
1143
  8
2
 10
60.621000000000002
 20
60.620999999999981
 30
0.0
 11
60.621000000000002
 21
57.379000000000019
 31
0.0
  0
LINE
  5
1144
  8
2
 10
60.621000000000002
 20
57.379000000000019
 30
0.0
 11
61.0
 21
57.0
 31
0.0
  0
LINE
  5
1145
  8
2
 10
61.0
 20
61.0
 30
0.0
 11
60.621000000000002
 21
60.620999999999981
 31
0.0
  0
LINE
  5
1146
  8
0
 10
59.700000000000017
 20
63.04145188432738
 30
0.0
 11
55.353051510658531
 21
63.04145188432738
 31
0.0
  0
LINE
  5
1147
  8
0
 10
59.700000000000017
 20
61.0207259421637
 30
0.0
 11
55.353051510658531
 21
61.0207259421637
 31
0.0
  0
ARC
  5
1148
  8
0
 10
64.500000000000057
 20
59.0
 30
0.0
 40
9.3674969975976268
 50
167.542419573556
 51
192.45758042644391
  0
POLYLINE
  5
1149
  8
0
 10
55.353051510658531
 20
63.04145188432738
 30
0.0
 66
     1
 70
     8
  0
VERTEX
  8
0
  5
1465
 10
55.3531
 20
63.0415
 30
0.000000
  70
    32
  0
VERTEX
  8
0
  5
1466
 10
55.3462
 20
63.0259
 30
0.000000
  70
    32
  0
VERTEX
  8
0
  5
1467
 10
55.3395
 20
63.0104
 30
0.000000
  70
    32
  0
VERTEX
  8
0
  5
1468
 10
55.3329
 20
62.9948
 30
0.000000
  70
    32
  0
VERTEX
  8
0
  5
1469
 10
55.3264
 20
62.9792
 30
0.000000
  70
    32
  0
VERTEX
  8
0
  5
146A
 10
55.3200
 20
62.9636
 30
0.000000
  70
    32
  0
VERTEX
  8
0
  5
146B
 10
55.3138
 20
62.9480
 30
0.000000
  70
    32
  0
VERTEX
  8
0
  5
146C
 10
55.3076
 20
62.9324
 30
0.000000
  70
    32
  0
VERTEX
  8
0
  5
146D
 10
55.3015
 20
62.9168
 30
0.000000
  70
    32
  0
VERTEX
  8
0
  5
146E
 10
55.2956
 20
62.9012
 30
0.000000
  70
    32
  0
VERTEX
  8
0
  5
146F
 10
55.2897
 20
62.8855
 30
0.000000
  70
    32
  0
VERTEX
  8
0
  5
1470
 10
55.2839
 20
62.8699
 30
0.000000
  70
    32
  0
VERTEX
  8
0
  5
1471
 10
55.2783
 20
62.8542
 30
0.000000
  70
    32
  0
VERTEX
  8
0
  5
1472
 10
55.2728
 20
62.8385
 30
0.000000
  70
    32
  0
VERTEX
  8
0
  5
1473
 10
55.2673
 20
62.8229
 30
0.000000
  70
    32
  0
VERTEX
  8
0
  5
1474
 10
55.2620
 20
62.8072
 30
0.000000
  70
    32
  0
VERTEX
  8
0
  5
1475
 10
55.2568
 20
62.7915
 30
0.000000
  70
    32
  0
VERTEX
  8
0
  5
1476
 10
55.2517
 20
62.7758
 30
0.000000
  70
    32
  0
VERTEX
  8
0
  5
1477
 10
55.2467
 20
62.7601
 30
0.000000
  70
    32
  0
VERTEX
  8
0
  5
1478
 10
55.2418
 20
62.7443
 30
0.000000
  70
    32
  0
VERTEX
  8
0
  5
1479
 10
55.2370
 20
62.7286
 30
0.000000
  70
    32
  0
VERTEX
  8
0
  5
147A
 10
55.2323
 20
62.7129
 30
0.000000
  70
    32
  0
VERTEX
  8
0
  5
147B
 10
55.2277
 20
62.6971
 30
0.000000
  70
    32
  0
VERTEX
  8
0
  5
147C
 10
55.2232
 20
62.6814
 30
0.000000
  70
    32
  0
VERTEX
  8
0
  5
147D
 10
55.2189
 20
62.6656
 30
0.000000
  70
    32
  0
VERTEX
  8
0
  5
147E
 10
55.2146
 20
62.6498
 30
0.000000
  70
    32
  0
VERTEX
  8
0
  5
147F
 10
55.2105
 20
62.6341
 30
0.000000
  70
    32
  0
VERTEX
  8
0
  5
1480
 10
55.2064
 20
62.6183
 30
0.000000
  70
    32
  0
VERTEX
  8
0
  5
1481
 10
55.2025
 20
62.6025
 30
0.000000
  70
    32
  0
VERTEX
  8
0
  5
1482
 10
55.1986
 20
62.5867
 30
0.000000
  70
    32
  0
VERTEX
  8
0
  5
1483
 10
55.1949
 20
62.5709
 30
0.000000
  70
    32
  0
VERTEX
  8
0
  5
1484
 10
55.1913
 20
62.5551
 30
0.000000
  70
    32
  0
VERTEX
  8
0
  5
1485
 10
55.1878
 20
62.5393
 30
0.000000
  70
    32
  0
VERTEX
  8
0
  5
1486
 10
55.1844
 20
62.5234
 30
0.000000
  70
    32
  0
VERTEX
  8
0
  5
1487
 10
55.1811
 20
62.5076
 30
0.000000
  70
    32
  0
VERTEX
  8
0
  5
1488
 10
55.1779
 20
62.4918
 30
0.000000
  70
    32
  0
VERTEX
  8
0
  5
1489
 10
55.1749
 20
62.4760
 30
0.000000
  70
    32
  0
VERTEX
  8
0
  5
148A
 10
55.1719
 20
62.4601
 30
0.000000
  70
    32
  0
VERTEX
  8
0
  5
148B
 10
55.1690
 20
62.4443
 30
0.000000
  70
    32
  0
VERTEX
  8
0
  5
148C
 10
55.1663
 20
62.4284
 30
0.000000
  70
    32
  0
VERTEX
  8
0
  5
148D
 10
55.1636
 20
62.4126
 30
0.000000
  70
    32
  0
VERTEX
  8
0
  5
148E
 10
55.1611
 20
62.3967
 30
0.000000
  70
    32
  0
VERTEX
  8
0
  5
148F
 10
55.1587
 20
62.3808
 30
0.000000
  70
    32
  0
VERTEX
  8
0
  5
1490
 10
55.1563
 20
62.3650
 30
0.000000
  70
    32
  0
VERTEX
  8
0
  5
1491
 10
55.1541
 20
62.3491
 30
0.000000
  70
    32
  0
VERTEX
  8
0
  5
1492
 10
55.1520
 20
62.3332
 30
0.000000
  70
    32
  0
VERTEX
  8
0
  5
1493
 10
55.1500
 20
62.3173
 30
0.000000
  70
    32
  0
VERTEX
  8
0
  5
1494
 10
55.1481
 20
62.3014
 30
0.000000
  70
    32
  0
VERTEX
  8
0
  5
1495
 10
55.1463
 20
62.2856
 30
0.000000
  70
    32
  0
VERTEX
  8
0
  5
1496
 10
55.1447
 20
62.2697
 30
0.000000
  70
    32
  0
VERTEX
  8
0
  5
1497
 10
55.1431
 20
62.2538
 30
0.000000
  70
    32
  0
VERTEX
  8
0
  5
1498
 10
55.1416
 20
62.2379
 30
0.000000
  70
    32
  0
VERTEX
  8
0
  5
1499
 10
55.1403
 20
62.2220
 30
0.000000
  70
    32
  0
VERTEX
  8
0
  5
149A
 10
55.1390
 20
62.2061
 30
0.000000
  70
    32
  0
VERTEX
  8
0
  5
149B
 10
55.1379
 20
62.1902
 30
0.000000
  70
    32
  0
VERTEX
  8
0
  5
149C
 10
55.1369
 20
62.1743
 30
0.000000
  70
    32
  0
VERTEX
  8
0
  5
149D
 10
55.1360
 20
62.1584
 30
0.000000
  70
    32
  0
VERTEX
  8
0
  5
149E
 10
55.1352
 20
62.1425
 30
0.000000
  70
    32
  0
VERTEX
  8
0
  5
149F
 10
55.1344
 20
62.1266
 30
0.000000
  70
    32
  0
VERTEX
  8
0
  5
14A0
 10
55.1339
 20
62.1106
 30
0.000000
  70
    32
  0
VERTEX
  8
0
  5
14A1
 10
55.1334
 20
62.0947
 30
0.000000
  70
    32
  0
VERTEX
  8
0
  5
14A2
 10
55.1330
 20
62.0788
 30
0.000000
  70
    32
  0
VERTEX
  8
0
  5
14A3
 10
55.1327
 20
62.0629
 30
0.000000
  70
    32
  0
VERTEX
  8
0
  5
14A4
 10
55.1326
 20
62.0470
 30
0.000000
  70
    32
  0
VERTEX
  8
0
  5
14A5
 10
55.1325
 20
62.0311
 30
0.000000
  70
    32
  0
VERTEX
  8
0
  5
14A6
 10
55.1326
 20
62.0152
 30
0.000000
  70
    32
  0
VERTEX
  8
0
  5
14A7
 10
55.1327
 20
61.9993
 30
0.000000
  70
    32
  0
VERTEX
  8
0
  5
14A8
 10
55.1330
 20
61.9834
 30
0.000000
  70
    32
  0
VERTEX
  8
0
  5
14A9
 10
55.1334
 20
61.9674
 30
0.000000
  70
    32
  0
VERTEX
  8
0
  5
14AA
 10
55.1339
 20
61.9515
 30
0.000000
  70
    32
  0
VERTEX
  8
0
  5
14AB
 10
55.1344
 20
61.9356
 30
0.000000
  70
    32
  0
VERTEX
  8
0
  5
14AC
 10
55.1352
 20
61.9197
 30
0.000000
  70
    32
  0
VERTEX
  8
0
  5
14AD
 10
55.1360
 20
61.9038
 30
0.000000
  70
    32
  0
VERTEX
  8
0
  5
14AE
 10
55.1369
 20
61.8879
 30
0.000000
  70
    32
  0
VERTEX
  8
0
  5
14AF
 10
55.1379
 20
61.8720
 30
0.000000
  70
    32
  0
VERTEX
  8
0
  5
14B0
 10
55.1390
 20
61.8561
 30
0.000000
  70
    32
  0
VERTEX
  8
0
  5
14B1
 10
55.1403
 20
61.8402
 30
0.000000
  70
    32
  0
VERTEX
  8
0
  5
14B2
 10
55.1416
 20
61.8243
 30
0.000000
  70
    32
  0
VERTEX
  8
0
  5
14B3
 10
55.1431
 20
61.8084
 30
0.000000
  70
    32
  0
VERTEX
  8
0
  5
14B4
 10
55.1447
 20
61.7925
 30
0.000000
  70
    32
  0
VERTEX
  8
0
  5
14B5
 10
55.1463
 20
61.7766
 30
0.000000
  70
    32
  0
VERTEX
  8
0
  5
14B6
 10
55.1481
 20
61.7607
 30
0.000000
  70
    32
  0
VERTEX
  8
0
  5
14B7
 10
55.1500
 20
61.7449
 30
0.000000
  70
    32
  0
VERTEX
  8
0
  5
14B8
 10
55.1520
 20
61.7290
 30
0.000000
  70
    32
  0
VERTEX
  8
0
  5
14B9
 10
55.1541
 20
61.7131
 30
0.000000
  70
    32
  0
VERTEX
  8
0
  5
14BA
 10
55.1563
 20
61.6972
 30
0.000000
  70
    32
  0
VERTEX
  8
0
  5
14BB
 10
55.1587
 20
61.6814
 30
0.000000
  70
    32
  0
VERTEX
  8
0
  5
14BC
 10
55.1611
 20
61.6655
 30
0.000000
  70
    32
  0
VERTEX
  8
0
  5
14BD
 10
55.1636
 20
61.6496
 30
0.000000
  70
    32
  0
VERTEX
  8
0
  5
14BE
 10
55.1663
 20
61.6338
 30
0.000000
  70
    32
  0
VERTEX
  8
0
  5
14BF
 10
55.1690
 20
61.6179
 30
0.000000
  70
    32
  0
VERTEX
  8
0
  5
14C0
 10
55.1719
 20
61.6021
 30
0.000000
  70
    32
  0
VERTEX
  8
0
  5
14C1
 10
55.1749
 20
61.5862
 30
0.000000
  70
    32
  0
VERTEX
  8
0
  5
14C2
 10
55.1779
 20
61.5704
 30
0.000000
  70
    32
  0
VERTEX
  8
0
  5
14C3
 10
55.1811
 20
61.5546
 30
0.000000
  70
    32
  0
VERTEX
  8
0
  5
14C4
 10
55.1844
 20
61.5387
 30
0.000000
  70
    32
  0
VERTEX
  8
0
  5
14C5
 10
55.1878
 20
61.5229
 30
0.000000
  70
    32
  0
VERTEX
  8
0
  5
14C6
 10
55.1913
 20
61.5071
 30
0.000000
  70
    32
  0
VERTEX
  8
0
  5
14C7
 10
55.1949
 20
61.4913
 30
0.000000
  70
    32
  0
VERTEX
  8
0
  5
14C8
 10
55.1986
 20
61.4755
 30
0.000000
  70
    32
  0
VERTEX
  8
0
  5
14C9
 10
55.2025
 20
61.4597
 30
0.000000
  70
    32
  0
VERTEX
  8
0
  5
14CA
 10
55.2064
 20
61.4439
 30
0.000000
  70
    32
  0
VERTEX
  8
0
  5
14CB
 10
55.2105
 20
61.4281
 30
0.000000
  70
    32
  0
VERTEX
  8
0
  5
14CC
 10
55.2146
 20
61.4123
 30
0.000000
  70
    32
  0
VERTEX
  8
0
  5
14CD
 10
55.2189
 20
61.3966
 30
0.000000
  70
    32
  0
VERTEX
  8
0
  5
14CE
 10
55.2232
 20
61.3808
 30
0.000000
  70
    32
  0
VERTEX
  8
0
  5
14CF
 10
55.2277
 20
61.3651
 30
0.000000
  70
    32
  0
VERTEX
  8
0
  5
14D0
 10
55.2323
 20
61.3493
 30
0.000000
  70
    32
  0
VERTEX
  8
0
  5
14D1
 10
55.2370
 20
61.3336
 30
0.000000
  70
    32
  0
VERTEX
  8
0
  5
14D2
 10
55.2418
 20
61.3178
 30
0.000000
  70
    32
  0
VERTEX
  8
0
  5
14D3
 10
55.2467
 20
61.3021
 30
0.000000
  70
    32
  0
VERTEX
  8
0
  5
14D4
 10
55.2517
 20
61.2864
 30
0.000000
  70
    32
  0
VERTEX
  8
0
  5
14D5
 10
55.2568
 20
61.2707
 30
0.000000
  70
    32
  0
VERTEX
  8
0
  5
14D6
 10
55.2620
 20
61.2550
 30
0.000000
  70
    32
  0
VERTEX
  8
0
  5
14D7
 10
55.2673
 20
61.2393
 30
0.000000
  70
    32
  0
VERTEX
  8
0
  5
14D8
 10
55.2728
 20
61.2236
 30
0.000000
  70
    32
  0
VERTEX
  8
0
  5
14D9
 10
55.2783
 20
61.2080
 30
0.000000
  70
    32
  0
VERTEX
  8
0
  5
14DA
 10
55.2839
 20
61.1923
 30
0.000000
  70
    32
  0
VERTEX
  8
0
  5
14DB
 10
55.2897
 20
61.1767
 30
0.000000
  70
    32
  0
VERTEX
  8
0
  5
14DC
 10
55.2956
 20
61.1610
 30
0.000000
  70
    32
  0
VERTEX
  8
0
  5
14DD
 10
55.3015
 20
61.1454
 30
0.000000
  70
    32
  0
VERTEX
  8
0
  5
14DE
 10
55.3076
 20
61.1298
 30
0.000000
  70
    32
  0
VERTEX
  8
0
  5
14DF
 10
55.3138
 20
61.1142
 30
0.000000
  70
    32
  0
VERTEX
  8
0
  5
14E0
 10
55.3200
 20
61.0986
 30
0.000000
  70
    32
  0
VERTEX
  8
0
  5
14E1
 10
55.3264
 20
61.0830
 30
0.000000
  70
    32
  0
VERTEX
  8
0
  5
14E2
 10
55.3329
 20
61.0674
 30
0.000000
  70
    32
  0
VERTEX
  8
0
  5
14E3
 10
55.3395
 20
61.0518
 30
0.000000
  70
    32
  0
VERTEX
  8
0
  5
14E4
 10
55.3462
 20
61.0363
 30
0.000000
  70
    32
  0
VERTEX
  8
0
  5
14E5
 10
55.3531
 20
61.0207
 30
0.000000
  70
    32
  0
SEQEND
  8
0
  5
14E6
  0
ARC
  5
114A
  8
0
 10
64.500000000000057
 20
59.0
 30
0.0
 40
10.000000000000041
 50
156.1624286630942
 51
203.8375713369058
  0
POLYLINE
  5
114B
  8
0
 10
55.353051510658517
 20
56.979274057836321
 30
0.0
 66
     1
 70
     8
  0
VERTEX
  8
0
  5
14E7
 10
55.3531
 20
56.9793
 30
0.000000
  70
    32
  0
VERTEX
  8
0
  5
14E8
 10
55.3462
 20
56.9637
 30
0.000000
  70
    32
  0
VERTEX
  8
0
  5
14E9
 10
55.3395
 20
56.9482
 30
0.000000
  70
    32
  0
VERTEX
  8
0
  5
14EA
 10
55.3329
 20
56.9326
 30
0.000000
  70
    32
  0
VERTEX
  8
0
  5
14EB
 10
55.3264
 20
56.9170
 30
0.000000
  70
    32
  0
VERTEX
  8
0
  5
14EC
 10
55.3200
 20
56.9014
 30
0.000000
  70
    32
  0
VERTEX
  8
0
  5
14ED
 10
55.3138
 20
56.8858
 30
0.000000
  70
    32
  0
VERTEX
  8
0
  5
14EE
 10
55.3076
 20
56.8702
 30
0.000000
  70
    32
  0
VERTEX
  8
0
  5
14EF
 10
55.3015
 20
56.8546
 30
0.000000
  70
    32
  0
VERTEX
  8
0
  5
14F0
 10
55.2956
 20
56.8390
 30
0.000000
  70
    32
  0
VERTEX
  8
0
  5
14F1
 10
55.2897
 20
56.8233
 30
0.000000
  70
    32
  0
VERTEX
  8
0
  5
14F2
 10
55.2839
 20
56.8077
 30
0.000000
  70
    32
  0
VERTEX
  8
0
  5
14F3
 10
55.2783
 20
56.7920
 30
0.000000
  70
    32
  0
VERTEX
  8
0
  5
14F4
 10
55.2728
 20
56.7764
 30
0.000000
  70
    32
  0
VERTEX
  8
0
  5
14F5
 10
55.2673
 20
56.7607
 30
0.000000
  70
    32
  0
VERTEX
  8
0
  5
14F6
 10
55.2620
 20
56.7450
 30
0.000000
  70
    32
  0
VERTEX
  8
0
  5
14F7
 10
55.2568
 20
56.7293
 30
0.000000
  70
    32
  0
VERTEX
  8
0
  5
14F8
 10
55.2517
 20
56.7136
 30
0.000000
  70
    32
  0
VERTEX
  8
0
  5
14F9
 10
55.2467
 20
56.6979
 30
0.000000
  70
    32
  0
VERTEX
  8
0
  5
14FA
 10
55.2418
 20
56.6822
 30
0.000000
  70
    32
  0
VERTEX
  8
0
  5
14FB
 10
55.2370
 20
56.6664
 30
0.000000
  70
    32
  0
VERTEX
  8
0
  5
14FC
 10
55.2323
 20
56.6507
 30
0.000000
  70
    32
  0
VERTEX
  8
0
  5
14FD
 10
55.2277
 20
56.6349
 30
0.000000
  70
    32
  0
VERTEX
  8
0
  5
14FE
 10
55.2232
 20
56.6192
 30
0.000000
  70
    32
  0
VERTEX
  8
0
  5
14FF
 10
55.2189
 20
56.6034
 30
0.000000
  70
    32
  0
VERTEX
  8
0
  5
1500
 10
55.2146
 20
56.5877
 30
0.000000
  70
    32
  0
VERTEX
  8
0
  5
1501
 10
55.2105
 20
56.5719
 30
0.000000
  70
    32
  0
VERTEX
  8
0
  5
1502
 10
55.2064
 20
56.5561
 30
0.000000
  70
    32
  0
VERTEX
  8
0
  5
1503
 10
55.2025
 20
56.5403
 30
0.000000
  70
    32
  0
VERTEX
  8
0
  5
1504
 10
55.1986
 20
56.5245
 30
0.000000
  70
    32
  0
VERTEX
  8
0
  5
1505
 10
55.1949
 20
56.5087
 30
0.000000
  70
    32
  0
VERTEX
  8
0
  5
1506
 10
55.1913
 20
56.4929
 30
0.000000
  70
    32
  0
VERTEX
  8
0
  5
1507
 10
55.1878
 20
56.4771
 30
0.000000
  70
    32
  0
VERTEX
  8
0
  5
1508
 10
55.1844
 20
56.4613
 30
0.000000
  70
    32
  0
VERTEX
  8
0
  5
1509
 10
55.1811
 20
56.4454
 30
0.000000
  70
    32
  0
VERTEX
  8
0
  5
150A
 10
55.1779
 20
56.4296
 30
0.000000
  70
    32
  0
VERTEX
  8
0
  5
150B
 10
55.1749
 20
56.4138
 30
0.000000
  70
    32
  0
VERTEX
  8
0
  5
150C
 10
55.1719
 20
56.3979
 30
0.000000
  70
    32
  0
VERTEX
  8
0
  5
150D
 10
55.1690
 20
56.3821
 30
0.000000
  70
    32
  0
VERTEX
  8
0
  5
150E
 10
55.1663
 20
56.3662
 30
0.000000
  70
    32
  0
VERTEX
  8
0
  5
150F
 10
55.1636
 20
56.3504
 30
0.000000
  70
    32
  0
VERTEX
  8
0
  5
1510
 10
55.1611
 20
56.3345
 30
0.000000
  70
    32
  0
VERTEX
  8
0
  5
1511
 10
55.1587
 20
56.3186
 30
0.000000
  70
    32
  0
VERTEX
  8
0
  5
1512
 10
55.1563
 20
56.3028
 30
0.000000
  70
    32
  0
VERTEX
  8
0
  5
1513
 10
55.1541
 20
56.2869
 30
0.000000
  70
    32
  0
VERTEX
  8
0
  5
1514
 10
55.1520
 20
56.2710
 30
0.000000
  70
    32
  0
VERTEX
  8
0
  5
1515
 10
55.1500
 20
56.2551
 30
0.000000
  70
    32
  0
VERTEX
  8
0
  5
1516
 10
55.1481
 20
56.2393
 30
0.000000
  70
    32
  0
VERTEX
  8
0
  5
1517
 10
55.1463
 20
56.2234
 30
0.000000
  70
    32
  0
VERTEX
  8
0
  5
1518
 10
55.1447
 20
56.2075
 30
0.000000
  70
    32
  0
VERTEX
  8
0
  5
1519
 10
55.1431
 20
56.1916
 30
0.000000
  70
    32
  0
VERTEX
  8
0
  5
151A
 10
55.1416
 20
56.1757
 30
0.000000
  70
    32
  0
VERTEX
  8
0
  5
151B
 10
55.1403
 20
56.1598
 30
0.000000
  70
    32
  0
VERTEX
  8
0
  5
151C
 10
55.1390
 20
56.1439
 30
0.000000
  70
    32
  0
VERTEX
  8
0
  5
151D
 10
55.1379
 20
56.1280
 30
0.000000
  70
    32
  0
VERTEX
  8
0
  5
151E
 10
55.1369
 20
56.1121
 30
0.000000
  70
    32
  0
VERTEX
  8
0
  5
151F
 10
55.1360
 20
56.0962
 30
0.000000
  70
    32
  0
VERTEX
  8
0
  5
1520
 10
55.1352
 20
56.0803
 30
0.000000
  70
    32
  0
VERTEX
  8
0
  5
1521
 10
55.1344
 20
56.0644
 30
0.000000
  70
    32
  0
VERTEX
  8
0
  5
1522
 10
55.1339
 20
56.0485
 30
0.000000
  70
    32
  0
VERTEX
  8
0
  5
1523
 10
55.1334
 20
56.0326
 30
0.000000
  70
    32
  0
VERTEX
  8
0
  5
1524
 10
55.1330
 20
56.0166
 30
0.000000
  70
    32
  0
VERTEX
  8
0
  5
1525
 10
55.1327
 20
56.0007
 30
0.000000
  70
    32
  0
VERTEX
  8
0
  5
1526
 10
55.1326
 20
55.9848
 30
0.000000
  70
    32
  0
VERTEX
  8
0
  5
1527
 10
55.1325
 20
55.9689
 30
0.000000
  70
    32
  0
VERTEX
  8
0
  5
1528
 10
55.1326
 20
55.9530
 30
0.000000
  70
    32
  0
VERTEX
  8
0
  5
1529
 10
55.1327
 20
55.9371
 30
0.000000
  70
    32
  0
VERTEX
  8
0
  5
152A
 10
55.1330
 20
55.9212
 30
0.000000
  70
    32
  0
VERTEX
  8
0
  5
152B
 10
55.1334
 20
55.9053
 30
0.000000
  70
    32
  0
VERTEX
  8
0
  5
152C
 10
55.1339
 20
55.8894
 30
0.000000
  70
    32
  0
VERTEX
  8
0
  5
152D
 10
55.1344
 20
55.8734
 30
0.000000
  70
    32
  0
VERTEX
  8
0
  5
152E
 10
55.1352
 20
55.8575
 30
0.000000
  70
    32
  0
VERTEX
  8
0
  5
152F
 10
55.1360
 20
55.8416
 30
0.000000
  70
    32
  0
VERTEX
  8
0
  5
1530
 10
55.1369
 20
55.8257
 30
0.000000
  70
    32
  0
VERTEX
  8
0
  5
1531
 10
55.1379
 20
55.8098
 30
0.000000
  70
    32
  0
VERTEX
  8
0
  5
1532
 10
55.1390
 20
55.7939
 30
0.000000
  70
    32
  0
VERTEX
  8
0
  5
1533
 10
55.1403
 20
55.7780
 30
0.000000
  70
    32
  0
VERTEX
  8
0
  5
1534
 10
55.1416
 20
55.7621
 30
0.000000
  70
    32
  0
VERTEX
  8
0
  5
1535
 10
55.1431
 20
55.7462
 30
0.000000
  70
    32
  0
VERTEX
  8
0
  5
1536
 10
55.1447
 20
55.7303
 30
0.000000
  70
    32
  0
VERTEX
  8
0
  5
1537
 10
55.1463
 20
55.7144
 30
0.000000
  70
    32
  0
VERTEX
  8
0
  5
1538
 10
55.1481
 20
55.6986
 30
0.000000
  70
    32
  0
VERTEX
  8
0
  5
1539
 10
55.1500
 20
55.6827
 30
0.000000
  70
    32
  0
VERTEX
  8
0
  5
153A
 10
55.1520
 20
55.6668
 30
0.000000
  70
    32
  0
VERTEX
  8
0
  5
153B
 10
55.1541
 20
55.6509
 30
0.000000
  70
    32
  0
VERTEX
  8
0
  5
153C
 10
55.1563
 20
55.6350
 30
0.000000
  70
    32
  0
VERTEX
  8
0
  5
153D
 10
55.1587
 20
55.6192
 30
0.000000
  70
    32
  0
VERTEX
  8
0
  5
153E
 10
55.1611
 20
55.6033
 30
0.000000
  70
    32
  0
VERTEX
  8
0
  5
153F
 10
55.1636
 20
55.5874
 30
0.000000
  70
    32
  0
VERTEX
  8
0
  5
1540
 10
55.1663
 20
55.5716
 30
0.000000
  70
    32
  0
VERTEX
  8
0
  5
1541
 10
55.1690
 20
55.5557
 30
0.000000
  70
    32
  0
VERTEX
  8
0
  5
1542
 10
55.1719
 20
55.5399
 30
0.000000
  70
    32
  0
VERTEX
  8
0
  5
1543
 10
55.1749
 20
55.5240
 30
0.000000
  70
    32
  0
VERTEX
  8
0
  5
1544
 10
55.1779
 20
55.5082
 30
0.000000
  70
    32
  0
VERTEX
  8
0
  5
1545
 10
55.1811
 20
55.4924
 30
0.000000
  70
    32
  0
VERTEX
  8
0
  5
1546
 10
55.1844
 20
55.4766
 30
0.000000
  70
    32
  0
VERTEX
  8
0
  5
1547
 10
55.1878
 20
55.4607
 30
0.000000
  70
    32
  0
VERTEX
  8
0
  5
1548
 10
55.1913
 20
55.4449
 30
0.000000
  70
    32
  0
VERTEX
  8
0
  5
1549
 10
55.1949
 20
55.4291
 30
0.000000
  70
    32
  0
VERTEX
  8
0
  5
154A
 10
55.1986
 20
55.4133
 30
0.000000
  70
    32
  0
VERTEX
  8
0
  5
154B
 10
55.2025
 20
55.3975
 30
0.000000
  70
    32
  0
VERTEX
  8
0
  5
154C
 10
55.2064
 20
55.3817
 30
0.000000
  70
    32
  0
VERTEX
  8
0
  5
154D
 10
55.2105
 20
55.3659
 30
0.000000
  70
    32
  0
VERTEX
  8
0
  5
154E
 10
55.2146
 20
55.3502
 30
0.000000
  70
    32
  0
VERTEX
  8
0
  5
154F
 10
55.2189
 20
55.3344
 30
0.000000
  70
    32
  0
VERTEX
  8
0
  5
1550
 10
55.2232
 20
55.3186
 30
0.000000
  70
    32
  0
VERTEX
  8
0
  5
1551
 10
55.2277
 20
55.3029
 30
0.000000
  70
    32
  0
VERTEX
  8
0
  5
1552
 10
55.2323
 20
55.2871
 30
0.000000
  70
    32
  0
VERTEX
  8
0
  5
1553
 10
55.2370
 20
55.2714
 30
0.000000
  70
    32
  0
VERTEX
  8
0
  5
1554
 10
55.2418
 20
55.2557
 30
0.000000
  70
    32
  0
VERTEX
  8
0
  5
1555
 10
55.2467
 20
55.2399
 30
0.000000
  70
    32
  0
VERTEX
  8
0
  5
1556
 10
55.2517
 20
55.2242
 30
0.000000
  70
    32
  0
VERTEX
  8
0
  5
1557
 10
55.2568
 20
55.2085
 30
0.000000
  70
    32
  0
VERTEX
  8
0
  5
1558
 10
55.2620
 20
55.1928
 30
0.000000
  70
    32
  0
VERTEX
  8
0
  5
1559
 10
55.2673
 20
55.1771
 30
0.000000
  70
    32
  0
VERTEX
  8
0
  5
155A
 10
55.2728
 20
55.1615
 30
0.000000
  70
    32
  0
VERTEX
  8
0
  5
155B
 10
55.2783
 20
55.1458
 30
0.000000
  70
    32
  0
VERTEX
  8
0
  5
155C
 10
55.2839
 20
55.1301
 30
0.000000
  70
    32
  0
VERTEX
  8
0
  5
155D
 10
55.2897
 20
55.1145
 30
0.000000
  70
    32
  0
VERTEX
  8
0
  5
155E
 10
55.2956
 20
55.0988
 30
0.000000
  70
    32
  0
VERTEX
  8
0
  5
155F
 10
55.3015
 20
55.0832
 30
0.000000
  70
    32
  0
VERTEX
  8
0
  5
1560
 10
55.3076
 20
55.0676
 30
0.000000
  70
    32
  0
VERTEX
  8
0
  5
1561
 10
55.3138
 20
55.0520
 30
0.000000
  70
    32
  0
VERTEX
  8
0
  5
1562
 10
55.3200
 20
55.0364
 30
0.000000
  70
    32
  0
VERTEX
  8
0
  5
1563
 10
55.3264
 20
55.0208
 30
0.000000
  70
    32
  0
VERTEX
  8
0
  5
1564
 10
55.3329
 20
55.0052
 30
0.000000
  70
    32
  0
VERTEX
  8
0
  5
1565
 10
55.3395
 20
54.9896
 30
0.000000
  70
    32
  0
VERTEX
  8
0
  5
1566
 10
55.3462
 20
54.9741
 30
0.000000
  70
    32
  0
VERTEX
  8
0
  5
1567
 10
55.3531
 20
54.9585
 30
0.000000
  70
    32
  0
SEQEND
  8
0
  5
1568
  0
LINE
  5
114C
  8
0
 10
59.700000000000017
 20
54.958548115672613
 30
0.0
 11
55.353051510658503
 21
54.958548115672613
 31
0.0
  0
LINE
  5
114D
  8
0
 10
55.353051510658531
 20
56.9792740578363
 30
0.0
 11
59.700000000000017
 21
56.9792740578363
 31
0.0
  0
POLYLINE
  5
114F
  8
0
 66
     1
 10
0.0
 20
0.0
 30
0.0
  0
VERTEX
  5
1301
  8
0
 10
60.054219839583823
 20
54.788675134594833
 30
0.0
  0
VERTEX
  5
1302
  8
0
 10
60.022115912348049
 20
54.822772814089006
 30
0.0
  0
VERTEX
  5
1303
  8
0
 10
59.987560488520387
 20
54.853509841449473
 30
0.0
  0
VERTEX
  5
1304
  8
0
 10
59.950816555741341
 20
54.880652289338478
 30
0.0
  0
VERTEX
  5
1305
  8
0
 10
59.912163757525889
 20
54.903993587338498
 30
0.0
  0
VERTEX
  5
1306
  8
0
 10
59.871896265007727
 20
54.923356094077917
 30
0.0
  0
VERTEX
  5
1307
  8
0
 10
59.830320538119047
 20
54.938592449189031
 30
0.0
  0
VERTEX
  5
1308
  8
0
 10
59.787752993245562
 20
54.949586694809511
 30
0.0
  0
VERTEX
  5
1309
  8
0
 10
59.744517595106799
 20
54.956255158091608
 30
0.0
  0
VERTEX
  5
130A
  8
0
 10
59.700943391188787
 20
54.958547088003307
 30
0.0
  0
VERTEX
  5
130B
  8
0
 10
59.699999957853151
 20
54.958548115672613
 30
0.0
  0
SEQEND
  5
130C
  8
0
  0
POLYLINE
  5
1150
  8
0
 66
     1
 10
0.0
 20
0.0
 30
0.0
  0
VERTEX
  5
130D
  8
0
 10
60.200000000000017
 20
54.87725259196975
 30
0.0
  0
VERTEX
  5
130E
  8
0
 10
60.197388868253512
 20
54.848500916657201
 30
0.0
  0
VERTEX
  5
130F
  8
0
 10
60.188314974875311
 20
54.825313841885787
 30
0.0
  0
VERTEX
  5
1310
  8
0
 10
60.170348503714507
 20
54.8076575542581
 30
0.0
  0
VERTEX
  5
1311
  8
0
 10
60.140435570579967
 20
54.79579285078006
 30
0.0
  0
VERTEX
  5
1312
  8
0
 10
60.104427493076741
 20
54.790406971866297
 30
0.0
  0
VERTEX
  5
1313
  8
0
 10
60.054219839583929
 20
54.788675134594833
 30
0.0
  0
SEQEND
  5
1314
  8
0
  0
POLYLINE
  5
1151
  8
0
 66
     1
 10
0.0
 20
0.0
 30
0.0
  0
VERTEX
  5
1315
  8
0
 10
60.054219839583929
 20
63.211324865405167
 30
0.0
  0
VERTEX
  5
1316
  8
0
 10
60.10500511354121
 20
63.209544605382597
 30
0.0
  0
VERTEX
  5
1317
  8
0
 10
60.14209890380522
 20
63.203796515380652
 30
0.0
  0
VERTEX
  5
1318
  8
0
 10
60.170555665515508
 20
63.192210837309737
 30
0.0
  0
VERTEX
  5
1319
  8
0
 10
60.188127599182231
 20
63.174977811843519
 30
0.0
  0
VERTEX
  5
131A
  8
0
 10
60.197331546459957
 20
63.151767247749831
 30
0.0
  0
VERTEX
  5
131B
  8
0
 10
60.200000000000017
 20
63.12274740803025
 30
0.0
  0
SEQEND
  5
131C
  8
0
  0
POLYLINE
  5
1152
  8
0
 66
     1
 10
0.0
 20
0.0
 30
0.0
  0
VERTEX
  5
131D
  8
0
 10
60.054219839583823
 20
63.211324865405167
 30
0.0
  0
VERTEX
  5
131E
  8
0
 10
60.022115912348049
 20
63.177227185910994
 30
0.0
  0
VERTEX
  5
131F
  8
0
 10
59.987560488520387
 20
63.146490158550527
 30
0.0
  0
VERTEX
  5
1320
  8
0
 10
59.950816555741341
 20
63.119347710661522
 30
0.0
  0
VERTEX
  5
1321
  8
0
 10
59.912163757525917
 20
63.096006412661502
 30
0.0
  0
VERTEX
  5
1322
  8
0
 10
59.871896265007727
 20
63.076643905922083
 30
0.0
  0
VERTEX
  5
1323
  8
0
 10
59.830320538119047
 20
63.061407550810969
 30
0.0
  0
VERTEX
  5
1324
  8
0
 10
59.787752993245562
 20
63.050413305190489
 30
0.0
  0
VERTEX
  5
1325
  8
0
 10
59.744517595106799
 20
63.043744841908392
 30
0.0
  0
VERTEX
  5
1326
  8
0
 10
59.700943391188787
 20
63.041452911996679
 30
0.0
  0
VERTEX
  5
1327
  8
0
 10
59.700000000000017
 20
63.04145188432738
 30
0.0
  0
SEQEND
  5
1328
  8
0
  0
POLYLINE
  5
1153
  8
0
 66
     1
 10
0.0
 20
0.0
 30
0.0
  0
VERTEX
  5
1329
  8
0
 10
60.054219839583823
 20
56.894337567297413
 30
0.0
  0
VERTEX
  5
132A
  8
0
 10
60.10500511354121
 20
56.789192311914803
 30
0.0
  0
VERTEX
  5
132B
  8
0
 10
60.142098903805191
 20
56.680124714987613
 30
0.0
  0
VERTEX
  5
132C
  8
0
 10
60.170665430724277
 20
56.556408831121239
 30
0.0
  0
VERTEX
  5
132D
  8
0
 10
60.188127599182231
 20
56.434376129402317
 30
0.0
  0
VERTEX
  5
132E
  8
0
 10
60.197356118426477
 20
56.312731440146912
 30
0.0
  0
VERTEX
  5
132F
  8
0
 10
60.200000000000017
 20
56.19454417775475
 30
0.0
  0
SEQEND
  5
1330
  8
0
  0
POLYLINE
  5
1154
  8
0
 66
     1
 10
0.0
 20
0.0
 30
0.0
  0
VERTEX
  5
1331
  8
0
 10
60.200000000000017
 20
61.805455822245243
 30
0.0
  0
VERTEX
  5
1332
  8
0
 10
60.19739556433089
 20
61.688126047842069
 30
0.0
  0
VERTEX
  5
1333
  8
0
 10
60.188314974875311
 20
61.567384173571149
 30
0.0
  0
VERTEX
  5
1334
  8
0
 10
60.170304674984997
 20
61.44159855409395
 30
0.0
  0
VERTEX
  5
1335
  8
0
 10
60.140435570579967
 20
61.314057641145361
 30
0.0
  0
VERTEX
  5
1336
  8
0
 10
60.104427493076741
 20
61.209380186794078
 30
0.0
  0
VERTEX
  5
1337
  8
0
 10
60.054219839583929
 20
61.105662432702587
 30
0.0
  0
SEQEND
  5
1338
  8
0
  0
POLYLINE
  5
1155
  8
0
 66
     1
 10
0.0
 20
0.0
 30
0.0
  0
VERTEX
  5
1339
  8
0
 10
60.054219839583929
 20
61.105662432702587
 30
0.0
  0
VERTEX
  5
133A
  8
0
 10
60.10500511354121
 20
60.998736917297379
 30
0.0
  0
VERTEX
  5
133B
  8
0
 10
60.14209890380522
 20
60.883921230368252
 30
0.0
  0
VERTEX
  5
133C
  8
0
 10
60.170555665515508
 20
60.749018883131043
 30
0.0
  0
VERTEX
  5
133D
  8
0
 10
60.188127599182231
 20
60.609353941245871
 30
0.0
  0
VERTEX
  5
133E
  8
0
 10
60.197331546459957
 20
60.464684489493209
 30
0.0
  0
VERTEX
  5
133F
  8
0
 10
60.200000000000017
 20
60.317291585785028
 30
0.0
  0
SEQEND
  5
1340
  8
0
  0
POLYLINE
  5
1156
  8
0
 66
     1
 10
0.0
 20
0.0
 30
0.0
  0
VERTEX
  5
1341
  8
0
 10
60.054219839583823
 20
61.105662432702587
 30
0.0
  0
VERTEX
  5
1342
  8
0
 10
60.022115912348049
 20
61.088613592955483
 30
0.0
  0
VERTEX
  5
1343
  8
0
 10
59.987560488520387
 20
61.07324507927526
 30
0.0
  0
VERTEX
  5
1344
  8
0
 10
59.950816555741341
 20
61.059673855330772
 30
0.0
  0
VERTEX
  5
1345
  8
0
 10
59.912163757525917
 20
61.048003206330741
 30
0.0
  0
VERTEX
  5
1346
  8
0
 10
59.871896265007727
 20
61.038321952961041
 30
0.0
  0
VERTEX
  5
1347
  8
0
 10
59.830320538119047
 20
61.03070377540547
 30
0.0
  0
VERTEX
  5
1348
  8
0
 10
59.787752993245562
 20
61.025206652595237
 30
0.0
  0
VERTEX
  5
1349
  8
0
 10
59.744517595106799
 20
61.021872420954189
 30
0.0
  0
VERTEX
  5
134A
  8
0
 10
59.700943391188787
 20
61.020726455998322
 30
0.0
  0
VERTEX
  5
134B
  8
0
 10
59.700000000000017
 20
61.0207259421637
 30
0.0
  0
SEQEND
  5
134C
  8
0
  0
POLYLINE
  5
1157
  8
0
 66
     1
 10
0.0
 20
0.0
 30
0.0
  0
VERTEX
  5
134D
  8
0
 10
59.69999996128567
 20
56.9792740578363
 30
0.0
  0
VERTEX
  5
134E
  8
0
 10
59.7435778328068
 20
56.978175563743861
 30
0.0
  0
VERTEX
  5
134F
  8
0
 10
59.786824050707281
 20
56.974888437773643
 30
0.0
  0
VERTEX
  5
1350
  8
0
 10
59.829409485156077
 20
56.96943769693916
 30
0.0
  0
VERTEX
  5
1351
  8
0
 10
59.871010035283263
 20
56.961864824669362
 30
0.0
  0
VERTEX
  5
1352
  8
0
 10
59.911309095783253
 20
56.952227455094892
 30
0.0
  0
VERTEX
  5
1353
  8
0
 10
59.949999966472411
 20
56.94059893441738
 30
0.0
  0
VERTEX
  5
1354
  8
0
 10
59.986788186462597
 20
56.92706776270068
 30
0.0
  0
VERTEX
  5
1355
  8
0
 10
60.021393775186368
 20
56.91173692033189
 30
0.0
  0
VERTEX
  5
1356
  8
0
 10
60.0535533632181
 20
56.894723084278489
 30
0.0
  0
VERTEX
  5
1357
  8
0
 10
60.054219839583823
 20
56.894337567297413
 30
0.0
  0
SEQEND
  5
1358
  8
0
  0
POLYLINE
  5
1158
  8
0
 66
     1
 10
0.0
 20
0.0
 30
0.0
  0
VERTEX
  5
1359
  8
0
 10
60.200000000000017
 20
57.682708414214972
 30
0.0
  0
VERTEX
  5
135A
  8
0
 10
60.197388868253512
 20
57.536814220101917
 30
0.0
  0
VERTEX
  5
135B
  8
0
 10
60.188314974875311
 20
57.392698015456922
 30
0.0
  0
VERTEX
  5
135C
  8
0
 10
60.170348503714507
 20
57.249721035943928
 30
0.0
  0
VERTEX
  5
135D
  8
0
 10
60.140435570579967
 20
57.109850491925378
 30
0.0
  0
VERTEX
  5
135E
  8
0
 10
60.104427493076741
 20
56.999787158660347
 30
0.0
  0
VERTEX
  5
135F
  8
0
 10
60.054219839583823
 20
56.894337567297413
 30
0.0
  0
SEQEND
  5
1360
  8
0
  0
LINE
  5
1159
  8
0
 10
60.200000000000017
 20
54.788675134594833
 30
0.0
 11
60.700000000000017
 21
54.5
 31
0.0
  0
LINE
  5
115A
  8
0
 10
60.700000000000017
 20
63.5
 30
0.0
 11
60.200000000000017
 21
63.211324865405167
 31
0.0
  0
LINE
  5
115B
  8
0
 10
60.200000000000017
 20
63.211324865405167
 30
0.0
 11
60.200000000000017
 21
54.788675134594833
 31
0.0
  0
LINE
  5
115C
  8
0
 10
61.0
 20
63.5
 30
0.0
 11
61.0
 21
54.5
 31
0.0
  0
LINE
  5
115D
  8
0
 10
60.700000000000017
 20
63.5
 30
0.0
 11
60.700000000000017
 21
54.5
 31
0.0
  0
LINE
  5
115E
  8
0
 10
60.700000000000017
 20
54.5
 30
0.0
 11
61.0
 21
54.5
 31
0.0
  0
LINE
  5
115F
  8
0
 10
61.0
 20
63.5
 30
0.0
 11
60.700000000000017
 21
63.5
 31
0.0
  0
LINE
  5
1160
  8
2
 10
61.0
 20
57.0
 30
0.0
 11
57.0
 21
57.0
 31
0.0
  0
LINE
  5
1161
  8
2
 10
57.0
 20
61.0
 30
0.0
 11
57.0
 21
57.0
 31
0.0
  0
LINE
  5
1162
  8
2
 10
61.0
 20
61.0
 30
0.0
 11
57.0
 21
61.0
 31
0.0
  0
LINE
  5
120E
  8
1
 10
63.0
 20
30.0
 30
0.0
 11
52.5
 21
30.0
 31
0.0
  0
LINE
  5
1225
  8
1
 10
63.0
 20
59.0
 30
0.0
 11
52.500000000000028
 21
59.0
 31
0.0
  0
CIRCLE
  5
1236
  8
0
 10
30.0
 20
30.000000000000021
 30
0.0
 40
4.2113248654051807
  0
LINE
  5
1237
  8
1
 10
30.0
 20
36.5
 30
0.0
 11
30.0
 21
23.5
 31
0.0
  0
LINE
  5
1238
  8
1
 10
36.5
 20
30.0
 30
0.0
 11
23.5
 21
30.0
 31
0.0
  0
ENDSEC
  0
EOF
