  0
SECTION
  2
HEADER
  9
$ACADVER
  1
AC1009
  9
$INSBASE
 10
0.0
 20
0.0
 30
0.0
  9
$EXTMIN
 10
0.0
 20
-1.4802182810368341
 30
0.0
  9
$EXTMAX
 10
64.000000000000028
 20
65.0
 30
0.0
  9
$LIMMIN
 10
0.0
 20
0.0
  9
$LIMMAX
 10
375.0
 20
270.0
  9
$ORTHOMODE
 70
     1
  9
$REGENMODE
 70
     1
  9
$FILLMODE
 70
     1
  9
$QTEXTMODE
 70
     0
  9
$MIRRTEXT
 70
     0
  9
$DRAGMODE
 70
     2
  9
$LTSCALE
 40
3.0
  9
$OSMODE
 70
    37
  9
$ATTMODE
 70
     1
  9
$TEXTSIZE
 40
0.2
  9
$TRACEWID
 40
0.05
  9
$TEXTSTYLE
  7
STANDARD
  9
$CLAYER
  8
4
  9
$CELTYPE
  6
BYLAYER
  9
$CECOLOR
 62
   256
  9
$DIMSCALE
 40
1.0
  9
$DIMASZ
 40
3.0
  9
$DIMEXO
 40
2.0
  9
$DIMDLI
 40
0.38
  9
$DIMRND
 40
0.0
  9
$DIMDLE
 40
0.0
  9
$DIMEXE
 40
2.0
  9
$DIMTP
 40
0.0
  9
$DIMTM
 40
0.0
  9
$DIMTXT
 40
3.2000000000000002
  9
$DIMCEN
 40
0.09
  9
$DIMTSZ
 40
0.0
  9
$DIMTOL
 70
     0
  9
$DIMLIM
 70
     0
  9
$DIMTIH
 70
     0
  9
$DIMTOH
 70
     0
  9
$DIMSE1
 70
     0
  9
$DIMSE2
 70
     0
  9
$DIMTAD
 70
     1
  9
$DIMZIN
 70
     8
  9
$DIMBLK
  1

  9
$DIMASO
 70
     1
  9
$DIMSHO
 70
     0
  9
$DIMPOST
  1

  9
$DIMAPOST
  1

  9
$DIMALT
 70
     0
  9
$DIMALTD
 70
     2
  9
$DIMALTF
 40
25.399999999999999
  9
$DIMLFAC
 40
1.0
  9
$DIMTOFL
 70
     1
  9
$DIMTVP
 40
1.6000000000000001
  9
$DIMTIX
 70
     1
  9
$DIMSOXD
 70
     0
  9
$DIMSAH
 70
     0
  9
$DIMBLK1
  1

  9
$DIMBLK2
  1

  9
$DIMSTYLE
  2
STANDARD
  9
$DIMCLRD
 70
   256
  9
$DIMCLRE
 70
   256
  9
$DIMCLRT
 70
   256
  9
$DIMTFAC
 40
1.0
  9
$DIMGAP
 40
1.0
  9
$LUNITS
 70
     2
  9
$LUPREC
 70
     1
  9
$SKETCHINC
 40
0.1
  9
$FILLETRAD
 40
0.0
  9
$AUNITS
 70
     0
  9
$AUPREC
 70
     1
  9
$MENU
  1
E:\r13\win\SUPPORT\ACAD
  9
$ELEVATION
 40
0.0
  9
$PELEVATION
 40
0.0
  9
$THICKNESS
 40
0.0
  9
$LIMCHECK
 70
     0
  9
$BLIPMODE
 70
     0
  9
$CHAMFERA
 40
0.0
  9
$CHAMFERB
 40
0.0
  9
$SKPOLY
 70
     0
  9
$TDCREATE
 40
2449839.8447916671
  9
$TDUPDATE
 40
2459207.6378157642
  9
$TDINDWG
 40
0.3947599884
  9
$TDUSRTIMER
 40
0.3947599884
  9
$USRTIMER
 70
     1
  9
$ANGBASE
 50
0.0
  9
$ANGDIR
 70
     0
  9
$PDMODE
 70
     0
  9
$PDSIZE
 40
0.0
  9
$PLINEWID
 40
0.0
  9
$COORDS
 70
     1
  9
$SPLFRAME
 70
     0
  9
$SPLINETYPE
 70
     6
  9
$SPLINESEGS
 70
     8
  9
$ATTDIA
 70
     0
  9
$ATTREQ
 70
     1
  9
$HANDLING
 70
     1
  9
$HANDSEED
  5
182D
  9
$SURFTAB1
 70
     6
  9
$SURFTAB2
 70
     6
  9
$SURFTYPE
 70
     6
  9
$SURFU
 70
     6
  9
$SURFV
 70
     6
  9
$UCSNAME
  2

  9
$UCSORG
 10
0.0
 20
0.0
 30
0.0
  9
$UCSXDIR
 10
1.0
 20
0.0
 30
0.0
  9
$UCSYDIR
 10
0.0
 20
1.0
 30
0.0
  9
$PUCSNAME
  2

  9
$PUCSORG
 10
0.0
 20
0.0
 30
0.0
  9
$PUCSXDIR
 10
1.0
 20
0.0
 30
0.0
  9
$PUCSYDIR
 10
0.0
 20
1.0
 30
0.0
  9
$USERI1
 70
     0
  9
$USERI2
 70
     1
  9
$USERI3
 70
     1
  9
$USERI4
 70
     0
  9
$USERI5
 70
     0
  9
$USERR1
 40
0.0
  9
$USERR2
 40
0.0
  9
$USERR3
 40
0.0
  9
$USERR4
 40
0.0
  9
$USERR5
 40
0.0
  9
$WORLDVIEW
 70
     1
  9
$SHADEDGE
 70
     3
  9
$SHADEDIF
 70
    70
  9
$TILEMODE
 70
     1
  9
$MAXACTVP
 70
    16
  9
$PLIMCHECK
 70
     0
  9
$PEXTMIN
 10
1.0000000000000000E+020
 20
1.0000000000000000E+020
 30
1.0000000000000000E+020
  9
$PEXTMAX
 10
-1.0000000000000000E+020
 20
-1.0000000000000000E+020
 30
-1.0000000000000000E+020
  9
$PLIMMIN
 10
0.0
 20
0.0
  9
$PLIMMAX
 10
12.0
 20
9.0
  9
$UNITMODE
 70
     0
  9
$VISRETAIN
 70
     0
  9
$PLINEGEN
 70
     0
  9
$PSLTSCALE
 70
     0
  0
ENDSEC
  0
SECTION
  2
TABLES
  0
TABLE
  2
VPORT
 70
     1
  0
VPORT
  2
*ACTIVE
 70
     0
 10
0.0
 20
0.0
 11
1.0
 21
1.0
 12
132.35294117647061
 22
50.0
 13
0.0
 23
0.0
 14
10.0
 24
10.0
 15
10.0
 25
10.0
 16
0.0
 26
0.0
 36
1.0
 17
0.0
 27
0.0
 37
0.0
 40
100.0
 41
2.6470588235294108
 42
50.0
 43
0.0
 44
0.0
 50
0.0
 51
0.0
 71
     0
 72
   500
 73
     1
 74
     0
 75
     0
 76
     0
 77
     0
 78
     2
  0
ENDTAB
  0
TABLE
  2
LTYPE
 70
     4
  0
LTYPE
  2
CONTINUOUS
 70
     0
  3
Solid Line
 72
    65
 73
     0
 40
0.0
  0
LTYPE
  2
CENTER
 70
     0
  3
____ _ ____ _ ____ _ ____ _ ____ _ ____ _ ____
 72
    65
 73
     4
 40
2.0
 49
1.25
 49
-0.25
 49
0.25
 49
-0.25
  0
LTYPE
  2
HIDDEN
 70
     0
  3
_ _ _ _ _ _ _ _ _ _ _ _ _ _ _ _ _ _ _ _ _ _ _
 72
    65
 73
     2
 40
0.375
 49
0.25
 49
-0.125
  0
LTYPE
  2
PHANTOM2
 70
     0
  3
___ _ _ ___ _ _ ___ _ _ ___ _ _
 72
    65
 73
     6
 40
1.25
 49
0.625
 49
-0.125
 49
0.125
 49
-0.125
 49
0.125
 49
-0.125
  0
ENDTAB
  0
TABLE
  2
LAYER
 70
     6
  0
LAYER
  2
0
 70
     0
 62
     7
  6
CONTINUOUS
  0
LAYER
  2
1
 70
     0
 62
     1
  6
CENTER
  0
LAYER
  2
2
 70
     0
 62
     2
  6
HIDDEN
  0
LAYER
  2
DEFPOINTS
 70
     0
 62
     7
  6
CONTINUOUS
  0
LAYER
  2
4
 70
     0
 62
     4
  6
CONTINUOUS
  0
LAYER
  2
3
 70
     0
 62
     3
  6
CONTINUOUS
  0
ENDTAB
  0
TABLE
  2
STYLE
 70
     2
  0
STYLE
  2
STANDARD
 70
     0
 40
0.0
 41
1.0
 50
0.0
 71
     0
 42
0.2
  3
TXT
  4
BIGFONT
  0
STYLE
  2
STANDARD1
 70
     0
 40
0.0
 41
1.0
 50
0.0
 71
     0
 42
3.0
  3
txt
  4

  0
ENDTAB
  0
TABLE
  2
VIEW
 70
     1
  0
VIEW
  2
ALL
 70
     0
 40
270.0
 10
220.99159663865549
 20
135.0
 41
0.0
 11
0.0
 21
0.0
 31
1.0
 12
0.0
 22
0.0
 32
0.0
 42
0.0
 43
0.0
 44
0.0
 50
0.0
 71
     0
  0
ENDTAB
  0
TABLE
  2
UCS
 70
     0
  0
ENDTAB
  0
TABLE
  2
APPID
 70
     9
  0
APPID
  2
ACAD
 70
     0
  0
APPID
  2
ACAD_MLEADERVER
 70
     0
  0
APPID
  2
ACAD_NAV_VCDISPLAY
 70
     0
  0
APPID
  2
ACAD_EXEMPT_FROM_CAD_STANDARDS
 70
     0
  0
APPID
  2
ACAD_DSTYLE_DIMJAG
 70
     0
  0
APPID
  2
ACAD_DSTYLE_DIMTALN
 70
     0
  0
APPID
  2
ACAECLAYERSTANDARD
 70
     0
  0
APPID
  2
ACCMTRANSPARENCY
 70
     0
  0
APPID
  2
DCO15
 70
     0
  0
ENDTAB
  0
TABLE
  2
DIMSTYLE
 70
     1
  0
DIMSTYLE
  2
STANDARD
 70
     0
  3

  4

  5

  6

  7

 40
1.0
 41
0.18
 42
0.0625
 43
0.38
 44
0.18
 45
0.0
 46
0.0
 47
0.0
 48
0.0
140
0.18
141
0.09
142
0.0
143
25.399999999999999
144
1.0
145
0.0
146
1.0
147
0.09
 71
     0
 72
     0
 73
     1
 74
     1
 75
     0
 76
     0
 77
     0
 78
     0
170
     0
171
     2
172
     0
173
     0
174
     0
175
     0
176
     0
177
     0
178
     0
  0
ENDTAB
  0
ENDSEC
  0
SECTION
  2
BLOCKS
  0
BLOCK
  8
0
  2
$MODEL_SPACE
 70
     0
 10
0.0
 20
0.0
 30
0.0
  3
$MODEL_SPACE
  1

  0
ENDBLK
  5
10E
  8
0
  0
BLOCK
 67
     1
  8
0
  2
$PAPER_SPACE
 70
     0
 10
0.0
 20
0.0
 30
0.0
  3
$PAPER_SPACE
  1

  0
ENDBLK
  5
10C
 67
     1
  8
0
  0
ENDSEC
  0
SECTION
  2
ENTITIES
  0
TEXT
  5
4DC
  8
0
 62
     3
 10
0.0
 20
0.0
 30
0.0
 40
5.0
  1
HD-CNC05
  7
STANDARD1
  0
LINE
  5
139F
  8
2
 10
57.0
 20
27.93300000000001
 30
0.0
 11
61.567
 21
27.93300000000001
 31
0.0
  0
LINE
  5
13A0
  8
2
 10
61.567
 20
32.067
 30
0.0
 11
57.0
 21
32.067
 31
0.0
  0
LINE
  5
13A1
  8
2
 10
55.806616993585067
 20
30.0
 30
0.0
 11
57.0
 21
27.93300000000001
 31
0.0
  0
LINE
  5
13A2
  8
2
 10
57.0
 20
32.067
 30
0.0
 11
55.806616993585067
 21
30.0
 31
0.0
  0
LINE
  5
13A3
  8
2
 10
57.0
 20
32.067
 30
0.0
 11
57.0
 21
27.93300000000001
 31
0.0
  0
LINE
  5
13A4
  8
2
 10
61.567
 20
27.93300000000001
 30
0.0
 11
62.0
 21
27.5
 31
0.0
  0
LINE
  5
13A5
  8
2
 10
62.0
 20
32.5
 30
0.0
 11
61.567
 21
32.067
 31
0.0
  0
LINE
  5
13A6
  8
2
 10
61.567
 20
32.067
 30
0.0
 11
61.567
 21
27.93300000000001
 31
0.0
  0
POLYLINE
  5
13A7
  8
0
 66
     1
 10
0.0
 20
0.0
 30
0.0
  0
VERTEX
  5
1565
  8
0
 10
60.771489741538851
 20
25.919872981077798
 30
0.0
  0
VERTEX
  5
1566
  8
0
 10
60.781361420065252
 20
25.91332281729764
 30
0.0
  0
VERTEX
  5
1567
  8
0
 10
60.827833399503852
 20
25.87760880510082
 30
0.0
  0
VERTEX
  5
1568
  8
0
 10
60.866191788081601
 20
25.84052967321557
 30
0.0
  0
VERTEX
  5
1569
  8
0
 10
60.897560718060127
 20
25.803225123391059
 30
0.0
  0
VERTEX
  5
156A
  8
0
 10
60.934302823755388
 20
25.748189042926949
 30
0.0
  0
VERTEX
  5
156B
  8
0
 10
60.960825781746081
 20
25.694900382460212
 30
0.0
  0
VERTEX
  5
156C
  8
0
 10
60.978986753752963
 20
25.64403742836495
 30
0.0
  0
VERTEX
  5
156D
  8
0
 10
60.990642901496777
 20
25.596278467015338
 30
0.0
  0
VERTEX
  5
156E
  8
0
 10
60.997891657705424
 20
25.54598130399879
 30
0.0
  0
VERTEX
  5
156F
  8
0
 10
61.0
 20
25.5
 30
0.0
  0
SEQEND
  5
1570
  8
0
  0
POLYLINE
  5
13A8
  8
0
 66
     1
 10
0.0
 20
0.0
 30
0.0
  0
VERTEX
  5
1571
  8
0
 10
61.0
 20
34.5
 30
0.0
  0
VERTEX
  5
1572
  8
0
 10
60.997547447491122
 20
34.45039303475059
 30
0.0
  0
VERTEX
  5
1573
  8
0
 10
60.989024807635552
 20
34.395813928392421
 30
0.0
  0
VERTEX
  5
1574
  8
0
 10
60.972239024712962
 20
34.335595201972993
 30
0.0
  0
VERTEX
  5
1575
  8
0
 10
60.94450260057701
 20
34.271051451015303
 30
0.0
  0
VERTEX
  5
1576
  8
0
 10
60.917535798047872
 20
34.224929359348323
 30
0.0
  0
VERTEX
  5
1577
  8
0
 10
60.882067223115818
 20
34.177471494251201
 30
0.0
  0
VERTEX
  5
1578
  8
0
 10
60.834446163301322
 20
34.128320347808732
 30
0.0
  0
VERTEX
  5
1579
  8
0
 10
60.805003651327041
 20
34.103797426712667
 30
0.0
  0
VERTEX
  5
157A
  8
0
 10
60.77148974154008
 20
34.080127018922298
 30
0.0
  0
SEQEND
  5
157B
  8
0
  0
LINE
  5
13A9
  8
0
 10
60.5
 20
26.0
 30
0.0
 11
55.50806661517035
 21
26.0
 31
0.0
  0
LINE
  5
13AA
  8
0
 10
60.771489741538851
 20
30.0
 30
0.0
 11
55.68116627589859
 21
30.0
 31
0.0
  0
LINE
  5
13AB
  8
0
 10
55.50806661517035
 20
34.0
 30
0.0
 11
60.5
 21
34.0
 31
0.0
  0
POLYLINE
  5
13AC
  8
0
 10
55.681166275898605
 20
30.000000000000014
 30
0.0
 66
     1
 70
     8
  0
VERTEX
  8
0
  5
1625
 10
55.6812
 20
30.0000
 30
0.000000
  70
    32
  0
VERTEX
  8
0
  5
1626
 10
55.6758
 20
29.9690
 30
0.000000
  70
    32
  0
VERTEX
  8
0
  5
1627
 10
55.6705
 20
29.9379
 30
0.000000
  70
    32
  0
VERTEX
  8
0
  5
1628
 10
55.6653
 20
29.9069
 30
0.000000
  70
    32
  0
VERTEX
  8
0
  5
1629
 10
55.6602
 20
29.8758
 30
0.000000
  70
    32
  0
VERTEX
  8
0
  5
162A
 10
55.6552
 20
29.8448
 30
0.000000
  70
    32
  0
VERTEX
  8
0
  5
162B
 10
55.6503
 20
29.8137
 30
0.000000
  70
    32
  0
VERTEX
  8
0
  5
162C
 10
55.6454
 20
29.7826
 30
0.000000
  70
    32
  0
VERTEX
  8
0
  5
162D
 10
55.6407
 20
29.7515
 30
0.000000
  70
    32
  0
VERTEX
  8
0
  5
162E
 10
55.6360
 20
29.7204
 30
0.000000
  70
    32
  0
VERTEX
  8
0
  5
162F
 10
55.6314
 20
29.6893
 30
0.000000
  70
    32
  0
VERTEX
  8
0
  5
1630
 10
55.6268
 20
29.6582
 30
0.000000
  70
    32
  0
VERTEX
  8
0
  5
1631
 10
55.6224
 20
29.6271
 30
0.000000
  70
    32
  0
VERTEX
  8
0
  5
1632
 10
55.6181
 20
29.5959
 30
0.000000
  70
    32
  0
VERTEX
  8
0
  5
1633
 10
55.6138
 20
29.5648
 30
0.000000
  70
    32
  0
VERTEX
  8
0
  5
1634
 10
55.6096
 20
29.5336
 30
0.000000
  70
    32
  0
VERTEX
  8
0
  5
1635
 10
55.6055
 20
29.5025
 30
0.000000
  70
    32
  0
VERTEX
  8
0
  5
1636
 10
55.6015
 20
29.4713
 30
0.000000
  70
    32
  0
VERTEX
  8
0
  5
1637
 10
55.5976
 20
29.4401
 30
0.000000
  70
    32
  0
VERTEX
  8
0
  5
1638
 10
55.5937
 20
29.4089
 30
0.000000
  70
    32
  0
VERTEX
  8
0
  5
1639
 10
55.5900
 20
29.3777
 30
0.000000
  70
    32
  0
VERTEX
  8
0
  5
163A
 10
55.5863
 20
29.3465
 30
0.000000
  70
    32
  0
VERTEX
  8
0
  5
163B
 10
55.5827
 20
29.3153
 30
0.000000
  70
    32
  0
VERTEX
  8
0
  5
163C
 10
55.5792
 20
29.2841
 30
0.000000
  70
    32
  0
VERTEX
  8
0
  5
163D
 10
55.5758
 20
29.2528
 30
0.000000
  70
    32
  0
VERTEX
  8
0
  5
163E
 10
55.5724
 20
29.2216
 30
0.000000
  70
    32
  0
VERTEX
  8
0
  5
163F
 10
55.5692
 20
29.1904
 30
0.000000
  70
    32
  0
VERTEX
  8
0
  5
1640
 10
55.5660
 20
29.1591
 30
0.000000
  70
    32
  0
VERTEX
  8
0
  5
1641
 10
55.5629
 20
29.1279
 30
0.000000
  70
    32
  0
VERTEX
  8
0
  5
1642
 10
55.5599
 20
29.0966
 30
0.000000
  70
    32
  0
VERTEX
  8
0
  5
1643
 10
55.5570
 20
29.0654
 30
0.000000
  70
    32
  0
VERTEX
  8
0
  5
1644
 10
55.5542
 20
29.0341
 30
0.000000
  70
    32
  0
VERTEX
  8
0
  5
1645
 10
55.5514
 20
29.0028
 30
0.000000
  70
    32
  0
VERTEX
  8
0
  5
1646
 10
55.5487
 20
28.9715
 30
0.000000
  70
    32
  0
VERTEX
  8
0
  5
1647
 10
55.5462
 20
28.9402
 30
0.000000
  70
    32
  0
VERTEX
  8
0
  5
1648
 10
55.5437
 20
28.9089
 30
0.000000
  70
    32
  0
VERTEX
  8
0
  5
1649
 10
55.5412
 20
28.8776
 30
0.000000
  70
    32
  0
VERTEX
  8
0
  5
164A
 10
55.5389
 20
28.8463
 30
0.000000
  70
    32
  0
VERTEX
  8
0
  5
164B
 10
55.5367
 20
28.8150
 30
0.000000
  70
    32
  0
VERTEX
  8
0
  5
164C
 10
55.5345
 20
28.7837
 30
0.000000
  70
    32
  0
VERTEX
  8
0
  5
164D
 10
55.5324
 20
28.7524
 30
0.000000
  70
    32
  0
VERTEX
  8
0
  5
164E
 10
55.5305
 20
28.7211
 30
0.000000
  70
    32
  0
VERTEX
  8
0
  5
164F
 10
55.5286
 20
28.6898
 30
0.000000
  70
    32
  0
VERTEX
  8
0
  5
1650
 10
55.5267
 20
28.6584
 30
0.000000
  70
    32
  0
VERTEX
  8
0
  5
1651
 10
55.5250
 20
28.6271
 30
0.000000
  70
    32
  0
VERTEX
  8
0
  5
1652
 10
55.5233
 20
28.5958
 30
0.000000
  70
    32
  0
VERTEX
  8
0
  5
1653
 10
55.5218
 20
28.5644
 30
0.000000
  70
    32
  0
VERTEX
  8
0
  5
1654
 10
55.5203
 20
28.5331
 30
0.000000
  70
    32
  0
VERTEX
  8
0
  5
1655
 10
55.5189
 20
28.5018
 30
0.000000
  70
    32
  0
VERTEX
  8
0
  5
1656
 10
55.5176
 20
28.4704
 30
0.000000
  70
    32
  0
VERTEX
  8
0
  5
1657
 10
55.5164
 20
28.4391
 30
0.000000
  70
    32
  0
VERTEX
  8
0
  5
1658
 10
55.5152
 20
28.4077
 30
0.000000
  70
    32
  0
VERTEX
  8
0
  5
1659
 10
55.5142
 20
28.3764
 30
0.000000
  70
    32
  0
VERTEX
  8
0
  5
165A
 10
55.5132
 20
28.3450
 30
0.000000
  70
    32
  0
VERTEX
  8
0
  5
165B
 10
55.5123
 20
28.3136
 30
0.000000
  70
    32
  0
VERTEX
  8
0
  5
165C
 10
55.5115
 20
28.2823
 30
0.000000
  70
    32
  0
VERTEX
  8
0
  5
165D
 10
55.5108
 20
28.2509
 30
0.000000
  70
    32
  0
VERTEX
  8
0
  5
165E
 10
55.5101
 20
28.2196
 30
0.000000
  70
    32
  0
VERTEX
  8
0
  5
165F
 10
55.5096
 20
28.1882
 30
0.000000
  70
    32
  0
VERTEX
  8
0
  5
1660
 10
55.5091
 20
28.1568
 30
0.000000
  70
    32
  0
VERTEX
  8
0
  5
1661
 10
55.5087
 20
28.1255
 30
0.000000
  70
    32
  0
VERTEX
  8
0
  5
1662
 10
55.5084
 20
28.0941
 30
0.000000
  70
    32
  0
VERTEX
  8
0
  5
1663
 10
55.5082
 20
28.0627
 30
0.000000
  70
    32
  0
VERTEX
  8
0
  5
1664
 10
55.5081
 20
28.0314
 30
0.000000
  70
    32
  0
VERTEX
  8
0
  5
1665
 10
55.5081
 20
28.0000
 30
0.000000
  70
    32
  0
VERTEX
  8
0
  5
1666
 10
55.5081
 20
27.9686
 30
0.000000
  70
    32
  0
VERTEX
  8
0
  5
1667
 10
55.5082
 20
27.9373
 30
0.000000
  70
    32
  0
VERTEX
  8
0
  5
1668
 10
55.5084
 20
27.9059
 30
0.000000
  70
    32
  0
VERTEX
  8
0
  5
1669
 10
55.5087
 20
27.8745
 30
0.000000
  70
    32
  0
VERTEX
  8
0
  5
166A
 10
55.5091
 20
27.8432
 30
0.000000
  70
    32
  0
VERTEX
  8
0
  5
166B
 10
55.5096
 20
27.8118
 30
0.000000
  70
    32
  0
VERTEX
  8
0
  5
166C
 10
55.5101
 20
27.7804
 30
0.000000
  70
    32
  0
VERTEX
  8
0
  5
166D
 10
55.5108
 20
27.7491
 30
0.000000
  70
    32
  0
VERTEX
  8
0
  5
166E
 10
55.5115
 20
27.7177
 30
0.000000
  70
    32
  0
VERTEX
  8
0
  5
166F
 10
55.5123
 20
27.6864
 30
0.000000
  70
    32
  0
VERTEX
  8
0
  5
1670
 10
55.5132
 20
27.6550
 30
0.000000
  70
    32
  0
VERTEX
  8
0
  5
1671
 10
55.5142
 20
27.6236
 30
0.000000
  70
    32
  0
VERTEX
  8
0
  5
1672
 10
55.5152
 20
27.5923
 30
0.000000
  70
    32
  0
VERTEX
  8
0
  5
1673
 10
55.5164
 20
27.5609
 30
0.000000
  70
    32
  0
VERTEX
  8
0
  5
1674
 10
55.5176
 20
27.5296
 30
0.000000
  70
    32
  0
VERTEX
  8
0
  5
1675
 10
55.5189
 20
27.4982
 30
0.000000
  70
    32
  0
VERTEX
  8
0
  5
1676
 10
55.5203
 20
27.4669
 30
0.000000
  70
    32
  0
VERTEX
  8
0
  5
1677
 10
55.5218
 20
27.4356
 30
0.000000
  70
    32
  0
VERTEX
  8
0
  5
1678
 10
55.5233
 20
27.4042
 30
0.000000
  70
    32
  0
VERTEX
  8
0
  5
1679
 10
55.5250
 20
27.3729
 30
0.000000
  70
    32
  0
VERTEX
  8
0
  5
167A
 10
55.5267
 20
27.3416
 30
0.000000
  70
    32
  0
VERTEX
  8
0
  5
167B
 10
55.5286
 20
27.3102
 30
0.000000
  70
    32
  0
VERTEX
  8
0
  5
167C
 10
55.5305
 20
27.2789
 30
0.000000
  70
    32
  0
VERTEX
  8
0
  5
167D
 10
55.5324
 20
27.2476
 30
0.000000
  70
    32
  0
VERTEX
  8
0
  5
167E
 10
55.5345
 20
27.2163
 30
0.000000
  70
    32
  0
VERTEX
  8
0
  5
167F
 10
55.5367
 20
27.1850
 30
0.000000
  70
    32
  0
VERTEX
  8
0
  5
1680
 10
55.5389
 20
27.1537
 30
0.000000
  70
    32
  0
VERTEX
  8
0
  5
1681
 10
55.5412
 20
27.1224
 30
0.000000
  70
    32
  0
VERTEX
  8
0
  5
1682
 10
55.5437
 20
27.0911
 30
0.000000
  70
    32
  0
VERTEX
  8
0
  5
1683
 10
55.5462
 20
27.0598
 30
0.000000
  70
    32
  0
VERTEX
  8
0
  5
1684
 10
55.5487
 20
27.0285
 30
0.000000
  70
    32
  0
VERTEX
  8
0
  5
1685
 10
55.5514
 20
26.9972
 30
0.000000
  70
    32
  0
VERTEX
  8
0
  5
1686
 10
55.5542
 20
26.9659
 30
0.000000
  70
    32
  0
VERTEX
  8
0
  5
1687
 10
55.5570
 20
26.9346
 30
0.000000
  70
    32
  0
VERTEX
  8
0
  5
1688
 10
55.5599
 20
26.9034
 30
0.000000
  70
    32
  0
VERTEX
  8
0
  5
1689
 10
55.5629
 20
26.8721
 30
0.000000
  70
    32
  0
VERTEX
  8
0
  5
168A
 10
55.5660
 20
26.8409
 30
0.000000
  70
    32
  0
VERTEX
  8
0
  5
168B
 10
55.5692
 20
26.8096
 30
0.000000
  70
    32
  0
VERTEX
  8
0
  5
168C
 10
55.5724
 20
26.7784
 30
0.000000
  70
    32
  0
VERTEX
  8
0
  5
168D
 10
55.5758
 20
26.7472
 30
0.000000
  70
    32
  0
VERTEX
  8
0
  5
168E
 10
55.5792
 20
26.7159
 30
0.000000
  70
    32
  0
VERTEX
  8
0
  5
168F
 10
55.5827
 20
26.6847
 30
0.000000
  70
    32
  0
VERTEX
  8
0
  5
1690
 10
55.5863
 20
26.6535
 30
0.000000
  70
    32
  0
VERTEX
  8
0
  5
1691
 10
55.5900
 20
26.6223
 30
0.000000
  70
    32
  0
VERTEX
  8
0
  5
1692
 10
55.5937
 20
26.5911
 30
0.000000
  70
    32
  0
VERTEX
  8
0
  5
1693
 10
55.5976
 20
26.5599
 30
0.000000
  70
    32
  0
VERTEX
  8
0
  5
1694
 10
55.6015
 20
26.5287
 30
0.000000
  70
    32
  0
VERTEX
  8
0
  5
1695
 10
55.6055
 20
26.4975
 30
0.000000
  70
    32
  0
VERTEX
  8
0
  5
1696
 10
55.6096
 20
26.4664
 30
0.000000
  70
    32
  0
VERTEX
  8
0
  5
1697
 10
55.6138
 20
26.4352
 30
0.000000
  70
    32
  0
VERTEX
  8
0
  5
1698
 10
55.6181
 20
26.4041
 30
0.000000
  70
    32
  0
VERTEX
  8
0
  5
1699
 10
55.6224
 20
26.3729
 30
0.000000
  70
    32
  0
VERTEX
  8
0
  5
169A
 10
55.6268
 20
26.3418
 30
0.000000
  70
    32
  0
VERTEX
  8
0
  5
169B
 10
55.6314
 20
26.3107
 30
0.000000
  70
    32
  0
VERTEX
  8
0
  5
169C
 10
55.6360
 20
26.2796
 30
0.000000
  70
    32
  0
VERTEX
  8
0
  5
169D
 10
55.6407
 20
26.2485
 30
0.000000
  70
    32
  0
VERTEX
  8
0
  5
169E
 10
55.6454
 20
26.2174
 30
0.000000
  70
    32
  0
VERTEX
  8
0
  5
169F
 10
55.6503
 20
26.1863
 30
0.000000
  70
    32
  0
VERTEX
  8
0
  5
16A0
 10
55.6552
 20
26.1552
 30
0.000000
  70
    32
  0
VERTEX
  8
0
  5
16A1
 10
55.6602
 20
26.1242
 30
0.000000
  70
    32
  0
VERTEX
  8
0
  5
16A2
 10
55.6653
 20
26.0931
 30
0.000000
  70
    32
  0
VERTEX
  8
0
  5
16A3
 10
55.6705
 20
26.0621
 30
0.000000
  70
    32
  0
VERTEX
  8
0
  5
16A4
 10
55.6758
 20
26.0310
 30
0.000000
  70
    32
  0
VERTEX
  8
0
  5
16A5
 10
55.6812
 20
26.0000
 30
0.000000
  70
    32
  0
SEQEND
  8
0
  5
16A6
  0
POLYLINE
  5
13AD
  8
0
 10
55.681166275898605
 20
34.000000000000014
 30
0.0
 66
     1
 70
     8
  0
VERTEX
  8
0
  5
16A7
 10
55.6812
 20
34.0000
 30
0.000000
  70
    32
  0
VERTEX
  8
0
  5
16A8
 10
55.6758
 20
33.9690
 30
0.000000
  70
    32
  0
VERTEX
  8
0
  5
16A9
 10
55.6705
 20
33.9379
 30
0.000000
  70
    32
  0
VERTEX
  8
0
  5
16AA
 10
55.6653
 20
33.9069
 30
0.000000
  70
    32
  0
VERTEX
  8
0
  5
16AB
 10
55.6602
 20
33.8758
 30
0.000000
  70
    32
  0
VERTEX
  8
0
  5
16AC
 10
55.6552
 20
33.8448
 30
0.000000
  70
    32
  0
VERTEX
  8
0
  5
16AD
 10
55.6503
 20
33.8137
 30
0.000000
  70
    32
  0
VERTEX
  8
0
  5
16AE
 10
55.6454
 20
33.7826
 30
0.000000
  70
    32
  0
VERTEX
  8
0
  5
16AF
 10
55.6407
 20
33.7515
 30
0.000000
  70
    32
  0
VERTEX
  8
0
  5
16B0
 10
55.6360
 20
33.7204
 30
0.000000
  70
    32
  0
VERTEX
  8
0
  5
16B1
 10
55.6314
 20
33.6893
 30
0.000000
  70
    32
  0
VERTEX
  8
0
  5
16B2
 10
55.6268
 20
33.6582
 30
0.000000
  70
    32
  0
VERTEX
  8
0
  5
16B3
 10
55.6224
 20
33.6271
 30
0.000000
  70
    32
  0
VERTEX
  8
0
  5
16B4
 10
55.6181
 20
33.5959
 30
0.000000
  70
    32
  0
VERTEX
  8
0
  5
16B5
 10
55.6138
 20
33.5648
 30
0.000000
  70
    32
  0
VERTEX
  8
0
  5
16B6
 10
55.6096
 20
33.5336
 30
0.000000
  70
    32
  0
VERTEX
  8
0
  5
16B7
 10
55.6055
 20
33.5025
 30
0.000000
  70
    32
  0
VERTEX
  8
0
  5
16B8
 10
55.6015
 20
33.4713
 30
0.000000
  70
    32
  0
VERTEX
  8
0
  5
16B9
 10
55.5976
 20
33.4401
 30
0.000000
  70
    32
  0
VERTEX
  8
0
  5
16BA
 10
55.5937
 20
33.4089
 30
0.000000
  70
    32
  0
VERTEX
  8
0
  5
16BB
 10
55.5900
 20
33.3777
 30
0.000000
  70
    32
  0
VERTEX
  8
0
  5
16BC
 10
55.5863
 20
33.3465
 30
0.000000
  70
    32
  0
VERTEX
  8
0
  5
16BD
 10
55.5827
 20
33.3153
 30
0.000000
  70
    32
  0
VERTEX
  8
0
  5
16BE
 10
55.5792
 20
33.2841
 30
0.000000
  70
    32
  0
VERTEX
  8
0
  5
16BF
 10
55.5758
 20
33.2528
 30
0.000000
  70
    32
  0
VERTEX
  8
0
  5
16C0
 10
55.5724
 20
33.2216
 30
0.000000
  70
    32
  0
VERTEX
  8
0
  5
16C1
 10
55.5692
 20
33.1904
 30
0.000000
  70
    32
  0
VERTEX
  8
0
  5
16C2
 10
55.5660
 20
33.1591
 30
0.000000
  70
    32
  0
VERTEX
  8
0
  5
16C3
 10
55.5629
 20
33.1279
 30
0.000000
  70
    32
  0
VERTEX
  8
0
  5
16C4
 10
55.5599
 20
33.0966
 30
0.000000
  70
    32
  0
VERTEX
  8
0
  5
16C5
 10
55.5570
 20
33.0654
 30
0.000000
  70
    32
  0
VERTEX
  8
0
  5
16C6
 10
55.5542
 20
33.0341
 30
0.000000
  70
    32
  0
VERTEX
  8
0
  5
16C7
 10
55.5514
 20
33.0028
 30
0.000000
  70
    32
  0
VERTEX
  8
0
  5
16C8
 10
55.5487
 20
32.9715
 30
0.000000
  70
    32
  0
VERTEX
  8
0
  5
16C9
 10
55.5462
 20
32.9402
 30
0.000000
  70
    32
  0
VERTEX
  8
0
  5
16CA
 10
55.5437
 20
32.9089
 30
0.000000
  70
    32
  0
VERTEX
  8
0
  5
16CB
 10
55.5412
 20
32.8776
 30
0.000000
  70
    32
  0
VERTEX
  8
0
  5
16CC
 10
55.5389
 20
32.8463
 30
0.000000
  70
    32
  0
VERTEX
  8
0
  5
16CD
 10
55.5367
 20
32.8150
 30
0.000000
  70
    32
  0
VERTEX
  8
0
  5
16CE
 10
55.5345
 20
32.7837
 30
0.000000
  70
    32
  0
VERTEX
  8
0
  5
16CF
 10
55.5324
 20
32.7524
 30
0.000000
  70
    32
  0
VERTEX
  8
0
  5
16D0
 10
55.5305
 20
32.7211
 30
0.000000
  70
    32
  0
VERTEX
  8
0
  5
16D1
 10
55.5286
 20
32.6898
 30
0.000000
  70
    32
  0
VERTEX
  8
0
  5
16D2
 10
55.5267
 20
32.6584
 30
0.000000
  70
    32
  0
VERTEX
  8
0
  5
16D3
 10
55.5250
 20
32.6271
 30
0.000000
  70
    32
  0
VERTEX
  8
0
  5
16D4
 10
55.5233
 20
32.5958
 30
0.000000
  70
    32
  0
VERTEX
  8
0
  5
16D5
 10
55.5218
 20
32.5644
 30
0.000000
  70
    32
  0
VERTEX
  8
0
  5
16D6
 10
55.5203
 20
32.5331
 30
0.000000
  70
    32
  0
VERTEX
  8
0
  5
16D7
 10
55.5189
 20
32.5018
 30
0.000000
  70
    32
  0
VERTEX
  8
0
  5
16D8
 10
55.5176
 20
32.4704
 30
0.000000
  70
    32
  0
VERTEX
  8
0
  5
16D9
 10
55.5164
 20
32.4391
 30
0.000000
  70
    32
  0
VERTEX
  8
0
  5
16DA
 10
55.5152
 20
32.4077
 30
0.000000
  70
    32
  0
VERTEX
  8
0
  5
16DB
 10
55.5142
 20
32.3764
 30
0.000000
  70
    32
  0
VERTEX
  8
0
  5
16DC
 10
55.5132
 20
32.3450
 30
0.000000
  70
    32
  0
VERTEX
  8
0
  5
16DD
 10
55.5123
 20
32.3136
 30
0.000000
  70
    32
  0
VERTEX
  8
0
  5
16DE
 10
55.5115
 20
32.2823
 30
0.000000
  70
    32
  0
VERTEX
  8
0
  5
16DF
 10
55.5108
 20
32.2509
 30
0.000000
  70
    32
  0
VERTEX
  8
0
  5
16E0
 10
55.5101
 20
32.2196
 30
0.000000
  70
    32
  0
VERTEX
  8
0
  5
16E1
 10
55.5096
 20
32.1882
 30
0.000000
  70
    32
  0
VERTEX
  8
0
  5
16E2
 10
55.5091
 20
32.1568
 30
0.000000
  70
    32
  0
VERTEX
  8
0
  5
16E3
 10
55.5087
 20
32.1255
 30
0.000000
  70
    32
  0
VERTEX
  8
0
  5
16E4
 10
55.5084
 20
32.0941
 30
0.000000
  70
    32
  0
VERTEX
  8
0
  5
16E5
 10
55.5082
 20
32.0627
 30
0.000000
  70
    32
  0
VERTEX
  8
0
  5
16E6
 10
55.5081
 20
32.0314
 30
0.000000
  70
    32
  0
VERTEX
  8
0
  5
16E7
 10
55.5081
 20
32.0000
 30
0.000000
  70
    32
  0
VERTEX
  8
0
  5
16E8
 10
55.5081
 20
31.9686
 30
0.000000
  70
    32
  0
VERTEX
  8
0
  5
16E9
 10
55.5082
 20
31.9373
 30
0.000000
  70
    32
  0
VERTEX
  8
0
  5
16EA
 10
55.5084
 20
31.9059
 30
0.000000
  70
    32
  0
VERTEX
  8
0
  5
16EB
 10
55.5087
 20
31.8745
 30
0.000000
  70
    32
  0
VERTEX
  8
0
  5
16EC
 10
55.5091
 20
31.8432
 30
0.000000
  70
    32
  0
VERTEX
  8
0
  5
16ED
 10
55.5096
 20
31.8118
 30
0.000000
  70
    32
  0
VERTEX
  8
0
  5
16EE
 10
55.5101
 20
31.7804
 30
0.000000
  70
    32
  0
VERTEX
  8
0
  5
16EF
 10
55.5108
 20
31.7491
 30
0.000000
  70
    32
  0
VERTEX
  8
0
  5
16F0
 10
55.5115
 20
31.7177
 30
0.000000
  70
    32
  0
VERTEX
  8
0
  5
16F1
 10
55.5123
 20
31.6864
 30
0.000000
  70
    32
  0
VERTEX
  8
0
  5
16F2
 10
55.5132
 20
31.6550
 30
0.000000
  70
    32
  0
VERTEX
  8
0
  5
16F3
 10
55.5142
 20
31.6236
 30
0.000000
  70
    32
  0
VERTEX
  8
0
  5
16F4
 10
55.5152
 20
31.5923
 30
0.000000
  70
    32
  0
VERTEX
  8
0
  5
16F5
 10
55.5164
 20
31.5609
 30
0.000000
  70
    32
  0
VERTEX
  8
0
  5
16F6
 10
55.5176
 20
31.5296
 30
0.000000
  70
    32
  0
VERTEX
  8
0
  5
16F7
 10
55.5189
 20
31.4982
 30
0.000000
  70
    32
  0
VERTEX
  8
0
  5
16F8
 10
55.5203
 20
31.4669
 30
0.000000
  70
    32
  0
VERTEX
  8
0
  5
16F9
 10
55.5218
 20
31.4356
 30
0.000000
  70
    32
  0
VERTEX
  8
0
  5
16FA
 10
55.5233
 20
31.4042
 30
0.000000
  70
    32
  0
VERTEX
  8
0
  5
16FB
 10
55.5250
 20
31.3729
 30
0.000000
  70
    32
  0
VERTEX
  8
0
  5
16FC
 10
55.5267
 20
31.3416
 30
0.000000
  70
    32
  0
VERTEX
  8
0
  5
16FD
 10
55.5286
 20
31.3102
 30
0.000000
  70
    32
  0
VERTEX
  8
0
  5
16FE
 10
55.5305
 20
31.2789
 30
0.000000
  70
    32
  0
VERTEX
  8
0
  5
16FF
 10
55.5324
 20
31.2476
 30
0.000000
  70
    32
  0
VERTEX
  8
0
  5
1700
 10
55.5345
 20
31.2163
 30
0.000000
  70
    32
  0
VERTEX
  8
0
  5
1701
 10
55.5367
 20
31.1850
 30
0.000000
  70
    32
  0
VERTEX
  8
0
  5
1702
 10
55.5389
 20
31.1537
 30
0.000000
  70
    32
  0
VERTEX
  8
0
  5
1703
 10
55.5412
 20
31.1224
 30
0.000000
  70
    32
  0
VERTEX
  8
0
  5
1704
 10
55.5437
 20
31.0911
 30
0.000000
  70
    32
  0
VERTEX
  8
0
  5
1705
 10
55.5462
 20
31.0598
 30
0.000000
  70
    32
  0
VERTEX
  8
0
  5
1706
 10
55.5487
 20
31.0285
 30
0.000000
  70
    32
  0
VERTEX
  8
0
  5
1707
 10
55.5514
 20
30.9972
 30
0.000000
  70
    32
  0
VERTEX
  8
0
  5
1708
 10
55.5542
 20
30.9659
 30
0.000000
  70
    32
  0
VERTEX
  8
0
  5
1709
 10
55.5570
 20
30.9346
 30
0.000000
  70
    32
  0
VERTEX
  8
0
  5
170A
 10
55.5599
 20
30.9034
 30
0.000000
  70
    32
  0
VERTEX
  8
0
  5
170B
 10
55.5629
 20
30.8721
 30
0.000000
  70
    32
  0
VERTEX
  8
0
  5
170C
 10
55.5660
 20
30.8409
 30
0.000000
  70
    32
  0
VERTEX
  8
0
  5
170D
 10
55.5692
 20
30.8096
 30
0.000000
  70
    32
  0
VERTEX
  8
0
  5
170E
 10
55.5724
 20
30.7784
 30
0.000000
  70
    32
  0
VERTEX
  8
0
  5
170F
 10
55.5758
 20
30.7472
 30
0.000000
  70
    32
  0
VERTEX
  8
0
  5
1710
 10
55.5792
 20
30.7159
 30
0.000000
  70
    32
  0
VERTEX
  8
0
  5
1711
 10
55.5827
 20
30.6847
 30
0.000000
  70
    32
  0
VERTEX
  8
0
  5
1712
 10
55.5863
 20
30.6535
 30
0.000000
  70
    32
  0
VERTEX
  8
0
  5
1713
 10
55.5900
 20
30.6223
 30
0.000000
  70
    32
  0
VERTEX
  8
0
  5
1714
 10
55.5937
 20
30.5911
 30
0.000000
  70
    32
  0
VERTEX
  8
0
  5
1715
 10
55.5976
 20
30.5599
 30
0.000000
  70
    32
  0
VERTEX
  8
0
  5
1716
 10
55.6015
 20
30.5287
 30
0.000000
  70
    32
  0
VERTEX
  8
0
  5
1717
 10
55.6055
 20
30.4975
 30
0.000000
  70
    32
  0
VERTEX
  8
0
  5
1718
 10
55.6096
 20
30.4664
 30
0.000000
  70
    32
  0
VERTEX
  8
0
  5
1719
 10
55.6138
 20
30.4352
 30
0.000000
  70
    32
  0
VERTEX
  8
0
  5
171A
 10
55.6181
 20
30.4041
 30
0.000000
  70
    32
  0
VERTEX
  8
0
  5
171B
 10
55.6224
 20
30.3729
 30
0.000000
  70
    32
  0
VERTEX
  8
0
  5
171C
 10
55.6268
 20
30.3418
 30
0.000000
  70
    32
  0
VERTEX
  8
0
  5
171D
 10
55.6314
 20
30.3107
 30
0.000000
  70
    32
  0
VERTEX
  8
0
  5
171E
 10
55.6360
 20
30.2796
 30
0.000000
  70
    32
  0
VERTEX
  8
0
  5
171F
 10
55.6407
 20
30.2485
 30
0.000000
  70
    32
  0
VERTEX
  8
0
  5
1720
 10
55.6454
 20
30.2174
 30
0.000000
  70
    32
  0
VERTEX
  8
0
  5
1721
 10
55.6503
 20
30.1863
 30
0.000000
  70
    32
  0
VERTEX
  8
0
  5
1722
 10
55.6552
 20
30.1552
 30
0.000000
  70
    32
  0
VERTEX
  8
0
  5
1723
 10
55.6602
 20
30.1242
 30
0.000000
  70
    32
  0
VERTEX
  8
0
  5
1724
 10
55.6653
 20
30.0931
 30
0.000000
  70
    32
  0
VERTEX
  8
0
  5
1725
 10
55.6705
 20
30.0621
 30
0.000000
  70
    32
  0
VERTEX
  8
0
  5
1726
 10
55.6758
 20
30.0310
 30
0.000000
  70
    32
  0
VERTEX
  8
0
  5
1727
 10
55.6812
 20
30.0000
 30
0.000000
  70
    32
  0
SEQEND
  8
0
  5
1728
  0
ARC
  5
13AE
  8
0
 10
70.999999999999915
 20
30.000000000000021
 30
0.0
 40
15.999999999999901
 50
165.52248781407019
 51
194.47751218592981
  0
POLYLINE
  5
13AF
  8
0
 66
     1
 10
0.0
 20
0.0
 30
0.0
  0
VERTEX
  5
157C
  8
0
 10
61.0
 20
26.54172168332833
 30
0.0
  0
VERTEX
  5
157D
  8
0
 10
60.997547447491122
 20
26.435805296996261
 30
0.0
  0
VERTEX
  5
157E
  8
0
 10
60.989024807635552
 20
26.334083696340201
 30
0.0
  0
VERTEX
  5
157F
  8
0
 10
60.972239024712962
 20
26.235540522341111
 30
0.0
  0
VERTEX
  5
1580
  8
0
 10
60.94450260057701
 20
26.14225880666493
 30
0.0
  0
VERTEX
  5
1581
  8
0
 10
60.917535798047872
 20
26.08201173368224
 30
0.0
  0
VERTEX
  5
1582
  8
0
 10
60.882067223115818
 20
26.024736907040818
 30
0.0
  0
VERTEX
  5
1583
  8
0
 10
60.83444616330123
 20
25.969837582978759
 30
0.0
  0
VERTEX
  5
1584
  8
0
 10
60.805003651326423
 20
25.94396529271836
 30
0.0
  0
VERTEX
  5
1585
  8
0
 10
60.771489741538851
 20
25.919872981077798
 30
0.0
  0
SEQEND
  5
1586
  8
0
  0
POLYLINE
  5
13B1
  8
0
 66
     1
 10
0.0
 20
0.0
 30
0.0
  0
VERTEX
  5
1587
  8
0
 10
60.771489741538851
 20
25.919872981077798
 30
0.0
  0
VERTEX
  5
1588
  8
0
 10
60.733862299581801
 20
25.94193712769388
 30
0.0
  0
VERTEX
  5
1589
  8
0
 10
60.694455024314998
 20
25.960637865919271
 30
0.0
  0
VERTEX
  5
158A
  8
0
 10
60.653567828898019
 20
25.975832871844251
 30
0.0
  0
VERTEX
  5
158B
  8
0
 10
60.611511889576349
 20
25.987406502298771
 30
0.0
  0
VERTEX
  5
158C
  8
0
 10
60.568607277442261
 20
25.99527067496669
 30
0.0
  0
VERTEX
  5
158D
  8
0
 10
60.525180522500619
 20
25.999365538745511
 30
0.0
  0
VERTEX
  5
158E
  8
0
 10
60.5
 20
26.0
 30
0.0
  0
SEQEND
  5
158F
  8
0
  0
POLYLINE
  5
13B2
  8
0
 66
     1
 10
0.0
 20
0.0
 30
0.0
  0
VERTEX
  5
1590
  8
0
 10
60.77148974154008
 20
34.080127018922298
 30
0.0
  0
VERTEX
  5
1591
  8
0
 10
60.781361420065252
 20
34.073545155675077
 30
0.0
  0
VERTEX
  5
1592
  8
0
 10
60.816654415728941
 20
34.04639036594434
 30
0.0
  0
VERTEX
  5
1593
  8
0
 10
60.847241374066563
 20
34.017226406196471
 30
0.0
  0
VERTEX
  5
1594
  8
0
 10
60.897560718060127
 20
33.952503660885171
 30
0.0
  0
VERTEX
  5
1595
  8
0
 10
60.9338496797684
 20
33.883997230844727
 30
0.0
  0
VERTEX
  5
1596
  8
0
 10
60.960054278809189
 20
33.811312282546062
 30
0.0
  0
VERTEX
  5
1597
  8
0
 10
60.978668189025022
 20
33.733325863947542
 30
0.0
  0
VERTEX
  5
1598
  8
0
 10
60.990642901496777
 20
33.6519862732966
 30
0.0
  0
VERTEX
  5
1599
  8
0
 10
60.997876561019837
 20
33.55704505416309
 30
0.0
  0
VERTEX
  5
159A
  8
0
 10
61.0
 20
33.458278316671667
 30
0.0
  0
SEQEND
  5
159B
  8
0
  0
POLYLINE
  5
13B3
  8
0
 66
     1
 10
0.0
 20
0.0
 30
0.0
  0
VERTEX
  5
159C
  8
0
 10
60.5
 20
34.0
 30
0.0
  0
VERTEX
  5
159D
  8
0
 10
60.543577871373827
 20
34.001902650954129
 30
0.0
  0
VERTEX
  5
159E
  8
0
 10
60.586824088833481
 20
34.007596123493897
 30
0.0
  0
VERTEX
  5
159F
  8
0
 10
60.629409522551271
 20
34.017037086855467
 30
0.0
  0
VERTEX
  5
15A0
  8
0
 10
60.671010071662828
 20
34.030153689607047
 30
0.0
  0
VERTEX
  5
15A1
  8
0
 10
60.711309130870347
 20
34.046846106481667
 30
0.0
  0
VERTEX
  5
15A2
  8
0
 10
60.75
 20
34.066987298107783
 30
0.0
  0
VERTEX
  5
15A3
  8
0
 10
60.771489741539028
 20
34.080127018922298
 30
0.0
  0
SEQEND
  5
15A4
  8
0
  0
POLYLINE
  5
13B4
  8
0
 66
     1
 10
0.0
 20
0.0
 30
0.0
  0
VERTEX
  5
15A5
  8
0
 10
60.771489741538851
 20
30.0
 30
0.0
  0
VERTEX
  5
15A6
  8
0
 10
60.781361420065252
 20
29.986867972972721
 30
0.0
  0
VERTEX
  5
15A7
  8
0
 10
60.827833399503852
 20
29.9140797420438
 30
0.0
  0
VERTEX
  5
15A8
  8
0
 10
60.866191788081601
 20
29.836353453333729
 30
0.0
  0
VERTEX
  5
15A9
  8
0
 10
60.897560718060127
 20
29.755728784276229
 30
0.0
  0
VERTEX
  5
15AA
  8
0
 10
60.934302823755388
 20
29.63155031203426
 30
0.0
  0
VERTEX
  5
15AB
  8
0
 10
60.960825781746081
 20
29.50466901426968
 30
0.0
  0
VERTEX
  5
15AC
  8
0
 10
60.978986753752963
 20
29.376451590517291
 30
0.0
  0
VERTEX
  5
15AD
  8
0
 10
60.990642901496777
 20
29.248264740311949
 30
0.0
  0
VERTEX
  5
15AE
  8
0
 10
60.997891657705424
 20
29.102918823344101
 30
0.0
  0
VERTEX
  5
15AF
  8
0
 10
61.0
 20
28.958278316671649
 30
0.0
  0
SEQEND
  5
15B0
  8
0
  0
POLYLINE
  5
13B5
  8
0
 66
     1
 10
0.0
 20
0.0
 30
0.0
  0
VERTEX
  5
15B1
  8
0
 10
61.0
 20
31.04172168332834
 30
0.0
  0
VERTEX
  5
15B2
  8
0
 10
60.997547447491122
 20
30.886198331746861
 30
0.0
  0
VERTEX
  5
15B3
  8
0
 10
60.989024807635552
 20
30.729897624732629
 30
0.0
  0
VERTEX
  5
15B4
  8
0
 10
60.972239024712962
 20
30.5711357243141
 30
0.0
  0
VERTEX
  5
15B5
  8
0
 10
60.944502600576982
 20
30.413310257680219
 30
0.0
  0
VERTEX
  5
15B6
  8
0
 10
60.917535798047872
 20
30.306941093030559
 30
0.0
  0
VERTEX
  5
15B7
  8
0
 10
60.882067223115818
 20
30.202208401292001
 30
0.0
  0
VERTEX
  5
15B8
  8
0
 10
60.834446163301209
 20
30.09815793078738
 30
0.0
  0
VERTEX
  5
15B9
  8
0
 10
60.805003651326423
 20
30.047762719430921
 30
0.0
  0
VERTEX
  5
15BA
  8
0
 10
60.771489741538851
 20
30.0
 30
0.0
  0
SEQEND
  5
15BB
  8
0
  0
LINE
  5
13B6
  8
0
 10
61.0
 20
34.711324865405189
 30
0.0
 11
61.0
 21
25.288675134594811
 31
0.0
  0
LINE
  5
13B7
  8
0
 10
61.0
 20
25.288675134594811
 30
0.0
 11
61.5
 21
25.0
 31
0.0
  0
LINE
  5
13B8
  8
0
 10
61.5
 20
35.0
 30
0.0
 11
61.0
 21
34.711324865405189
 31
0.0
  0
LINE
  5
13B9
  8
0
 10
61.5
 20
25.0
 30
0.0
 11
62.0
 21
25.0
 31
0.0
  0
LINE
  5
13BA
  8
0
 10
62.0
 20
35.0
 30
0.0
 11
61.5
 21
35.0
 31
0.0
  0
LINE
  5
13BB
  8
0
 10
62.0
 20
35.0
 30
0.0
 11
62.0
 21
25.0
 31
0.0
  0
LINE
  5
13BC
  8
0
 10
61.5
 20
35.0
 30
0.0
 11
61.5
 21
25.0
 31
0.0
  0
LINE
  5
13BD
  8
2
 10
62.0
 20
32.5
 30
0.0
 11
58.0
 21
32.5
 31
0.0
  0
LINE
  5
13BE
  8
2
 10
58.0
 20
27.5
 30
0.0
 11
58.0
 21
32.5
 31
0.0
  0
LINE
  5
13BF
  8
2
 10
62.0
 20
27.5
 30
0.0
 11
58.0
 21
27.5
 31
0.0
  0
CIRCLE
  5
13C9
  8
0
 10
30.0
 20
30.0
 30
0.0
 40
5.0
  0
LINE
  5
13D4
  8
0
 10
25.288675134594811
 20
30.0
 30
0.0
 11
25.381197846482991
 21
30.0
 31
0.0
  0
LINE
  5
13DA
  8
0
 10
27.690598923241499
 20
26.0
 30
0.0
 11
27.644337567297342
 21
25.919872981077699
 31
0.0
  0
LINE
  5
13DE
  8
0
 10
32.355662432702587
 20
25.919872981077798
 30
0.0
 11
32.309401076758512
 21
26.0
 31
0.0
  0
LINE
  5
13E2
  8
0
 10
34.711324865405189
 20
30.0
 30
0.0
 11
34.618802153517009
 21
30.0
 31
0.0
  0
LINE
  5
13E4
  8
0
 10
27.644337567297409
 20
34.080127018922198
 30
0.0
 11
27.690598923241499
 21
34.0
 31
0.0
  0
LINE
  5
13E5
  8
0
 10
32.309401076758512
 20
34.0
 30
0.0
 11
32.355662432702658
 21
34.080127018922298
 31
0.0
  0
LINE
  5
13E9
  8
0
 10
32.309401076758512
 20
26.0
 30
0.0
 11
34.618802153517009
 21
30.0
 31
0.0
  0
LINE
  5
13EA
  8
0
 10
34.618802153517009
 20
30.0
 30
0.0
 11
32.309401076758512
 21
34.0
 31
0.0
  0
LINE
  5
13EB
  8
0
 10
32.309401076758512
 20
34.0
 30
0.0
 11
27.690598923241499
 21
34.0
 31
0.0
  0
LINE
  5
13EC
  8
0
 10
27.690598923241499
 20
34.0
 30
0.0
 11
25.381197846482991
 21
30.0
 31
0.0
  0
LINE
  5
13ED
  8
0
 10
25.381197846482991
 20
30.0
 30
0.0
 11
27.690598923241499
 21
26.0
 31
0.0
  0
LINE
  5
13EE
  8
0
 10
27.690598923241499
 20
26.0
 30
0.0
 11
32.309401076758512
 21
26.0
 31
0.0
  0
LINE
  5
13F3
  8
0
 10
60.771489741538851
 20
55.288675134594818
 30
0.0
 11
61.000000000000028
 21
55.288675134594818
 31
0.0
  0
LINE
  5
13F4
  8
0
 10
61.000000000000028
 20
64.711324865405174
 30
0.0
 11
60.771489741538851
 21
64.711324865405174
 31
0.0
  0
LINE
  5
13F5
  8
2
 10
57.000000000000021
 20
57.932999999999993
 30
0.0
 11
61.567
 21
57.932999999999993
 31
0.0
  0
LINE
  5
13F6
  8
2
 10
61.567
 20
62.067000000000007
 30
0.0
 11
57.000000000000021
 21
62.067000000000007
 31
0.0
  0
LINE
  5
13F7
  8
2
 10
57.000000000000021
 20
62.067000000000007
 30
0.0
 11
57.000000000000021
 21
57.932999999999993
 31
0.0
  0
LINE
  5
13F8
  8
2
 10
55.806616993585067
 20
60.0
 30
0.0
 11
57.000000000000021
 21
57.932999999999993
 31
0.0
  0
LINE
  5
13F9
  8
2
 10
57.000000000000021
 20
62.067000000000007
 30
0.0
 11
55.806616993585067
 21
60.0
 31
0.0
  0
LINE
  5
13FA
  8
2
 10
61.567
 20
62.067000000000007
 30
0.0
 11
61.567
 21
57.932999999999993
 31
0.0
  0
LINE
  5
13FB
  8
2
 10
61.567
 20
57.932999999999993
 30
0.0
 11
62.000000000000021
 21
57.5
 31
0.0
  0
LINE
  5
13FC
  8
2
 10
62.000000000000021
 20
62.5
 30
0.0
 11
61.567
 21
62.067000000000007
 31
0.0
  0
LINE
  5
13FD
  8
0
 10
60.500000000000028
 20
64.618802153517009
 30
0.0
 11
55.68116627589859
 21
64.618802153517009
 31
0.0
  0
POLYLINE
  5
13FE
  8
0
 10
55.681166275898619
 20
64.618802153516995
 30
0.0
 66
     1
 70
     8
  0
VERTEX
  8
0
  5
1729
 10
55.6812
 20
64.6188
 30
0.000000
  70
    32
  0
VERTEX
  8
0
  5
172A
 10
55.6758
 20
64.6009
 30
0.000000
  70
    32
  0
VERTEX
  8
0
  5
172B
 10
55.6705
 20
64.5830
 30
0.000000
  70
    32
  0
VERTEX
  8
0
  5
172C
 10
55.6653
 20
64.5651
 30
0.000000
  70
    32
  0
VERTEX
  8
0
  5
172D
 10
55.6602
 20
64.5471
 30
0.000000
  70
    32
  0
VERTEX
  8
0
  5
172E
 10
55.6552
 20
64.5292
 30
0.000000
  70
    32
  0
VERTEX
  8
0
  5
172F
 10
55.6503
 20
64.5112
 30
0.000000
  70
    32
  0
VERTEX
  8
0
  5
1730
 10
55.6454
 20
64.4933
 30
0.000000
  70
    32
  0
VERTEX
  8
0
  5
1731
 10
55.6407
 20
64.4753
 30
0.000000
  70
    32
  0
VERTEX
  8
0
  5
1732
 10
55.6360
 20
64.4574
 30
0.000000
  70
    32
  0
VERTEX
  8
0
  5
1733
 10
55.6314
 20
64.4394
 30
0.000000
  70
    32
  0
VERTEX
  8
0
  5
1734
 10
55.6268
 20
64.4215
 30
0.000000
  70
    32
  0
VERTEX
  8
0
  5
1735
 10
55.6224
 20
64.4035
 30
0.000000
  70
    32
  0
VERTEX
  8
0
  5
1736
 10
55.6181
 20
64.3855
 30
0.000000
  70
    32
  0
VERTEX
  8
0
  5
1737
 10
55.6138
 20
64.3675
 30
0.000000
  70
    32
  0
VERTEX
  8
0
  5
1738
 10
55.6096
 20
64.3495
 30
0.000000
  70
    32
  0
VERTEX
  8
0
  5
1739
 10
55.6055
 20
64.3315
 30
0.000000
  70
    32
  0
VERTEX
  8
0
  5
173A
 10
55.6015
 20
64.3135
 30
0.000000
  70
    32
  0
VERTEX
  8
0
  5
173B
 10
55.5976
 20
64.2955
 30
0.000000
  70
    32
  0
VERTEX
  8
0
  5
173C
 10
55.5937
 20
64.2775
 30
0.000000
  70
    32
  0
VERTEX
  8
0
  5
173D
 10
55.5900
 20
64.2595
 30
0.000000
  70
    32
  0
VERTEX
  8
0
  5
173E
 10
55.5863
 20
64.2415
 30
0.000000
  70
    32
  0
VERTEX
  8
0
  5
173F
 10
55.5827
 20
64.2235
 30
0.000000
  70
    32
  0
VERTEX
  8
0
  5
1740
 10
55.5792
 20
64.2055
 30
0.000000
  70
    32
  0
VERTEX
  8
0
  5
1741
 10
55.5758
 20
64.1874
 30
0.000000
  70
    32
  0
VERTEX
  8
0
  5
1742
 10
55.5724
 20
64.1694
 30
0.000000
  70
    32
  0
VERTEX
  8
0
  5
1743
 10
55.5692
 20
64.1514
 30
0.000000
  70
    32
  0
VERTEX
  8
0
  5
1744
 10
55.5660
 20
64.1333
 30
0.000000
  70
    32
  0
VERTEX
  8
0
  5
1745
 10
55.5629
 20
64.1153
 30
0.000000
  70
    32
  0
VERTEX
  8
0
  5
1746
 10
55.5599
 20
64.0972
 30
0.000000
  70
    32
  0
VERTEX
  8
0
  5
1747
 10
55.5570
 20
64.0792
 30
0.000000
  70
    32
  0
VERTEX
  8
0
  5
1748
 10
55.5542
 20
64.0611
 30
0.000000
  70
    32
  0
VERTEX
  8
0
  5
1749
 10
55.5514
 20
64.0431
 30
0.000000
  70
    32
  0
VERTEX
  8
0
  5
174A
 10
55.5487
 20
64.0250
 30
0.000000
  70
    32
  0
VERTEX
  8
0
  5
174B
 10
55.5462
 20
64.0069
 30
0.000000
  70
    32
  0
VERTEX
  8
0
  5
174C
 10
55.5437
 20
63.9889
 30
0.000000
  70
    32
  0
VERTEX
  8
0
  5
174D
 10
55.5412
 20
63.9708
 30
0.000000
  70
    32
  0
VERTEX
  8
0
  5
174E
 10
55.5389
 20
63.9527
 30
0.000000
  70
    32
  0
VERTEX
  8
0
  5
174F
 10
55.5367
 20
63.9347
 30
0.000000
  70
    32
  0
VERTEX
  8
0
  5
1750
 10
55.5345
 20
63.9166
 30
0.000000
  70
    32
  0
VERTEX
  8
0
  5
1751
 10
55.5324
 20
63.8985
 30
0.000000
  70
    32
  0
VERTEX
  8
0
  5
1752
 10
55.5305
 20
63.8804
 30
0.000000
  70
    32
  0
VERTEX
  8
0
  5
1753
 10
55.5286
 20
63.8623
 30
0.000000
  70
    32
  0
VERTEX
  8
0
  5
1754
 10
55.5267
 20
63.8443
 30
0.000000
  70
    32
  0
VERTEX
  8
0
  5
1755
 10
55.5250
 20
63.8262
 30
0.000000
  70
    32
  0
VERTEX
  8
0
  5
1756
 10
55.5233
 20
63.8081
 30
0.000000
  70
    32
  0
VERTEX
  8
0
  5
1757
 10
55.5218
 20
63.7900
 30
0.000000
  70
    32
  0
VERTEX
  8
0
  5
1758
 10
55.5203
 20
63.7719
 30
0.000000
  70
    32
  0
VERTEX
  8
0
  5
1759
 10
55.5189
 20
63.7538
 30
0.000000
  70
    32
  0
VERTEX
  8
0
  5
175A
 10
55.5176
 20
63.7357
 30
0.000000
  70
    32
  0
VERTEX
  8
0
  5
175B
 10
55.5164
 20
63.7176
 30
0.000000
  70
    32
  0
VERTEX
  8
0
  5
175C
 10
55.5152
 20
63.6995
 30
0.000000
  70
    32
  0
VERTEX
  8
0
  5
175D
 10
55.5142
 20
63.6814
 30
0.000000
  70
    32
  0
VERTEX
  8
0
  5
175E
 10
55.5132
 20
63.6633
 30
0.000000
  70
    32
  0
VERTEX
  8
0
  5
175F
 10
55.5123
 20
63.6452
 30
0.000000
  70
    32
  0
VERTEX
  8
0
  5
1760
 10
55.5115
 20
63.6271
 30
0.000000
  70
    32
  0
VERTEX
  8
0
  5
1761
 10
55.5108
 20
63.6090
 30
0.000000
  70
    32
  0
VERTEX
  8
0
  5
1762
 10
55.5101
 20
63.5909
 30
0.000000
  70
    32
  0
VERTEX
  8
0
  5
1763
 10
55.5096
 20
63.5728
 30
0.000000
  70
    32
  0
VERTEX
  8
0
  5
1764
 10
55.5091
 20
63.5546
 30
0.000000
  70
    32
  0
VERTEX
  8
0
  5
1765
 10
55.5087
 20
63.5365
 30
0.000000
  70
    32
  0
VERTEX
  8
0
  5
1766
 10
55.5084
 20
63.5184
 30
0.000000
  70
    32
  0
VERTEX
  8
0
  5
1767
 10
55.5082
 20
63.5003
 30
0.000000
  70
    32
  0
VERTEX
  8
0
  5
1768
 10
55.5081
 20
63.4822
 30
0.000000
  70
    32
  0
VERTEX
  8
0
  5
1769
 10
55.5081
 20
63.4641
 30
0.000000
  70
    32
  0
VERTEX
  8
0
  5
176A
 10
55.5081
 20
63.4460
 30
0.000000
  70
    32
  0
VERTEX
  8
0
  5
176B
 10
55.5082
 20
63.4279
 30
0.000000
  70
    32
  0
VERTEX
  8
0
  5
176C
 10
55.5084
 20
63.4098
 30
0.000000
  70
    32
  0
VERTEX
  8
0
  5
176D
 10
55.5087
 20
63.3917
 30
0.000000
  70
    32
  0
VERTEX
  8
0
  5
176E
 10
55.5091
 20
63.3736
 30
0.000000
  70
    32
  0
VERTEX
  8
0
  5
176F
 10
55.5096
 20
63.3554
 30
0.000000
  70
    32
  0
VERTEX
  8
0
  5
1770
 10
55.5101
 20
63.3373
 30
0.000000
  70
    32
  0
VERTEX
  8
0
  5
1771
 10
55.5108
 20
63.3192
 30
0.000000
  70
    32
  0
VERTEX
  8
0
  5
1772
 10
55.5115
 20
63.3011
 30
0.000000
  70
    32
  0
VERTEX
  8
0
  5
1773
 10
55.5123
 20
63.2830
 30
0.000000
  70
    32
  0
VERTEX
  8
0
  5
1774
 10
55.5132
 20
63.2649
 30
0.000000
  70
    32
  0
VERTEX
  8
0
  5
1775
 10
55.5142
 20
63.2468
 30
0.000000
  70
    32
  0
VERTEX
  8
0
  5
1776
 10
55.5152
 20
63.2287
 30
0.000000
  70
    32
  0
VERTEX
  8
0
  5
1777
 10
55.5164
 20
63.2106
 30
0.000000
  70
    32
  0
VERTEX
  8
0
  5
1778
 10
55.5176
 20
63.1925
 30
0.000000
  70
    32
  0
VERTEX
  8
0
  5
1779
 10
55.5189
 20
63.1744
 30
0.000000
  70
    32
  0
VERTEX
  8
0
  5
177A
 10
55.5203
 20
63.1563
 30
0.000000
  70
    32
  0
VERTEX
  8
0
  5
177B
 10
55.5218
 20
63.1382
 30
0.000000
  70
    32
  0
VERTEX
  8
0
  5
177C
 10
55.5233
 20
63.1201
 30
0.000000
  70
    32
  0
VERTEX
  8
0
  5
177D
 10
55.5250
 20
63.1020
 30
0.000000
  70
    32
  0
VERTEX
  8
0
  5
177E
 10
55.5267
 20
63.0840
 30
0.000000
  70
    32
  0
VERTEX
  8
0
  5
177F
 10
55.5286
 20
63.0659
 30
0.000000
  70
    32
  0
VERTEX
  8
0
  5
1780
 10
55.5305
 20
63.0478
 30
0.000000
  70
    32
  0
VERTEX
  8
0
  5
1781
 10
55.5324
 20
63.0297
 30
0.000000
  70
    32
  0
VERTEX
  8
0
  5
1782
 10
55.5345
 20
63.0116
 30
0.000000
  70
    32
  0
VERTEX
  8
0
  5
1783
 10
55.5367
 20
62.9935
 30
0.000000
  70
    32
  0
VERTEX
  8
0
  5
1784
 10
55.5389
 20
62.9755
 30
0.000000
  70
    32
  0
VERTEX
  8
0
  5
1785
 10
55.5412
 20
62.9574
 30
0.000000
  70
    32
  0
VERTEX
  8
0
  5
1786
 10
55.5437
 20
62.9393
 30
0.000000
  70
    32
  0
VERTEX
  8
0
  5
1787
 10
55.5462
 20
62.9213
 30
0.000000
  70
    32
  0
VERTEX
  8
0
  5
1788
 10
55.5487
 20
62.9032
 30
0.000000
  70
    32
  0
VERTEX
  8
0
  5
1789
 10
55.5514
 20
62.8851
 30
0.000000
  70
    32
  0
VERTEX
  8
0
  5
178A
 10
55.5542
 20
62.8671
 30
0.000000
  70
    32
  0
VERTEX
  8
0
  5
178B
 10
55.5570
 20
62.8490
 30
0.000000
  70
    32
  0
VERTEX
  8
0
  5
178C
 10
55.5599
 20
62.8310
 30
0.000000
  70
    32
  0
VERTEX
  8
0
  5
178D
 10
55.5629
 20
62.8129
 30
0.000000
  70
    32
  0
VERTEX
  8
0
  5
178E
 10
55.5660
 20
62.7949
 30
0.000000
  70
    32
  0
VERTEX
  8
0
  5
178F
 10
55.5692
 20
62.7768
 30
0.000000
  70
    32
  0
VERTEX
  8
0
  5
1790
 10
55.5724
 20
62.7588
 30
0.000000
  70
    32
  0
VERTEX
  8
0
  5
1791
 10
55.5758
 20
62.7408
 30
0.000000
  70
    32
  0
VERTEX
  8
0
  5
1792
 10
55.5792
 20
62.7227
 30
0.000000
  70
    32
  0
VERTEX
  8
0
  5
1793
 10
55.5827
 20
62.7047
 30
0.000000
  70
    32
  0
VERTEX
  8
0
  5
1794
 10
55.5863
 20
62.6867
 30
0.000000
  70
    32
  0
VERTEX
  8
0
  5
1795
 10
55.5900
 20
62.6687
 30
0.000000
  70
    32
  0
VERTEX
  8
0
  5
1796
 10
55.5937
 20
62.6507
 30
0.000000
  70
    32
  0
VERTEX
  8
0
  5
1797
 10
55.5976
 20
62.6327
 30
0.000000
  70
    32
  0
VERTEX
  8
0
  5
1798
 10
55.6015
 20
62.6147
 30
0.000000
  70
    32
  0
VERTEX
  8
0
  5
1799
 10
55.6055
 20
62.5967
 30
0.000000
  70
    32
  0
VERTEX
  8
0
  5
179A
 10
55.6096
 20
62.5787
 30
0.000000
  70
    32
  0
VERTEX
  8
0
  5
179B
 10
55.6138
 20
62.5607
 30
0.000000
  70
    32
  0
VERTEX
  8
0
  5
179C
 10
55.6181
 20
62.5427
 30
0.000000
  70
    32
  0
VERTEX
  8
0
  5
179D
 10
55.6224
 20
62.5247
 30
0.000000
  70
    32
  0
VERTEX
  8
0
  5
179E
 10
55.6268
 20
62.5067
 30
0.000000
  70
    32
  0
VERTEX
  8
0
  5
179F
 10
55.6314
 20
62.4888
 30
0.000000
  70
    32
  0
VERTEX
  8
0
  5
17A0
 10
55.6360
 20
62.4708
 30
0.000000
  70
    32
  0
VERTEX
  8
0
  5
17A1
 10
55.6407
 20
62.4529
 30
0.000000
  70
    32
  0
VERTEX
  8
0
  5
17A2
 10
55.6454
 20
62.4349
 30
0.000000
  70
    32
  0
VERTEX
  8
0
  5
17A3
 10
55.6503
 20
62.4170
 30
0.000000
  70
    32
  0
VERTEX
  8
0
  5
17A4
 10
55.6552
 20
62.3990
 30
0.000000
  70
    32
  0
VERTEX
  8
0
  5
17A5
 10
55.6602
 20
62.3811
 30
0.000000
  70
    32
  0
VERTEX
  8
0
  5
17A6
 10
55.6653
 20
62.3632
 30
0.000000
  70
    32
  0
VERTEX
  8
0
  5
17A7
 10
55.6705
 20
62.3452
 30
0.000000
  70
    32
  0
VERTEX
  8
0
  5
17A8
 10
55.6758
 20
62.3273
 30
0.000000
  70
    32
  0
VERTEX
  8
0
  5
17A9
 10
55.6812
 20
62.3094
 30
0.000000
  70
    32
  0
SEQEND
  8
0
  5
17AA
  0
ARC
  5
13FF
  8
0
 10
70.999999999999943
 20
60.0
 30
0.0
 40
15.99999999999994
 50
163.22134511903951
 51
196.7786548809604
  0
ARC
  5
1400
  8
0
 10
71.000000000000199
 20
60.0
 30
0.0
 40
15.49193338482984
 50
171.4268950005544
 51
188.5731049994456
  0
LINE
  5
1401
  8
0
 10
60.500000000000028
 20
62.30940107675849
 30
0.0
 11
55.68116627589859
 21
62.30940107675849
 31
0.0
  0
POLYLINE
  5
1402
  8
0
 10
55.681166275898612
 20
57.690598923241488
 30
0.0
 66
     1
 70
     8
  0
VERTEX
  8
0
  5
17AB
 10
55.6812
 20
57.6906
 30
0.000000
  70
    32
  0
VERTEX
  8
0
  5
17AC
 10
55.6758
 20
57.6727
 30
0.000000
  70
    32
  0
VERTEX
  8
0
  5
17AD
 10
55.6705
 20
57.6548
 30
0.000000
  70
    32
  0
VERTEX
  8
0
  5
17AE
 10
55.6653
 20
57.6368
 30
0.000000
  70
    32
  0
VERTEX
  8
0
  5
17AF
 10
55.6602
 20
57.6189
 30
0.000000
  70
    32
  0
VERTEX
  8
0
  5
17B0
 10
55.6552
 20
57.6010
 30
0.000000
  70
    32
  0
VERTEX
  8
0
  5
17B1
 10
55.6503
 20
57.5830
 30
0.000000
  70
    32
  0
VERTEX
  8
0
  5
17B2
 10
55.6454
 20
57.5651
 30
0.000000
  70
    32
  0
VERTEX
  8
0
  5
17B3
 10
55.6407
 20
57.5471
 30
0.000000
  70
    32
  0
VERTEX
  8
0
  5
17B4
 10
55.6360
 20
57.5292
 30
0.000000
  70
    32
  0
VERTEX
  8
0
  5
17B5
 10
55.6314
 20
57.5112
 30
0.000000
  70
    32
  0
VERTEX
  8
0
  5
17B6
 10
55.6268
 20
57.4933
 30
0.000000
  70
    32
  0
VERTEX
  8
0
  5
17B7
 10
55.6224
 20
57.4753
 30
0.000000
  70
    32
  0
VERTEX
  8
0
  5
17B8
 10
55.6181
 20
57.4573
 30
0.000000
  70
    32
  0
VERTEX
  8
0
  5
17B9
 10
55.6138
 20
57.4393
 30
0.000000
  70
    32
  0
VERTEX
  8
0
  5
17BA
 10
55.6096
 20
57.4213
 30
0.000000
  70
    32
  0
VERTEX
  8
0
  5
17BB
 10
55.6055
 20
57.4033
 30
0.000000
  70
    32
  0
VERTEX
  8
0
  5
17BC
 10
55.6015
 20
57.3853
 30
0.000000
  70
    32
  0
VERTEX
  8
0
  5
17BD
 10
55.5976
 20
57.3673
 30
0.000000
  70
    32
  0
VERTEX
  8
0
  5
17BE
 10
55.5937
 20
57.3493
 30
0.000000
  70
    32
  0
VERTEX
  8
0
  5
17BF
 10
55.5900
 20
57.3313
 30
0.000000
  70
    32
  0
VERTEX
  8
0
  5
17C0
 10
55.5863
 20
57.3133
 30
0.000000
  70
    32
  0
VERTEX
  8
0
  5
17C1
 10
55.5827
 20
57.2953
 30
0.000000
  70
    32
  0
VERTEX
  8
0
  5
17C2
 10
55.5792
 20
57.2773
 30
0.000000
  70
    32
  0
VERTEX
  8
0
  5
17C3
 10
55.5758
 20
57.2592
 30
0.000000
  70
    32
  0
VERTEX
  8
0
  5
17C4
 10
55.5724
 20
57.2412
 30
0.000000
  70
    32
  0
VERTEX
  8
0
  5
17C5
 10
55.5692
 20
57.2232
 30
0.000000
  70
    32
  0
VERTEX
  8
0
  5
17C6
 10
55.5660
 20
57.2051
 30
0.000000
  70
    32
  0
VERTEX
  8
0
  5
17C7
 10
55.5629
 20
57.1871
 30
0.000000
  70
    32
  0
VERTEX
  8
0
  5
17C8
 10
55.5599
 20
57.1690
 30
0.000000
  70
    32
  0
VERTEX
  8
0
  5
17C9
 10
55.5570
 20
57.1510
 30
0.000000
  70
    32
  0
VERTEX
  8
0
  5
17CA
 10
55.5542
 20
57.1329
 30
0.000000
  70
    32
  0
VERTEX
  8
0
  5
17CB
 10
55.5514
 20
57.1149
 30
0.000000
  70
    32
  0
VERTEX
  8
0
  5
17CC
 10
55.5487
 20
57.0968
 30
0.000000
  70
    32
  0
VERTEX
  8
0
  5
17CD
 10
55.5462
 20
57.0787
 30
0.000000
  70
    32
  0
VERTEX
  8
0
  5
17CE
 10
55.5437
 20
57.0607
 30
0.000000
  70
    32
  0
VERTEX
  8
0
  5
17CF
 10
55.5412
 20
57.0426
 30
0.000000
  70
    32
  0
VERTEX
  8
0
  5
17D0
 10
55.5389
 20
57.0245
 30
0.000000
  70
    32
  0
VERTEX
  8
0
  5
17D1
 10
55.5367
 20
57.0065
 30
0.000000
  70
    32
  0
VERTEX
  8
0
  5
17D2
 10
55.5345
 20
56.9884
 30
0.000000
  70
    32
  0
VERTEX
  8
0
  5
17D3
 10
55.5324
 20
56.9703
 30
0.000000
  70
    32
  0
VERTEX
  8
0
  5
17D4
 10
55.5305
 20
56.9522
 30
0.000000
  70
    32
  0
VERTEX
  8
0
  5
17D5
 10
55.5286
 20
56.9341
 30
0.000000
  70
    32
  0
VERTEX
  8
0
  5
17D6
 10
55.5267
 20
56.9160
 30
0.000000
  70
    32
  0
VERTEX
  8
0
  5
17D7
 10
55.5250
 20
56.8980
 30
0.000000
  70
    32
  0
VERTEX
  8
0
  5
17D8
 10
55.5233
 20
56.8799
 30
0.000000
  70
    32
  0
VERTEX
  8
0
  5
17D9
 10
55.5218
 20
56.8618
 30
0.000000
  70
    32
  0
VERTEX
  8
0
  5
17DA
 10
55.5203
 20
56.8437
 30
0.000000
  70
    32
  0
VERTEX
  8
0
  5
17DB
 10
55.5189
 20
56.8256
 30
0.000000
  70
    32
  0
VERTEX
  8
0
  5
17DC
 10
55.5176
 20
56.8075
 30
0.000000
  70
    32
  0
VERTEX
  8
0
  5
17DD
 10
55.5164
 20
56.7894
 30
0.000000
  70
    32
  0
VERTEX
  8
0
  5
17DE
 10
55.5152
 20
56.7713
 30
0.000000
  70
    32
  0
VERTEX
  8
0
  5
17DF
 10
55.5142
 20
56.7532
 30
0.000000
  70
    32
  0
VERTEX
  8
0
  5
17E0
 10
55.5132
 20
56.7351
 30
0.000000
  70
    32
  0
VERTEX
  8
0
  5
17E1
 10
55.5123
 20
56.7170
 30
0.000000
  70
    32
  0
VERTEX
  8
0
  5
17E2
 10
55.5115
 20
56.6989
 30
0.000000
  70
    32
  0
VERTEX
  8
0
  5
17E3
 10
55.5108
 20
56.6808
 30
0.000000
  70
    32
  0
VERTEX
  8
0
  5
17E4
 10
55.5101
 20
56.6627
 30
0.000000
  70
    32
  0
VERTEX
  8
0
  5
17E5
 10
55.5096
 20
56.6446
 30
0.000000
  70
    32
  0
VERTEX
  8
0
  5
17E6
 10
55.5091
 20
56.6264
 30
0.000000
  70
    32
  0
VERTEX
  8
0
  5
17E7
 10
55.5087
 20
56.6083
 30
0.000000
  70
    32
  0
VERTEX
  8
0
  5
17E8
 10
55.5084
 20
56.5902
 30
0.000000
  70
    32
  0
VERTEX
  8
0
  5
17E9
 10
55.5082
 20
56.5721
 30
0.000000
  70
    32
  0
VERTEX
  8
0
  5
17EA
 10
55.5081
 20
56.5540
 30
0.000000
  70
    32
  0
VERTEX
  8
0
  5
17EB
 10
55.5081
 20
56.5359
 30
0.000000
  70
    32
  0
VERTEX
  8
0
  5
17EC
 10
55.5081
 20
56.5178
 30
0.000000
  70
    32
  0
VERTEX
  8
0
  5
17ED
 10
55.5082
 20
56.4997
 30
0.000000
  70
    32
  0
VERTEX
  8
0
  5
17EE
 10
55.5084
 20
56.4816
 30
0.000000
  70
    32
  0
VERTEX
  8
0
  5
17EF
 10
55.5087
 20
56.4635
 30
0.000000
  70
    32
  0
VERTEX
  8
0
  5
17F0
 10
55.5091
 20
56.4454
 30
0.000000
  70
    32
  0
VERTEX
  8
0
  5
17F1
 10
55.5096
 20
56.4272
 30
0.000000
  70
    32
  0
VERTEX
  8
0
  5
17F2
 10
55.5101
 20
56.4091
 30
0.000000
  70
    32
  0
VERTEX
  8
0
  5
17F3
 10
55.5108
 20
56.3910
 30
0.000000
  70
    32
  0
VERTEX
  8
0
  5
17F4
 10
55.5115
 20
56.3729
 30
0.000000
  70
    32
  0
VERTEX
  8
0
  5
17F5
 10
55.5123
 20
56.3548
 30
0.000000
  70
    32
  0
VERTEX
  8
0
  5
17F6
 10
55.5132
 20
56.3367
 30
0.000000
  70
    32
  0
VERTEX
  8
0
  5
17F7
 10
55.5142
 20
56.3186
 30
0.000000
  70
    32
  0
VERTEX
  8
0
  5
17F8
 10
55.5152
 20
56.3005
 30
0.000000
  70
    32
  0
VERTEX
  8
0
  5
17F9
 10
55.5164
 20
56.2824
 30
0.000000
  70
    32
  0
VERTEX
  8
0
  5
17FA
 10
55.5176
 20
56.2643
 30
0.000000
  70
    32
  0
VERTEX
  8
0
  5
17FB
 10
55.5189
 20
56.2462
 30
0.000000
  70
    32
  0
VERTEX
  8
0
  5
17FC
 10
55.5203
 20
56.2281
 30
0.000000
  70
    32
  0
VERTEX
  8
0
  5
17FD
 10
55.5218
 20
56.2100
 30
0.000000
  70
    32
  0
VERTEX
  8
0
  5
17FE
 10
55.5233
 20
56.1919
 30
0.000000
  70
    32
  0
VERTEX
  8
0
  5
17FF
 10
55.5250
 20
56.1738
 30
0.000000
  70
    32
  0
VERTEX
  8
0
  5
1800
 10
55.5267
 20
56.1557
 30
0.000000
  70
    32
  0
VERTEX
  8
0
  5
1801
 10
55.5286
 20
56.1377
 30
0.000000
  70
    32
  0
VERTEX
  8
0
  5
1802
 10
55.5305
 20
56.1196
 30
0.000000
  70
    32
  0
VERTEX
  8
0
  5
1803
 10
55.5324
 20
56.1015
 30
0.000000
  70
    32
  0
VERTEX
  8
0
  5
1804
 10
55.5345
 20
56.0834
 30
0.000000
  70
    32
  0
VERTEX
  8
0
  5
1805
 10
55.5367
 20
56.0653
 30
0.000000
  70
    32
  0
VERTEX
  8
0
  5
1806
 10
55.5389
 20
56.0473
 30
0.000000
  70
    32
  0
VERTEX
  8
0
  5
1807
 10
55.5412
 20
56.0292
 30
0.000000
  70
    32
  0
VERTEX
  8
0
  5
1808
 10
55.5437
 20
56.0111
 30
0.000000
  70
    32
  0
VERTEX
  8
0
  5
1809
 10
55.5462
 20
55.9931
 30
0.000000
  70
    32
  0
VERTEX
  8
0
  5
180A
 10
55.5487
 20
55.9750
 30
0.000000
  70
    32
  0
VERTEX
  8
0
  5
180B
 10
55.5514
 20
55.9569
 30
0.000000
  70
    32
  0
VERTEX
  8
0
  5
180C
 10
55.5542
 20
55.9389
 30
0.000000
  70
    32
  0
VERTEX
  8
0
  5
180D
 10
55.5570
 20
55.9208
 30
0.000000
  70
    32
  0
VERTEX
  8
0
  5
180E
 10
55.5599
 20
55.9028
 30
0.000000
  70
    32
  0
VERTEX
  8
0
  5
180F
 10
55.5629
 20
55.8847
 30
0.000000
  70
    32
  0
VERTEX
  8
0
  5
1810
 10
55.5660
 20
55.8667
 30
0.000000
  70
    32
  0
VERTEX
  8
0
  5
1811
 10
55.5692
 20
55.8486
 30
0.000000
  70
    32
  0
VERTEX
  8
0
  5
1812
 10
55.5724
 20
55.8306
 30
0.000000
  70
    32
  0
VERTEX
  8
0
  5
1813
 10
55.5758
 20
55.8126
 30
0.000000
  70
    32
  0
VERTEX
  8
0
  5
1814
 10
55.5792
 20
55.7945
 30
0.000000
  70
    32
  0
VERTEX
  8
0
  5
1815
 10
55.5827
 20
55.7765
 30
0.000000
  70
    32
  0
VERTEX
  8
0
  5
1816
 10
55.5863
 20
55.7585
 30
0.000000
  70
    32
  0
VERTEX
  8
0
  5
1817
 10
55.5900
 20
55.7405
 30
0.000000
  70
    32
  0
VERTEX
  8
0
  5
1818
 10
55.5937
 20
55.7225
 30
0.000000
  70
    32
  0
VERTEX
  8
0
  5
1819
 10
55.5976
 20
55.7045
 30
0.000000
  70
    32
  0
VERTEX
  8
0
  5
181A
 10
55.6015
 20
55.6865
 30
0.000000
  70
    32
  0
VERTEX
  8
0
  5
181B
 10
55.6055
 20
55.6685
 30
0.000000
  70
    32
  0
VERTEX
  8
0
  5
181C
 10
55.6096
 20
55.6505
 30
0.000000
  70
    32
  0
VERTEX
  8
0
  5
181D
 10
55.6138
 20
55.6325
 30
0.000000
  70
    32
  0
VERTEX
  8
0
  5
181E
 10
55.6181
 20
55.6145
 30
0.000000
  70
    32
  0
VERTEX
  8
0
  5
181F
 10
55.6224
 20
55.5965
 30
0.000000
  70
    32
  0
VERTEX
  8
0
  5
1820
 10
55.6268
 20
55.5785
 30
0.000000
  70
    32
  0
VERTEX
  8
0
  5
1821
 10
55.6314
 20
55.5606
 30
0.000000
  70
    32
  0
VERTEX
  8
0
  5
1822
 10
55.6360
 20
55.5426
 30
0.000000
  70
    32
  0
VERTEX
  8
0
  5
1823
 10
55.6407
 20
55.5247
 30
0.000000
  70
    32
  0
VERTEX
  8
0
  5
1824
 10
55.6454
 20
55.5067
 30
0.000000
  70
    32
  0
VERTEX
  8
0
  5
1825
 10
55.6503
 20
55.4888
 30
0.000000
  70
    32
  0
VERTEX
  8
0
  5
1826
 10
55.6552
 20
55.4708
 30
0.000000
  70
    32
  0
VERTEX
  8
0
  5
1827
 10
55.6602
 20
55.4529
 30
0.000000
  70
    32
  0
VERTEX
  8
0
  5
1828
 10
55.6653
 20
55.4349
 30
0.000000
  70
    32
  0
VERTEX
  8
0
  5
1829
 10
55.6705
 20
55.4170
 30
0.000000
  70
    32
  0
VERTEX
  8
0
  5
182A
 10
55.6758
 20
55.3991
 30
0.000000
  70
    32
  0
VERTEX
  8
0
  5
182B
 10
55.6812
 20
55.3812
 30
0.000000
  70
    32
  0
SEQEND
  8
0
  5
182C
  0
LINE
  5
1403
  8
0
 10
60.500000000000028
 20
55.381197846482991
 30
0.0
 11
55.68116627589859
 21
55.381197846482991
 31
0.0
  0
LINE
  5
1404
  8
0
 10
55.68116627589859
 20
57.690598923241502
 30
0.0
 11
60.500000000000028
 21
57.690598923241502
 31
0.0
  0
POLYLINE
  5
1405
  8
0
 66
     1
 10
0.0
 20
0.0
 30
0.0
  0
VERTEX
  5
15BC
  8
0
 10
60.771489741538851
 20
64.711324865405174
 30
0.0
  0
VERTEX
  5
15BD
  8
0
 10
60.781361420065281
 20
64.7113065637094
 30
0.0
  0
VERTEX
  5
15BE
  8
0
 10
60.816526822149847
 20
64.7108562300416
 30
0.0
  0
VERTEX
  5
15BF
  8
0
 10
60.847241374066563
 20
64.709718498346717
 30
0.0
  0
VERTEX
  5
15C0
  8
0
 10
60.897560718060127
 20
64.70498815732347
 30
0.0
  0
VERTEX
  5
15C1
  8
0
 10
60.933708820615273
 20
64.697012456494434
 30
0.0
  0
VERTEX
  5
15C2
  8
0
 10
60.960054278809189
 20
64.685474890350292
 30
0.0
  0
VERTEX
  5
15C3
  8
0
 10
60.978629092660192
 20
64.670095831751212
 30
0.0
  0
VERTEX
  5
15C4
  8
0
 10
60.990642901496777
 20
64.650965070469454
 30
0.0
  0
VERTEX
  5
15C5
  8
0
 10
60.997876561019837
 20
64.625160637602193
 30
0.0
  0
VERTEX
  5
15C6
  8
0
 10
61.000000000000028
 20
64.594714128416342
 30
0.0
  0
SEQEND
  5
15C7
  8
0
  0
POLYLINE
  5
1406
  8
0
 66
     1
 10
0.0
 20
0.0
 30
0.0
  0
VERTEX
  5
15C8
  8
0
 10
60.771489741538851
 20
64.711324865405174
 30
0.0
  0
VERTEX
  5
15C9
  8
0
 10
60.733862299581801
 20
64.685847383428722
 30
0.0
  0
VERTEX
  5
15CA
  8
0
 10
60.694455024314998
 20
64.664253630931796
 30
0.0
  0
VERTEX
  5
15CB
  8
0
 10
60.653567828898019
 20
64.646707949409517
 30
0.0
  0
VERTEX
  5
15CC
  8
0
 10
60.611511889576349
 20
64.633343872092695
 30
0.0
  0
VERTEX
  5
15CD
  8
0
 10
60.568607277442261
 20
64.624263107679155
 30
0.0
  0
VERTEX
  5
15CE
  8
0
 10
60.525180522500641
 20
64.61953476626914
 30
0.0
  0
VERTEX
  5
15CF
  8
0
 10
60.500000000000028
 20
64.618802153517009
 30
0.0
  0
SEQEND
  5
15D0
  8
0
  0
POLYLINE
  5
1407
  8
0
 66
     1
 10
0.0
 20
0.0
 30
0.0
  0
VERTEX
  5
15D1
  8
0
 10
61.000000000000028
 20
55.405285871583658
 30
0.0
  0
VERTEX
  5
15D2
  8
0
 10
60.997540096964229
 20
55.372811398133202
 30
0.0
  0
VERTEX
  5
15D3
  8
0
 10
60.989024807635552
 20
55.345557880390508
 30
0.0
  0
VERTEX
  5
15D4
  8
0
 10
60.972265211966139
 20
55.323478717486779
 30
0.0
  0
VERTEX
  5
15D5
  8
0
 10
60.94450260057701
 20
55.306839378597658
 30
0.0
  0
VERTEX
  5
15D6
  8
0
 10
60.917535798047872
 20
55.298684316832748
 30
0.0
  0
VERTEX
  5
15D7
  8
0
 10
60.882067223115861
 20
55.293016491442529
 30
0.0
  0
VERTEX
  5
15D8
  8
0
 10
60.83444616330123
 20
55.289697779546543
 30
0.0
  0
VERTEX
  5
15D9
  8
0
 10
60.80511041809654
 20
55.28891901684608
 30
0.0
  0
VERTEX
  5
15DA
  8
0
 10
60.771489741538851
 20
55.288675134594818
 30
0.0
  0
SEQEND
  5
15DB
  8
0
  0
POLYLINE
  5
1409
  8
0
 66
     1
 10
0.0
 20
0.0
 30
0.0
  0
VERTEX
  5
15DC
  8
0
 10
60.771489741538851
 20
55.288675134594818
 30
0.0
  0
VERTEX
  5
15DD
  8
0
 10
60.733862299581801
 20
55.31415261657127
 30
0.0
  0
VERTEX
  5
15DE
  8
0
 10
60.694455024314998
 20
55.335746369068197
 30
0.0
  0
VERTEX
  5
15DF
  8
0
 10
60.653567828898019
 20
55.353292050590483
 30
0.0
  0
VERTEX
  5
15E0
  8
0
 10
60.611511889576349
 20
55.366656127907312
 30
0.0
  0
VERTEX
  5
15E1
  8
0
 10
60.568607277442261
 20
55.375736892320873
 30
0.0
  0
VERTEX
  5
15E2
  8
0
 10
60.525180522500641
 20
55.38046523373086
 30
0.0
  0
VERTEX
  5
15E3
  8
0
 10
60.500000000000028
 20
55.381197846482991
 30
0.0
  0
SEQEND
  5
15E4
  8
0
  0
POLYLINE
  5
140A
  8
0
 66
     1
 10
0.0
 20
0.0
 30
0.0
  0
VERTEX
  5
15E5
  8
0
 10
60.771489741538893
 20
62.355662432702587
 30
0.0
  0
VERTEX
  5
15E6
  8
0
 10
60.733862299581801
 20
62.342923691714361
 30
0.0
  0
VERTEX
  5
15E7
  8
0
 10
60.694455024315033
 20
62.332126815465891
 30
0.0
  0
VERTEX
  5
15E8
  8
0
 10
60.653567828898041
 20
62.323353974704759
 30
0.0
  0
VERTEX
  5
15E9
  8
0
 10
60.611511889576349
 20
62.316671936046362
 30
0.0
  0
VERTEX
  5
15EA
  8
0
 10
60.568607277442261
 20
62.312131553839542
 30
0.0
  0
VERTEX
  5
15EB
  8
0
 10
60.525180522500641
 20
62.309767383134549
 30
0.0
  0
VERTEX
  5
15EC
  8
0
 10
60.499999989463298
 20
62.30940107675849
 30
0.0
  0
SEQEND
  5
15ED
  8
0
  0
POLYLINE
  5
140B
  8
0
 66
     1
 10
0.0
 20
0.0
 30
0.0
  0
VERTEX
  5
15EE
  8
0
 10
60.500000000000028
 20
57.690598923241502
 30
0.0
  0
VERTEX
  5
15EF
  8
0
 10
60.543577871373849
 20
57.689500427200961
 30
0.0
  0
VERTEX
  5
15F0
  8
0
 10
60.586824088833481
 20
57.686213299297492
 30
0.0
  0
VERTEX
  5
15F1
  8
0
 10
60.629409522551271
 20
57.680762556559273
 30
0.0
  0
VERTEX
  5
15F2
  8
0
 10
60.671010071662863
 20
57.673189682429808
 30
0.0
  0
VERTEX
  5
15F3
  8
0
 10
60.711309130870383
 20
57.66355231105382
 30
0.0
  0
VERTEX
  5
15F4
  8
0
 10
60.750000000000021
 20
57.651923788646677
 30
0.0
  0
VERTEX
  5
15F5
  8
0
 10
60.771489741539057
 20
57.644337567297327
 30
0.0
  0
SEQEND
  5
15F6
  8
0
  0
POLYLINE
  5
140C
  8
0
 66
     1
 10
0.0
 20
0.0
 30
0.0
  0
VERTEX
  5
15F7
  8
0
 10
60.771489741538851
 20
62.355662432702587
 30
0.0
  0
VERTEX
  5
15F8
  8
0
 10
60.781361420065281
 20
62.344280612845893
 30
0.0
  0
VERTEX
  5
15F9
  8
0
 10
60.827833399503852
 20
62.280851497960271
 30
0.0
  0
VERTEX
  5
15FA
  8
0
 10
60.866191788081601
 20
62.2125085573158
 30
0.0
  0
VERTEX
  5
15FB
  8
0
 10
60.897560718060127
 20
62.14094900043164
 30
0.0
  0
VERTEX
  5
15FC
  8
0
 10
60.934302823755388
 20
62.02933514754983
 30
0.0
  0
VERTEX
  5
15FD
  8
0
 10
60.960825781746081
 20
61.913591467176047
 30
0.0
  0
VERTEX
  5
15FE
  8
0
 10
60.978986753752963
 20
61.794904479178228
 30
0.0
  0
VERTEX
  5
15FF
  8
0
 10
60.990642901496777
 20
61.674460703424387
 30
0.0
  0
VERTEX
  5
1600
  8
0
 10
60.997891657705452
 20
61.535668775457452
 30
0.0
  0
VERTEX
  5
1601
  8
0
 10
61.000000000000028
 20
61.395199622772729
 30
0.0
  0
SEQEND
  5
1602
  8
0
  0
POLYLINE
  5
140D
  8
0
 66
     1
 10
0.0
 20
0.0
 30
0.0
  0
VERTEX
  5
1603
  8
0
 10
61.000000000000028
 20
63.199514505643599
 30
0.0
  0
VERTEX
  5
1604
  8
0
 10
60.997547447491137
 20
63.081082462002342
 30
0.0
  0
VERTEX
  5
1605
  8
0
 10
60.989024807635552
 20
62.95933094498514
 30
0.0
  0
VERTEX
  5
1606
  8
0
 10
60.972239024712962
 20
62.832902421132928
 30
0.0
  0
VERTEX
  5
1607
  8
0
 10
60.94450260057701
 20
62.704517493496951
 30
0.0
  0
VERTEX
  5
1608
  8
0
 10
60.917535798047872
 20
62.616476625613473
 30
0.0
  0
VERTEX
  5
1609
  8
0
 10
60.882067223115861
 20
62.528609366656262
 30
0.0
  0
VERTEX
  5
160A
  8
0
 10
60.83444616330123
 20
62.440158371871519
 30
0.0
  0
VERTEX
  5
160B
  8
0
 10
60.805003651326437
 20
62.396904367932848
 30
0.0
  0
VERTEX
  5
160C
  8
0
 10
60.771489741538851
 20
62.355662432702587
 30
0.0
  0
SEQEND
  5
160D
  8
0
  0
POLYLINE
  5
140E
  8
0
 66
     1
 10
0.0
 20
0.0
 30
0.0
  0
VERTEX
  5
160E
  8
0
 10
61.000000000000028
 20
58.604800377227271
 30
0.0
  0
VERTEX
  5
160F
  8
0
 10
60.997547447491137
 20
58.453858074166021
 30
0.0
  0
VERTEX
  5
1610
  8
0
 10
60.989024807635552
 20
58.30488882537562
 30
0.0
  0
VERTEX
  5
1611
  8
0
 10
60.972239024712962
 20
58.156333671396759
 30
0.0
  0
VERTEX
  5
1612
  8
0
 10
60.94450260057701
 20
58.011356872094609
 30
0.0
  0
VERTEX
  5
1613
  8
0
 10
60.917535798047872
 20
57.915160942446192
 30
0.0
  0
VERTEX
  5
1614
  8
0
 10
60.882067223115861
 20
57.82162585809877
 30
0.0
  0
VERTEX
  5
1615
  8
0
 10
60.834446163301351
 20
57.729856151418232
 30
0.0
  0
VERTEX
  5
1616
  8
0
 10
60.805003651327063
 20
57.685823088829238
 30
0.0
  0
VERTEX
  5
1617
  8
0
 10
60.77148974154008
 20
57.644337567297327
 30
0.0
  0
SEQEND
  5
1618
  8
0
  0
POLYLINE
  5
140F
  8
0
 66
     1
 10
0.0
 20
0.0
 30
0.0
  0
VERTEX
  5
1619
  8
0
 10
60.77148974154008
 20
57.644337567297327
 30
0.0
  0
VERTEX
  5
161A
  8
0
 10
60.781361420065281
 20
57.632974049136493
 30
0.0
  0
VERTEX
  5
161B
  8
0
 10
60.816654415728983
 20
57.586850933349858
 30
0.0
  0
VERTEX
  5
161C
  8
0
 10
60.847241374066563
 20
57.538603244346227
 30
0.0
  0
VERTEX
  5
161D
  8
0
 10
60.897560718060127
 20
57.435960843108177
 30
0.0
  0
VERTEX
  5
161E
  8
0
 10
60.9338496797684
 20
57.333341420754287
 30
0.0
  0
VERTEX
  5
161F
  8
0
 10
60.960054278809189
 20
57.230436736180451
 30
0.0
  0
VERTEX
  5
1620
  8
0
 10
60.978668189025058
 20
57.126182533923178
 30
0.0
  0
VERTEX
  5
1621
  8
0
 10
60.990642901496777
 20
57.023495632954933
 30
0.0
  0
VERTEX
  5
1622
  8
0
 10
60.997876561019837
 20
56.91066148341767
 30
0.0
  0
VERTEX
  5
1623
  8
0
 10
61.000000000000028
 20
56.800485494356387
 30
0.0
  0
SEQEND
  5
1624
  8
0
  0
LINE
  5
1410
  8
0
 10
61.000000000000028
 20
55.288675134594818
 30
0.0
 11
61.500000000000028
 21
55.0
 31
0.0
  0
LINE
  5
1411
  8
0
 10
61.500000000000028
 20
65.0
 30
0.0
 11
61.000000000000028
 21
64.711324865405174
 31
0.0
  0
LINE
  5
1412
  8
0
 10
61.000000000000028
 20
64.711324865405174
 30
0.0
 11
61.000000000000028
 21
55.288675134594818
 31
0.0
  0
LINE
  5
1413
  8
0
 10
62.000000000000021
 20
65.0
 30
0.0
 11
62.000000000000021
 21
55.0
 31
0.0
  0
LINE
  5
1414
  8
0
 10
61.500000000000028
 20
65.0
 30
0.0
 11
61.500000000000028
 21
55.0
 31
0.0
  0
LINE
  5
1415
  8
0
 10
61.500000000000028
 20
55.0
 30
0.0
 11
62.000000000000021
 21
55.0
 31
0.0
  0
LINE
  5
1416
  8
0
 10
62.000000000000021
 20
65.0
 30
0.0
 11
61.500000000000028
 21
65.0
 31
0.0
  0
LINE
  5
1417
  8
2
 10
62.000000000000021
 20
57.5
 30
0.0
 11
58.000000000000028
 21
57.5
 31
0.0
  0
LINE
  5
1418
  8
2
 10
58.000000000000028
 20
62.5
 30
0.0
 11
58.000000000000028
 21
57.5
 31
0.0
  0
LINE
  5
1419
  8
2
 10
62.000000000000021
 20
62.5
 30
0.0
 11
58.000000000000028
 21
62.5
 31
0.0
  0
LINE
  5
14CF
  8
1
 10
64.0
 20
30.0
 30
0.0
 11
53.0
 21
30.0
 31
0.0
  0
LINE
  5
14D8
  8
1
 10
64.000000000000028
 20
60.0
 30
0.0
 11
53.0
 21
60.0
 31
0.0
  0
CIRCLE
  5
14DB
  8
0
 10
30.0
 20
29.999999999999989
 30
0.0
 40
4.7113248654051949
  0
LINE
  5
14DC
  8
1
 10
30.0
 20
37.0
 30
0.0
 11
30.0
 21
23.0
 31
0.0
  0
LINE
  5
14DD
  8
1
 10
37.0
 20
30.0
 30
0.0
 11
23.0
 21
30.0
 31
0.0
  0
ENDSEC
  0
EOF
