  0
SECTION
  2
HEADER
  9
$ACADVER
  1
AC1009
  9
$INSBASE
 10
0.0
 20
0.0
 30
0.0
  9
$EXTMIN
 10
0.0
 20
-1.4802182810368341
 30
0.0
  9
$EXTMAX
 10
67.000000000000014
 20
68.0
 30
0.0
  9
$LIMMIN
 10
0.0
 20
0.0
  9
$LIMMAX
 10
375.0
 20
270.0
  9
$ORTHOMODE
 70
     1
  9
$REGENMODE
 70
     1
  9
$FILLMODE
 70
     1
  9
$QTEXTMODE
 70
     0
  9
$MIRRTEXT
 70
     0
  9
$DRAGMODE
 70
     2
  9
$LTSCALE
 40
3.0
  9
$OSMODE
 70
    37
  9
$ATTMODE
 70
     1
  9
$TEXTSIZE
 40
0.2
  9
$TRACEWID
 40
0.05
  9
$TEXTSTYLE
  7
STANDARD
  9
$CLAYER
  8
4
  9
$CELTYPE
  6
BYLAYER
  9
$CECOLOR
 62
   256
  9
$DIMSCALE
 40
1.0
  9
$DIMASZ
 40
3.0
  9
$DIMEXO
 40
2.0
  9
$DIMDLI
 40
0.38
  9
$DIMRND
 40
0.0
  9
$DIMDLE
 40
0.0
  9
$DIMEXE
 40
2.0
  9
$DIMTP
 40
0.0
  9
$DIMTM
 40
0.0
  9
$DIMTXT
 40
3.2000000000000002
  9
$DIMCEN
 40
0.09
  9
$DIMTSZ
 40
0.0
  9
$DIMTOL
 70
     0
  9
$DIMLIM
 70
     0
  9
$DIMTIH
 70
     0
  9
$DIMTOH
 70
     0
  9
$DIMSE1
 70
     0
  9
$DIMSE2
 70
     0
  9
$DIMTAD
 70
     1
  9
$DIMZIN
 70
     8
  9
$DIMBLK
  1

  9
$DIMASO
 70
     1
  9
$DIMSHO
 70
     0
  9
$DIMPOST
  1

  9
$DIMAPOST
  1

  9
$DIMALT
 70
     0
  9
$DIMALTD
 70
     2
  9
$DIMALTF
 40
25.399999999999999
  9
$DIMLFAC
 40
1.0
  9
$DIMTOFL
 70
     1
  9
$DIMTVP
 40
1.6000000000000001
  9
$DIMTIX
 70
     1
  9
$DIMSOXD
 70
     0
  9
$DIMSAH
 70
     0
  9
$DIMBLK1
  1

  9
$DIMBLK2
  1

  9
$DIMSTYLE
  2
STANDARD
  9
$DIMCLRD
 70
   256
  9
$DIMCLRE
 70
   256
  9
$DIMCLRT
 70
   256
  9
$DIMTFAC
 40
1.0
  9
$DIMGAP
 40
1.0
  9
$LUNITS
 70
     2
  9
$LUPREC
 70
     1
  9
$SKETCHINC
 40
0.1
  9
$FILLETRAD
 40
0.0
  9
$AUNITS
 70
     0
  9
$AUPREC
 70
     0
  9
$MENU
  1
E:\r13\win\SUPPORT\ACAD
  9
$ELEVATION
 40
0.0
  9
$PELEVATION
 40
0.0
  9
$THICKNESS
 40
0.0
  9
$LIMCHECK
 70
     0
  9
$BLIPMODE
 70
     0
  9
$CHAMFERA
 40
0.0
  9
$CHAMFERB
 40
0.0
  9
$SKPOLY
 70
     0
  9
$TDCREATE
 40
2449839.8447916671
  9
$TDUPDATE
 40
2459207.6378195598
  9
$TDINDWG
 40
0.4364059838
  9
$TDUSRTIMER
 40
0.4364059838
  9
$USRTIMER
 70
     1
  9
$ANGBASE
 50
0.0
  9
$ANGDIR
 70
     0
  9
$PDMODE
 70
     0
  9
$PDSIZE
 40
0.0
  9
$PLINEWID
 40
0.0
  9
$COORDS
 70
     1
  9
$SPLFRAME
 70
     0
  9
$SPLINETYPE
 70
     6
  9
$SPLINESEGS
 70
     8
  9
$ATTDIA
 70
     0
  9
$ATTREQ
 70
     1
  9
$HANDLING
 70
     1
  9
$HANDSEED
  5
1AC5
  9
$SURFTAB1
 70
     6
  9
$SURFTAB2
 70
     6
  9
$SURFTYPE
 70
     6
  9
$SURFU
 70
     6
  9
$SURFV
 70
     6
  9
$UCSNAME
  2

  9
$UCSORG
 10
0.0
 20
0.0
 30
0.0
  9
$UCSXDIR
 10
1.0
 20
0.0
 30
0.0
  9
$UCSYDIR
 10
0.0
 20
1.0
 30
0.0
  9
$PUCSNAME
  2

  9
$PUCSORG
 10
0.0
 20
0.0
 30
0.0
  9
$PUCSXDIR
 10
1.0
 20
0.0
 30
0.0
  9
$PUCSYDIR
 10
0.0
 20
1.0
 30
0.0
  9
$USERI1
 70
     0
  9
$USERI2
 70
     1
  9
$USERI3
 70
     1
  9
$USERI4
 70
     0
  9
$USERI5
 70
     0
  9
$USERR1
 40
0.0
  9
$USERR2
 40
0.0
  9
$USERR3
 40
0.0
  9
$USERR4
 40
0.0
  9
$USERR5
 40
0.0
  9
$WORLDVIEW
 70
     1
  9
$SHADEDGE
 70
     3
  9
$SHADEDIF
 70
    70
  9
$TILEMODE
 70
     1
  9
$MAXACTVP
 70
    16
  9
$PLIMCHECK
 70
     0
  9
$PEXTMIN
 10
1.0000000000000000E+020
 20
1.0000000000000000E+020
 30
1.0000000000000000E+020
  9
$PEXTMAX
 10
-1.0000000000000000E+020
 20
-1.0000000000000000E+020
 30
-1.0000000000000000E+020
  9
$PLIMMIN
 10
0.0
 20
0.0
  9
$PLIMMAX
 10
12.0
 20
9.0
  9
$UNITMODE
 70
     0
  9
$VISRETAIN
 70
     0
  9
$PLINEGEN
 70
     0
  9
$PSLTSCALE
 70
     0
  0
ENDSEC
  0
SECTION
  2
TABLES
  0
TABLE
  2
VPORT
 70
     1
  0
VPORT
  2
*ACTIVE
 70
     0
 10
0.0
 20
0.0
 11
1.0
 21
1.0
 12
132.35294117647061
 22
50.0
 13
0.0
 23
0.0
 14
10.0
 24
10.0
 15
10.0
 25
10.0
 16
0.0
 26
0.0
 36
1.0
 17
0.0
 27
0.0
 37
0.0
 40
100.0
 41
2.6470588235294108
 42
50.0
 43
0.0
 44
0.0
 50
0.0
 51
0.0
 71
     0
 72
   500
 73
     1
 74
     0
 75
     0
 76
     0
 77
     0
 78
     2
  0
ENDTAB
  0
TABLE
  2
LTYPE
 70
     4
  0
LTYPE
  2
CONTINUOUS
 70
     0
  3
Solid Line
 72
    65
 73
     0
 40
0.0
  0
LTYPE
  2
CENTER
 70
     0
  3
____ _ ____ _ ____ _ ____ _ ____ _ ____ _ ____
 72
    65
 73
     4
 40
2.0
 49
1.25
 49
-0.25
 49
0.25
 49
-0.25
  0
LTYPE
  2
HIDDEN
 70
     0
  3
_ _ _ _ _ _ _ _ _ _ _ _ _ _ _ _ _ _ _ _ _ _ _
 72
    65
 73
     2
 40
0.375
 49
0.25
 49
-0.125
  0
LTYPE
  2
PHANTOM2
 70
     0
  3
___ _ _ ___ _ _ ___ _ _ ___ _ _
 72
    65
 73
     6
 40
1.25
 49
0.625
 49
-0.125
 49
0.125
 49
-0.125
 49
0.125
 49
-0.125
  0
ENDTAB
  0
TABLE
  2
LAYER
 70
     6
  0
LAYER
  2
0
 70
     0
 62
     7
  6
CONTINUOUS
  0
LAYER
  2
1
 70
     0
 62
     1
  6
CENTER
  0
LAYER
  2
2
 70
     0
 62
     2
  6
HIDDEN
  0
LAYER
  2
DEFPOINTS
 70
     0
 62
     7
  6
CONTINUOUS
  0
LAYER
  2
4
 70
     0
 62
     4
  6
CONTINUOUS
  0
LAYER
  2
3
 70
     0
 62
     3
  6
CONTINUOUS
  0
ENDTAB
  0
TABLE
  2
STYLE
 70
     2
  0
STYLE
  2
STANDARD
 70
     0
 40
0.0
 41
1.0
 50
0.0
 71
     0
 42
0.2
  3
TXT
  4
BIGFONT
  0
STYLE
  2
STANDARD1
 70
     0
 40
0.0
 41
1.0
 50
0.0
 71
     0
 42
3.0
  3
txt
  4

  0
ENDTAB
  0
TABLE
  2
VIEW
 70
     1
  0
VIEW
  2
ALL
 70
     0
 40
270.0
 10
220.99159663865549
 20
135.0
 41
0.0
 11
0.0
 21
0.0
 31
1.0
 12
0.0
 22
0.0
 32
0.0
 42
0.0
 43
0.0
 44
0.0
 50
0.0
 71
     0
  0
ENDTAB
  0
TABLE
  2
UCS
 70
     0
  0
ENDTAB
  0
TABLE
  2
APPID
 70
     9
  0
APPID
  2
ACAD
 70
     0
  0
APPID
  2
ACAD_MLEADERVER
 70
     0
  0
APPID
  2
ACAD_NAV_VCDISPLAY
 70
     0
  0
APPID
  2
ACAD_EXEMPT_FROM_CAD_STANDARDS
 70
     0
  0
APPID
  2
ACAD_DSTYLE_DIMJAG
 70
     0
  0
APPID
  2
ACAD_DSTYLE_DIMTALN
 70
     0
  0
APPID
  2
ACAECLAYERSTANDARD
 70
     0
  0
APPID
  2
ACCMTRANSPARENCY
 70
     0
  0
APPID
  2
DCO15
 70
     0
  0
ENDTAB
  0
TABLE
  2
DIMSTYLE
 70
     1
  0
DIMSTYLE
  2
STANDARD
 70
     0
  3

  4

  5

  6

  7

 40
1.0
 41
0.18
 42
0.0625
 43
0.38
 44
0.18
 45
0.0
 46
0.0
 47
0.0
 48
0.0
140
0.18
141
0.09
142
0.0
143
25.399999999999999
144
1.0
145
0.0
146
1.0
147
0.09
 71
     0
 72
     0
 73
     1
 74
     1
 75
     0
 76
     0
 77
     0
 78
     0
170
     0
171
     2
172
     0
173
     0
174
     0
175
     0
176
     0
177
     0
178
     0
  0
ENDTAB
  0
ENDSEC
  0
SECTION
  2
BLOCKS
  0
BLOCK
  8
0
  2
$MODEL_SPACE
 70
     0
 10
0.0
 20
0.0
 30
0.0
  3
$MODEL_SPACE
  1

  0
ENDBLK
  5
10E
  8
0
  0
BLOCK
 67
     1
  8
0
  2
$PAPER_SPACE
 70
     0
 10
0.0
 20
0.0
 30
0.0
  3
$PAPER_SPACE
  1

  0
ENDBLK
  5
10C
 67
     1
  8
0
  0
ENDSEC
  0
SECTION
  2
ENTITIES
  0
TEXT
  5
4DC
  8
0
 62
     3
 10
0.0
 20
0.0
 30
0.0
 40
5.0
  1
HD-CNC06
  7
STANDARD1
  0
LINE
  5
164B
  8
2
 10
58.0
 20
27.541499999999999
 30
0.0
 11
64.458500000000015
 21
27.54150000000001
 31
0.0
  0
LINE
  5
164C
  8
2
 10
64.458500000000015
 20
32.458500000000001
 30
0.0
 11
58.0
 21
32.458500000000001
 31
0.0
  0
LINE
  5
164D
  8
2
 10
58.0
 20
32.458500000000001
 30
0.0
 11
58.0
 21
27.541499999999999
 31
0.0
  0
LINE
  5
164E
  8
2
 10
56.58058436319731
 20
30.0
 30
0.0
 11
58.0
 21
27.541499999999999
 31
0.0
  0
LINE
  5
164F
  8
2
 10
58.0
 20
32.458500000000001
 30
0.0
 11
56.58058436319731
 21
30.0
 31
0.0
  0
LINE
  5
1650
  8
2
 10
64.458500000000015
 20
32.458500000000001
 30
0.0
 11
64.458500000000015
 21
27.54150000000001
 31
0.0
  0
LINE
  5
1651
  8
2
 10
64.458500000000015
 20
27.54150000000001
 30
0.0
 11
65.0
 21
27.000000000000011
 31
0.0
  0
LINE
  5
1652
  8
2
 10
65.0
 20
33.0
 30
0.0
 11
64.458500000000015
 21
32.458500000000001
 31
0.0
  0
POLYLINE
  5
1653
  8
0
 66
     1
 10
0.0
 20
0.0
 30
0.0
  0
VERTEX
  5
180F
  8
0
 10
63.794800159963103
 20
24.903847577293359
 30
0.0
  0
VERTEX
  5
1810
  8
0
 10
63.827925927900957
 20
24.877444811608669
 30
0.0
  0
VERTEX
  5
1811
  8
0
 10
63.865859907470451
 20
24.840820028287879
 30
0.0
  0
VERTEX
  5
1812
  8
0
 10
63.897254099387759
 20
24.803626712460598
 30
0.0
  0
VERTEX
  5
1813
  8
0
 10
63.945058888795501
 20
24.727865279286071
 30
0.0
  0
VERTEX
  5
1814
  8
0
 10
63.971200783664642
 20
24.667313626494622
 30
0.0
  0
VERTEX
  5
1815
  8
0
 10
63.987938155417822
 20
24.609162065240032
 30
0.0
  0
VERTEX
  5
1816
  8
0
 10
63.997193854756802
 20
24.553000762547651
 30
0.0
  0
VERTEX
  5
1817
  8
0
 10
64.0
 20
24.5
 30
0.0
  0
SEQEND
  5
1818
  8
0
  0
POLYLINE
  5
1654
  8
0
 66
     1
 10
0.0
 20
0.0
 30
0.0
  0
VERTEX
  5
1819
  8
0
 10
64.0
 20
35.5
 30
0.0
  0
VERTEX
  5
181A
  8
0
 10
63.996748554828137
 20
35.442940977120493
 30
0.0
  0
VERTEX
  5
181B
  8
0
 10
63.985938457787881
 20
35.382255296328239
 30
0.0
  0
VERTEX
  5
181C
  8
0
 10
63.965391933203541
 20
35.317102085631603
 30
0.0
  0
VERTEX
  5
181D
  8
0
 10
63.932550173969162
 20
35.24920058412782
 30
0.0
  0
VERTEX
  5
181E
  8
0
 10
63.892006973415107
 20
35.189628395638479
 30
0.0
  0
VERTEX
  5
181F
  8
0
 10
63.835802470148373
 20
35.129545278013254
 30
0.0
  0
VERTEX
  5
1820
  8
0
 10
63.794800159963103
 20
35.096152422706638
 30
0.0
  0
SEQEND
  5
1821
  8
0
  0
LINE
  5
1655
  8
0
 10
63.5
 20
35.0
 30
0.0
 11
56.801315846429333
 21
35.0
 31
0.0
  0
ARC
  5
1656
  8
0
 10
71.999999999999943
 20
30.0
 30
0.0
 40
15.999999999999931
 50
161.7900431357171
 51
198.2099568642829
  0
LINE
  5
1657
  8
0
 10
56.801315846429333
 20
25.0
 30
0.0
 11
63.5
 21
25.0
 31
0.0
  0
POLYLINE
  5
1658
  8
0
 10
57.077980476267072
 20
29.999999999999993
 30
0.0
 66
     1
 70
     8
  0
VERTEX
  8
0
  5
18BD
 10
57.0780
 20
30.0000
 30
0.000000
  70
    32
  0
VERTEX
  8
0
  5
18BE
 10
57.0694
 20
29.9614
 30
0.000000
  70
    32
  0
VERTEX
  8
0
  5
18BF
 10
57.0610
 20
29.9228
 30
0.000000
  70
    32
  0
VERTEX
  8
0
  5
18C0
 10
57.0527
 20
29.8841
 30
0.000000
  70
    32
  0
VERTEX
  8
0
  5
18C1
 10
57.0446
 20
29.8455
 30
0.000000
  70
    32
  0
VERTEX
  8
0
  5
18C2
 10
57.0365
 20
29.8068
 30
0.000000
  70
    32
  0
VERTEX
  8
0
  5
18C3
 10
57.0287
 20
29.7681
 30
0.000000
  70
    32
  0
VERTEX
  8
0
  5
18C4
 10
57.0209
 20
29.7294
 30
0.000000
  70
    32
  0
VERTEX
  8
0
  5
18C5
 10
57.0133
 20
29.6906
 30
0.000000
  70
    32
  0
VERTEX
  8
0
  5
18C6
 10
57.0058
 20
29.6519
 30
0.000000
  70
    32
  0
VERTEX
  8
0
  5
18C7
 10
56.9985
 20
29.6131
 30
0.000000
  70
    32
  0
VERTEX
  8
0
  5
18C8
 10
56.9912
 20
29.5743
 30
0.000000
  70
    32
  0
VERTEX
  8
0
  5
18C9
 10
56.9841
 20
29.5355
 30
0.000000
  70
    32
  0
VERTEX
  8
0
  5
18CA
 10
56.9772
 20
29.4966
 30
0.000000
  70
    32
  0
VERTEX
  8
0
  5
18CB
 10
56.9704
 20
29.4578
 30
0.000000
  70
    32
  0
VERTEX
  8
0
  5
18CC
 10
56.9637
 20
29.4189
 30
0.000000
  70
    32
  0
VERTEX
  8
0
  5
18CD
 10
56.9571
 20
29.3800
 30
0.000000
  70
    32
  0
VERTEX
  8
0
  5
18CE
 10
56.9507
 20
29.3411
 30
0.000000
  70
    32
  0
VERTEX
  8
0
  5
18CF
 10
56.9445
 20
29.3022
 30
0.000000
  70
    32
  0
VERTEX
  8
0
  5
18D0
 10
56.9383
 20
29.2632
 30
0.000000
  70
    32
  0
VERTEX
  8
0
  5
18D1
 10
56.9323
 20
29.2243
 30
0.000000
  70
    32
  0
VERTEX
  8
0
  5
18D2
 10
56.9264
 20
29.1853
 30
0.000000
  70
    32
  0
VERTEX
  8
0
  5
18D3
 10
56.9207
 20
29.1463
 30
0.000000
  70
    32
  0
VERTEX
  8
0
  5
18D4
 10
56.9151
 20
29.1073
 30
0.000000
  70
    32
  0
VERTEX
  8
0
  5
18D5
 10
56.9096
 20
29.0683
 30
0.000000
  70
    32
  0
VERTEX
  8
0
  5
18D6
 10
56.9042
 20
29.0293
 30
0.000000
  70
    32
  0
VERTEX
  8
0
  5
18D7
 10
56.8990
 20
28.9902
 30
0.000000
  70
    32
  0
VERTEX
  8
0
  5
18D8
 10
56.8940
 20
28.9512
 30
0.000000
  70
    32
  0
VERTEX
  8
0
  5
18D9
 10
56.8890
 20
28.9121
 30
0.000000
  70
    32
  0
VERTEX
  8
0
  5
18DA
 10
56.8842
 20
28.8730
 30
0.000000
  70
    32
  0
VERTEX
  8
0
  5
18DB
 10
56.8796
 20
28.8339
 30
0.000000
  70
    32
  0
VERTEX
  8
0
  5
18DC
 10
56.8750
 20
28.7948
 30
0.000000
  70
    32
  0
VERTEX
  8
0
  5
18DD
 10
56.8706
 20
28.7557
 30
0.000000
  70
    32
  0
VERTEX
  8
0
  5
18DE
 10
56.8664
 20
28.7166
 30
0.000000
  70
    32
  0
VERTEX
  8
0
  5
18DF
 10
56.8623
 20
28.6775
 30
0.000000
  70
    32
  0
VERTEX
  8
0
  5
18E0
 10
56.8583
 20
28.6383
 30
0.000000
  70
    32
  0
VERTEX
  8
0
  5
18E1
 10
56.8544
 20
28.5992
 30
0.000000
  70
    32
  0
VERTEX
  8
0
  5
18E2
 10
56.8507
 20
28.5600
 30
0.000000
  70
    32
  0
VERTEX
  8
0
  5
18E3
 10
56.8471
 20
28.5208
 30
0.000000
  70
    32
  0
VERTEX
  8
0
  5
18E4
 10
56.8436
 20
28.4816
 30
0.000000
  70
    32
  0
VERTEX
  8
0
  5
18E5
 10
56.8403
 20
28.4424
 30
0.000000
  70
    32
  0
VERTEX
  8
0
  5
18E6
 10
56.8371
 20
28.4032
 30
0.000000
  70
    32
  0
VERTEX
  8
0
  5
18E7
 10
56.8341
 20
28.3640
 30
0.000000
  70
    32
  0
VERTEX
  8
0
  5
18E8
 10
56.8312
 20
28.3248
 30
0.000000
  70
    32
  0
VERTEX
  8
0
  5
18E9
 10
56.8284
 20
28.2856
 30
0.000000
  70
    32
  0
VERTEX
  8
0
  5
18EA
 10
56.8258
 20
28.2463
 30
0.000000
  70
    32
  0
VERTEX
  8
0
  5
18EB
 10
56.8233
 20
28.2071
 30
0.000000
  70
    32
  0
VERTEX
  8
0
  5
18EC
 10
56.8209
 20
28.1678
 30
0.000000
  70
    32
  0
VERTEX
  8
0
  5
18ED
 10
56.8187
 20
28.1286
 30
0.000000
  70
    32
  0
VERTEX
  8
0
  5
18EE
 10
56.8166
 20
28.0893
 30
0.000000
  70
    32
  0
VERTEX
  8
0
  5
18EF
 10
56.8146
 20
28.0501
 30
0.000000
  70
    32
  0
VERTEX
  8
0
  5
18F0
 10
56.8128
 20
28.0108
 30
0.000000
  70
    32
  0
VERTEX
  8
0
  5
18F1
 10
56.8111
 20
27.9715
 30
0.000000
  70
    32
  0
VERTEX
  8
0
  5
18F2
 10
56.8095
 20
27.9322
 30
0.000000
  70
    32
  0
VERTEX
  8
0
  5
18F3
 10
56.8081
 20
27.8930
 30
0.000000
  70
    32
  0
VERTEX
  8
0
  5
18F4
 10
56.8068
 20
27.8537
 30
0.000000
  70
    32
  0
VERTEX
  8
0
  5
18F5
 10
56.8057
 20
27.8144
 30
0.000000
  70
    32
  0
VERTEX
  8
0
  5
18F6
 10
56.8046
 20
27.7751
 30
0.000000
  70
    32
  0
VERTEX
  8
0
  5
18F7
 10
56.8038
 20
27.7358
 30
0.000000
  70
    32
  0
VERTEX
  8
0
  5
18F8
 10
56.8030
 20
27.6965
 30
0.000000
  70
    32
  0
VERTEX
  8
0
  5
18F9
 10
56.8024
 20
27.6572
 30
0.000000
  70
    32
  0
VERTEX
  8
0
  5
18FA
 10
56.8019
 20
27.6179
 30
0.000000
  70
    32
  0
VERTEX
  8
0
  5
18FB
 10
56.8016
 20
27.5786
 30
0.000000
  70
    32
  0
VERTEX
  8
0
  5
18FC
 10
56.8014
 20
27.5393
 30
0.000000
  70
    32
  0
VERTEX
  8
0
  5
18FD
 10
56.8013
 20
27.5000
 30
0.000000
  70
    32
  0
VERTEX
  8
0
  5
18FE
 10
56.8014
 20
27.4607
 30
0.000000
  70
    32
  0
VERTEX
  8
0
  5
18FF
 10
56.8016
 20
27.4214
 30
0.000000
  70
    32
  0
VERTEX
  8
0
  5
1900
 10
56.8019
 20
27.3821
 30
0.000000
  70
    32
  0
VERTEX
  8
0
  5
1901
 10
56.8024
 20
27.3428
 30
0.000000
  70
    32
  0
VERTEX
  8
0
  5
1902
 10
56.8030
 20
27.3035
 30
0.000000
  70
    32
  0
VERTEX
  8
0
  5
1903
 10
56.8038
 20
27.2642
 30
0.000000
  70
    32
  0
VERTEX
  8
0
  5
1904
 10
56.8046
 20
27.2249
 30
0.000000
  70
    32
  0
VERTEX
  8
0
  5
1905
 10
56.8057
 20
27.1856
 30
0.000000
  70
    32
  0
VERTEX
  8
0
  5
1906
 10
56.8068
 20
27.1463
 30
0.000000
  70
    32
  0
VERTEX
  8
0
  5
1907
 10
56.8081
 20
27.1070
 30
0.000000
  70
    32
  0
VERTEX
  8
0
  5
1908
 10
56.8095
 20
27.0678
 30
0.000000
  70
    32
  0
VERTEX
  8
0
  5
1909
 10
56.8111
 20
27.0285
 30
0.000000
  70
    32
  0
VERTEX
  8
0
  5
190A
 10
56.8128
 20
26.9892
 30
0.000000
  70
    32
  0
VERTEX
  8
0
  5
190B
 10
56.8146
 20
26.9499
 30
0.000000
  70
    32
  0
VERTEX
  8
0
  5
190C
 10
56.8166
 20
26.9107
 30
0.000000
  70
    32
  0
VERTEX
  8
0
  5
190D
 10
56.8187
 20
26.8714
 30
0.000000
  70
    32
  0
VERTEX
  8
0
  5
190E
 10
56.8209
 20
26.8322
 30
0.000000
  70
    32
  0
VERTEX
  8
0
  5
190F
 10
56.8233
 20
26.7929
 30
0.000000
  70
    32
  0
VERTEX
  8
0
  5
1910
 10
56.8258
 20
26.7537
 30
0.000000
  70
    32
  0
VERTEX
  8
0
  5
1911
 10
56.8284
 20
26.7144
 30
0.000000
  70
    32
  0
VERTEX
  8
0
  5
1912
 10
56.8312
 20
26.6752
 30
0.000000
  70
    32
  0
VERTEX
  8
0
  5
1913
 10
56.8341
 20
26.6360
 30
0.000000
  70
    32
  0
VERTEX
  8
0
  5
1914
 10
56.8371
 20
26.5968
 30
0.000000
  70
    32
  0
VERTEX
  8
0
  5
1915
 10
56.8403
 20
26.5576
 30
0.000000
  70
    32
  0
VERTEX
  8
0
  5
1916
 10
56.8436
 20
26.5184
 30
0.000000
  70
    32
  0
VERTEX
  8
0
  5
1917
 10
56.8471
 20
26.4792
 30
0.000000
  70
    32
  0
VERTEX
  8
0
  5
1918
 10
56.8507
 20
26.4400
 30
0.000000
  70
    32
  0
VERTEX
  8
0
  5
1919
 10
56.8544
 20
26.4008
 30
0.000000
  70
    32
  0
VERTEX
  8
0
  5
191A
 10
56.8583
 20
26.3617
 30
0.000000
  70
    32
  0
VERTEX
  8
0
  5
191B
 10
56.8623
 20
26.3225
 30
0.000000
  70
    32
  0
VERTEX
  8
0
  5
191C
 10
56.8664
 20
26.2834
 30
0.000000
  70
    32
  0
VERTEX
  8
0
  5
191D
 10
56.8706
 20
26.2443
 30
0.000000
  70
    32
  0
VERTEX
  8
0
  5
191E
 10
56.8750
 20
26.2052
 30
0.000000
  70
    32
  0
VERTEX
  8
0
  5
191F
 10
56.8796
 20
26.1661
 30
0.000000
  70
    32
  0
VERTEX
  8
0
  5
1920
 10
56.8842
 20
26.1270
 30
0.000000
  70
    32
  0
VERTEX
  8
0
  5
1921
 10
56.8890
 20
26.0879
 30
0.000000
  70
    32
  0
VERTEX
  8
0
  5
1922
 10
56.8940
 20
26.0488
 30
0.000000
  70
    32
  0
VERTEX
  8
0
  5
1923
 10
56.8990
 20
26.0098
 30
0.000000
  70
    32
  0
VERTEX
  8
0
  5
1924
 10
56.9042
 20
25.9707
 30
0.000000
  70
    32
  0
VERTEX
  8
0
  5
1925
 10
56.9096
 20
25.9317
 30
0.000000
  70
    32
  0
VERTEX
  8
0
  5
1926
 10
56.9151
 20
25.8927
 30
0.000000
  70
    32
  0
VERTEX
  8
0
  5
1927
 10
56.9207
 20
25.8537
 30
0.000000
  70
    32
  0
VERTEX
  8
0
  5
1928
 10
56.9264
 20
25.8147
 30
0.000000
  70
    32
  0
VERTEX
  8
0
  5
1929
 10
56.9323
 20
25.7757
 30
0.000000
  70
    32
  0
VERTEX
  8
0
  5
192A
 10
56.9383
 20
25.7368
 30
0.000000
  70
    32
  0
VERTEX
  8
0
  5
192B
 10
56.9445
 20
25.6978
 30
0.000000
  70
    32
  0
VERTEX
  8
0
  5
192C
 10
56.9507
 20
25.6589
 30
0.000000
  70
    32
  0
VERTEX
  8
0
  5
192D
 10
56.9571
 20
25.6200
 30
0.000000
  70
    32
  0
VERTEX
  8
0
  5
192E
 10
56.9637
 20
25.5811
 30
0.000000
  70
    32
  0
VERTEX
  8
0
  5
192F
 10
56.9704
 20
25.5422
 30
0.000000
  70
    32
  0
VERTEX
  8
0
  5
1930
 10
56.9772
 20
25.5034
 30
0.000000
  70
    32
  0
VERTEX
  8
0
  5
1931
 10
56.9841
 20
25.4645
 30
0.000000
  70
    32
  0
VERTEX
  8
0
  5
1932
 10
56.9912
 20
25.4257
 30
0.000000
  70
    32
  0
VERTEX
  8
0
  5
1933
 10
56.9985
 20
25.3869
 30
0.000000
  70
    32
  0
VERTEX
  8
0
  5
1934
 10
57.0058
 20
25.3481
 30
0.000000
  70
    32
  0
VERTEX
  8
0
  5
1935
 10
57.0133
 20
25.3094
 30
0.000000
  70
    32
  0
VERTEX
  8
0
  5
1936
 10
57.0209
 20
25.2706
 30
0.000000
  70
    32
  0
VERTEX
  8
0
  5
1937
 10
57.0287
 20
25.2319
 30
0.000000
  70
    32
  0
VERTEX
  8
0
  5
1938
 10
57.0365
 20
25.1932
 30
0.000000
  70
    32
  0
VERTEX
  8
0
  5
1939
 10
57.0446
 20
25.1545
 30
0.000000
  70
    32
  0
VERTEX
  8
0
  5
193A
 10
57.0527
 20
25.1159
 30
0.000000
  70
    32
  0
VERTEX
  8
0
  5
193B
 10
57.0610
 20
25.0772
 30
0.000000
  70
    32
  0
VERTEX
  8
0
  5
193C
 10
57.0694
 20
25.0386
 30
0.000000
  70
    32
  0
VERTEX
  8
0
  5
193D
 10
57.0780
 20
25.0000
 30
0.000000
  70
    32
  0
SEQEND
  8
0
  5
193E
  0
POLYLINE
  5
1659
  8
0
 10
57.077980476267065
 20
35.000000000000007
 30
0.0
 66
     1
 70
     8
  0
VERTEX
  8
0
  5
193F
 10
57.0780
 20
35.0000
 30
0.000000
  70
    32
  0
VERTEX
  8
0
  5
1940
 10
57.0694
 20
34.9614
 30
0.000000
  70
    32
  0
VERTEX
  8
0
  5
1941
 10
57.0610
 20
34.9228
 30
0.000000
  70
    32
  0
VERTEX
  8
0
  5
1942
 10
57.0527
 20
34.8841
 30
0.000000
  70
    32
  0
VERTEX
  8
0
  5
1943
 10
57.0446
 20
34.8455
 30
0.000000
  70
    32
  0
VERTEX
  8
0
  5
1944
 10
57.0365
 20
34.8068
 30
0.000000
  70
    32
  0
VERTEX
  8
0
  5
1945
 10
57.0287
 20
34.7681
 30
0.000000
  70
    32
  0
VERTEX
  8
0
  5
1946
 10
57.0209
 20
34.7294
 30
0.000000
  70
    32
  0
VERTEX
  8
0
  5
1947
 10
57.0133
 20
34.6906
 30
0.000000
  70
    32
  0
VERTEX
  8
0
  5
1948
 10
57.0058
 20
34.6519
 30
0.000000
  70
    32
  0
VERTEX
  8
0
  5
1949
 10
56.9985
 20
34.6131
 30
0.000000
  70
    32
  0
VERTEX
  8
0
  5
194A
 10
56.9912
 20
34.5743
 30
0.000000
  70
    32
  0
VERTEX
  8
0
  5
194B
 10
56.9841
 20
34.5355
 30
0.000000
  70
    32
  0
VERTEX
  8
0
  5
194C
 10
56.9772
 20
34.4966
 30
0.000000
  70
    32
  0
VERTEX
  8
0
  5
194D
 10
56.9704
 20
34.4578
 30
0.000000
  70
    32
  0
VERTEX
  8
0
  5
194E
 10
56.9637
 20
34.4189
 30
0.000000
  70
    32
  0
VERTEX
  8
0
  5
194F
 10
56.9571
 20
34.3800
 30
0.000000
  70
    32
  0
VERTEX
  8
0
  5
1950
 10
56.9507
 20
34.3411
 30
0.000000
  70
    32
  0
VERTEX
  8
0
  5
1951
 10
56.9445
 20
34.3022
 30
0.000000
  70
    32
  0
VERTEX
  8
0
  5
1952
 10
56.9383
 20
34.2632
 30
0.000000
  70
    32
  0
VERTEX
  8
0
  5
1953
 10
56.9323
 20
34.2243
 30
0.000000
  70
    32
  0
VERTEX
  8
0
  5
1954
 10
56.9264
 20
34.1853
 30
0.000000
  70
    32
  0
VERTEX
  8
0
  5
1955
 10
56.9207
 20
34.1463
 30
0.000000
  70
    32
  0
VERTEX
  8
0
  5
1956
 10
56.9151
 20
34.1073
 30
0.000000
  70
    32
  0
VERTEX
  8
0
  5
1957
 10
56.9096
 20
34.0683
 30
0.000000
  70
    32
  0
VERTEX
  8
0
  5
1958
 10
56.9042
 20
34.0293
 30
0.000000
  70
    32
  0
VERTEX
  8
0
  5
1959
 10
56.8990
 20
33.9902
 30
0.000000
  70
    32
  0
VERTEX
  8
0
  5
195A
 10
56.8940
 20
33.9512
 30
0.000000
  70
    32
  0
VERTEX
  8
0
  5
195B
 10
56.8890
 20
33.9121
 30
0.000000
  70
    32
  0
VERTEX
  8
0
  5
195C
 10
56.8842
 20
33.8730
 30
0.000000
  70
    32
  0
VERTEX
  8
0
  5
195D
 10
56.8796
 20
33.8339
 30
0.000000
  70
    32
  0
VERTEX
  8
0
  5
195E
 10
56.8750
 20
33.7948
 30
0.000000
  70
    32
  0
VERTEX
  8
0
  5
195F
 10
56.8706
 20
33.7557
 30
0.000000
  70
    32
  0
VERTEX
  8
0
  5
1960
 10
56.8664
 20
33.7166
 30
0.000000
  70
    32
  0
VERTEX
  8
0
  5
1961
 10
56.8623
 20
33.6775
 30
0.000000
  70
    32
  0
VERTEX
  8
0
  5
1962
 10
56.8583
 20
33.6383
 30
0.000000
  70
    32
  0
VERTEX
  8
0
  5
1963
 10
56.8544
 20
33.5992
 30
0.000000
  70
    32
  0
VERTEX
  8
0
  5
1964
 10
56.8507
 20
33.5600
 30
0.000000
  70
    32
  0
VERTEX
  8
0
  5
1965
 10
56.8471
 20
33.5208
 30
0.000000
  70
    32
  0
VERTEX
  8
0
  5
1966
 10
56.8436
 20
33.4816
 30
0.000000
  70
    32
  0
VERTEX
  8
0
  5
1967
 10
56.8403
 20
33.4424
 30
0.000000
  70
    32
  0
VERTEX
  8
0
  5
1968
 10
56.8371
 20
33.4032
 30
0.000000
  70
    32
  0
VERTEX
  8
0
  5
1969
 10
56.8341
 20
33.3640
 30
0.000000
  70
    32
  0
VERTEX
  8
0
  5
196A
 10
56.8312
 20
33.3248
 30
0.000000
  70
    32
  0
VERTEX
  8
0
  5
196B
 10
56.8284
 20
33.2856
 30
0.000000
  70
    32
  0
VERTEX
  8
0
  5
196C
 10
56.8258
 20
33.2463
 30
0.000000
  70
    32
  0
VERTEX
  8
0
  5
196D
 10
56.8233
 20
33.2071
 30
0.000000
  70
    32
  0
VERTEX
  8
0
  5
196E
 10
56.8209
 20
33.1678
 30
0.000000
  70
    32
  0
VERTEX
  8
0
  5
196F
 10
56.8187
 20
33.1286
 30
0.000000
  70
    32
  0
VERTEX
  8
0
  5
1970
 10
56.8166
 20
33.0893
 30
0.000000
  70
    32
  0
VERTEX
  8
0
  5
1971
 10
56.8146
 20
33.0501
 30
0.000000
  70
    32
  0
VERTEX
  8
0
  5
1972
 10
56.8128
 20
33.0108
 30
0.000000
  70
    32
  0
VERTEX
  8
0
  5
1973
 10
56.8111
 20
32.9715
 30
0.000000
  70
    32
  0
VERTEX
  8
0
  5
1974
 10
56.8095
 20
32.9322
 30
0.000000
  70
    32
  0
VERTEX
  8
0
  5
1975
 10
56.8081
 20
32.8930
 30
0.000000
  70
    32
  0
VERTEX
  8
0
  5
1976
 10
56.8068
 20
32.8537
 30
0.000000
  70
    32
  0
VERTEX
  8
0
  5
1977
 10
56.8057
 20
32.8144
 30
0.000000
  70
    32
  0
VERTEX
  8
0
  5
1978
 10
56.8046
 20
32.7751
 30
0.000000
  70
    32
  0
VERTEX
  8
0
  5
1979
 10
56.8038
 20
32.7358
 30
0.000000
  70
    32
  0
VERTEX
  8
0
  5
197A
 10
56.8030
 20
32.6965
 30
0.000000
  70
    32
  0
VERTEX
  8
0
  5
197B
 10
56.8024
 20
32.6572
 30
0.000000
  70
    32
  0
VERTEX
  8
0
  5
197C
 10
56.8019
 20
32.6179
 30
0.000000
  70
    32
  0
VERTEX
  8
0
  5
197D
 10
56.8016
 20
32.5786
 30
0.000000
  70
    32
  0
VERTEX
  8
0
  5
197E
 10
56.8014
 20
32.5393
 30
0.000000
  70
    32
  0
VERTEX
  8
0
  5
197F
 10
56.8013
 20
32.5000
 30
0.000000
  70
    32
  0
VERTEX
  8
0
  5
1980
 10
56.8014
 20
32.4607
 30
0.000000
  70
    32
  0
VERTEX
  8
0
  5
1981
 10
56.8016
 20
32.4214
 30
0.000000
  70
    32
  0
VERTEX
  8
0
  5
1982
 10
56.8019
 20
32.3821
 30
0.000000
  70
    32
  0
VERTEX
  8
0
  5
1983
 10
56.8024
 20
32.3428
 30
0.000000
  70
    32
  0
VERTEX
  8
0
  5
1984
 10
56.8030
 20
32.3035
 30
0.000000
  70
    32
  0
VERTEX
  8
0
  5
1985
 10
56.8038
 20
32.2642
 30
0.000000
  70
    32
  0
VERTEX
  8
0
  5
1986
 10
56.8046
 20
32.2249
 30
0.000000
  70
    32
  0
VERTEX
  8
0
  5
1987
 10
56.8057
 20
32.1856
 30
0.000000
  70
    32
  0
VERTEX
  8
0
  5
1988
 10
56.8068
 20
32.1463
 30
0.000000
  70
    32
  0
VERTEX
  8
0
  5
1989
 10
56.8081
 20
32.1070
 30
0.000000
  70
    32
  0
VERTEX
  8
0
  5
198A
 10
56.8095
 20
32.0678
 30
0.000000
  70
    32
  0
VERTEX
  8
0
  5
198B
 10
56.8111
 20
32.0285
 30
0.000000
  70
    32
  0
VERTEX
  8
0
  5
198C
 10
56.8128
 20
31.9892
 30
0.000000
  70
    32
  0
VERTEX
  8
0
  5
198D
 10
56.8146
 20
31.9499
 30
0.000000
  70
    32
  0
VERTEX
  8
0
  5
198E
 10
56.8166
 20
31.9107
 30
0.000000
  70
    32
  0
VERTEX
  8
0
  5
198F
 10
56.8187
 20
31.8714
 30
0.000000
  70
    32
  0
VERTEX
  8
0
  5
1990
 10
56.8209
 20
31.8322
 30
0.000000
  70
    32
  0
VERTEX
  8
0
  5
1991
 10
56.8233
 20
31.7929
 30
0.000000
  70
    32
  0
VERTEX
  8
0
  5
1992
 10
56.8258
 20
31.7537
 30
0.000000
  70
    32
  0
VERTEX
  8
0
  5
1993
 10
56.8284
 20
31.7144
 30
0.000000
  70
    32
  0
VERTEX
  8
0
  5
1994
 10
56.8312
 20
31.6752
 30
0.000000
  70
    32
  0
VERTEX
  8
0
  5
1995
 10
56.8341
 20
31.6360
 30
0.000000
  70
    32
  0
VERTEX
  8
0
  5
1996
 10
56.8371
 20
31.5968
 30
0.000000
  70
    32
  0
VERTEX
  8
0
  5
1997
 10
56.8403
 20
31.5576
 30
0.000000
  70
    32
  0
VERTEX
  8
0
  5
1998
 10
56.8436
 20
31.5184
 30
0.000000
  70
    32
  0
VERTEX
  8
0
  5
1999
 10
56.8471
 20
31.4792
 30
0.000000
  70
    32
  0
VERTEX
  8
0
  5
199A
 10
56.8507
 20
31.4400
 30
0.000000
  70
    32
  0
VERTEX
  8
0
  5
199B
 10
56.8544
 20
31.4008
 30
0.000000
  70
    32
  0
VERTEX
  8
0
  5
199C
 10
56.8583
 20
31.3617
 30
0.000000
  70
    32
  0
VERTEX
  8
0
  5
199D
 10
56.8623
 20
31.3225
 30
0.000000
  70
    32
  0
VERTEX
  8
0
  5
199E
 10
56.8664
 20
31.2834
 30
0.000000
  70
    32
  0
VERTEX
  8
0
  5
199F
 10
56.8706
 20
31.2443
 30
0.000000
  70
    32
  0
VERTEX
  8
0
  5
19A0
 10
56.8750
 20
31.2052
 30
0.000000
  70
    32
  0
VERTEX
  8
0
  5
19A1
 10
56.8796
 20
31.1661
 30
0.000000
  70
    32
  0
VERTEX
  8
0
  5
19A2
 10
56.8842
 20
31.1270
 30
0.000000
  70
    32
  0
VERTEX
  8
0
  5
19A3
 10
56.8890
 20
31.0879
 30
0.000000
  70
    32
  0
VERTEX
  8
0
  5
19A4
 10
56.8940
 20
31.0488
 30
0.000000
  70
    32
  0
VERTEX
  8
0
  5
19A5
 10
56.8990
 20
31.0098
 30
0.000000
  70
    32
  0
VERTEX
  8
0
  5
19A6
 10
56.9042
 20
30.9707
 30
0.000000
  70
    32
  0
VERTEX
  8
0
  5
19A7
 10
56.9096
 20
30.9317
 30
0.000000
  70
    32
  0
VERTEX
  8
0
  5
19A8
 10
56.9151
 20
30.8927
 30
0.000000
  70
    32
  0
VERTEX
  8
0
  5
19A9
 10
56.9207
 20
30.8537
 30
0.000000
  70
    32
  0
VERTEX
  8
0
  5
19AA
 10
56.9264
 20
30.8147
 30
0.000000
  70
    32
  0
VERTEX
  8
0
  5
19AB
 10
56.9323
 20
30.7757
 30
0.000000
  70
    32
  0
VERTEX
  8
0
  5
19AC
 10
56.9383
 20
30.7368
 30
0.000000
  70
    32
  0
VERTEX
  8
0
  5
19AD
 10
56.9445
 20
30.6978
 30
0.000000
  70
    32
  0
VERTEX
  8
0
  5
19AE
 10
56.9507
 20
30.6589
 30
0.000000
  70
    32
  0
VERTEX
  8
0
  5
19AF
 10
56.9571
 20
30.6200
 30
0.000000
  70
    32
  0
VERTEX
  8
0
  5
19B0
 10
56.9637
 20
30.5811
 30
0.000000
  70
    32
  0
VERTEX
  8
0
  5
19B1
 10
56.9704
 20
30.5422
 30
0.000000
  70
    32
  0
VERTEX
  8
0
  5
19B2
 10
56.9772
 20
30.5034
 30
0.000000
  70
    32
  0
VERTEX
  8
0
  5
19B3
 10
56.9841
 20
30.4645
 30
0.000000
  70
    32
  0
VERTEX
  8
0
  5
19B4
 10
56.9912
 20
30.4257
 30
0.000000
  70
    32
  0
VERTEX
  8
0
  5
19B5
 10
56.9985
 20
30.3869
 30
0.000000
  70
    32
  0
VERTEX
  8
0
  5
19B6
 10
57.0058
 20
30.3481
 30
0.000000
  70
    32
  0
VERTEX
  8
0
  5
19B7
 10
57.0133
 20
30.3094
 30
0.000000
  70
    32
  0
VERTEX
  8
0
  5
19B8
 10
57.0209
 20
30.2706
 30
0.000000
  70
    32
  0
VERTEX
  8
0
  5
19B9
 10
57.0287
 20
30.2319
 30
0.000000
  70
    32
  0
VERTEX
  8
0
  5
19BA
 10
57.0365
 20
30.1932
 30
0.000000
  70
    32
  0
VERTEX
  8
0
  5
19BB
 10
57.0446
 20
30.1545
 30
0.000000
  70
    32
  0
VERTEX
  8
0
  5
19BC
 10
57.0527
 20
30.1159
 30
0.000000
  70
    32
  0
VERTEX
  8
0
  5
19BD
 10
57.0610
 20
30.0772
 30
0.000000
  70
    32
  0
VERTEX
  8
0
  5
19BE
 10
57.0694
 20
30.0386
 30
0.000000
  70
    32
  0
VERTEX
  8
0
  5
19BF
 10
57.0780
 20
30.0000
 30
0.000000
  70
    32
  0
SEQEND
  8
0
  5
19C0
  0
LINE
  5
165A
  8
0
 10
63.794800159963131
 20
30.0
 30
0.0
 11
57.077980476267072
 21
30.0
 31
0.0
  0
POLYLINE
  5
165C
  8
0
 66
     1
 10
0.0
 20
0.0
 30
0.0
  0
VERTEX
  5
1822
  8
0
 10
63.794800159963103
 20
24.903847577293359
 30
0.0
  0
VERTEX
  5
1823
  8
0
 10
63.758480720796001
 20
24.92800434224057
 30
0.0
  0
VERTEX
  5
1824
  8
0
 10
63.720194087268702
 20
24.948903735707219
 30
0.0
  0
VERTEX
  5
1825
  8
0
 10
63.680231643780502
 20
24.966386700689661
 30
0.0
  0
VERTEX
  5
1826
  8
0
 10
63.638897528656258
 20
24.98032018126786
 30
0.0
  0
VERTEX
  5
1827
  8
0
 10
63.596506319470301
 20
24.99059813524136
 30
0.0
  0
VERTEX
  5
1828
  8
0
 10
63.553380638921091
 20
24.99714234117441
 30
0.0
  0
VERTEX
  5
1829
  8
0
 10
63.509848699477573
 20
24.999902993708378
 30
0.0
  0
VERTEX
  5
182A
  8
0
 10
63.5
 20
25.0
 30
0.0
  0
SEQEND
  5
182B
  8
0
  0
POLYLINE
  5
165D
  8
0
 66
     1
 10
0.0
 20
0.0
 30
0.0
  0
VERTEX
  5
182C
  8
0
 10
64.0
 20
25.43802055324608
 30
0.0
  0
VERTEX
  5
182D
  8
0
 10
63.996748554828137
 20
25.341640980640449
 30
0.0
  0
VERTEX
  5
182E
  8
0
 10
63.985938457787881
 20
25.248710838915429
 30
0.0
  0
VERTEX
  5
182F
  8
0
 10
63.965391933203541
 20
25.15810108186626
 30
0.0
  0
VERTEX
  5
1830
  8
0
 10
63.932550173969162
 20
25.07210002353704
 30
0.0
  0
VERTEX
  5
1831
  8
0
 10
63.892006973415107
 20
25.002772983399261
 30
0.0
  0
VERTEX
  5
1832
  8
0
 10
63.835802470148373
 20
24.9379101112096
 30
0.0
  0
VERTEX
  5
1833
  8
0
 10
63.794800159963103
 20
24.903847577293359
 30
0.0
  0
SEQEND
  5
1834
  8
0
  0
POLYLINE
  5
165E
  8
0
 66
     1
 10
0.0
 20
0.0
 30
0.0
  0
VERTEX
  5
1835
  8
0
 10
63.794800159963131
 20
30.0
 30
0.0
  0
VERTEX
  5
1836
  8
0
 10
63.827925927900928
 20
29.946777583002909
 30
0.0
  0
VERTEX
  5
1837
  8
0
 10
63.865859907470423
 20
29.871509728223799
 30
0.0
  0
VERTEX
  5
1838
  8
0
 10
63.89725409938773
 20
29.79326647261562
 30
0.0
  0
VERTEX
  5
1839
  8
0
 10
63.945058888795501
 20
29.627605789733568
 30
0.0
  0
VERTEX
  5
183A
  8
0
 10
63.971200783664642
 20
29.488318062762009
 30
0.0
  0
VERTEX
  5
183B
  8
0
 10
63.987938155417822
 20
29.34784295570363
 30
0.0
  0
VERTEX
  5
183C
  8
0
 10
63.997193854756802
 20
29.204815466197079
 30
0.0
  0
VERTEX
  5
183D
  8
0
 10
64.0
 20
29.061979446753931
 30
0.0
  0
SEQEND
  5
183E
  8
0
  0
POLYLINE
  5
165F
  8
0
 66
     1
 10
0.0
 20
0.0
 30
0.0
  0
VERTEX
  5
183F
  8
0
 10
63.794800159963103
 20
35.096152422706638
 30
0.0
  0
VERTEX
  5
1840
  8
0
 10
63.827925927900928
 20
35.069332771394237
 30
0.0
  0
VERTEX
  5
1841
  8
0
 10
63.865859907470423
 20
35.03068969993592
 30
0.0
  0
VERTEX
  5
1842
  8
0
 10
63.89725409938773
 20
34.989639760155022
 30
0.0
  0
VERTEX
  5
1843
  8
0
 10
63.945058888795472
 20
34.899740510447522
 30
0.0
  0
VERTEX
  5
1844
  8
0
 10
63.971200783664607
 20
34.821004436267387
 30
0.0
  0
VERTEX
  5
1845
  8
0
 10
63.987938155417822
 20
34.738680890463598
 30
0.0
  0
VERTEX
  5
1846
  8
0
 10
63.997193854756802
 20
34.651814703649421
 30
0.0
  0
VERTEX
  5
1847
  8
0
 10
64.0
 20
34.561979446753917
 30
0.0
  0
SEQEND
  5
1848
  8
0
  0
POLYLINE
  5
1660
  8
0
 66
     1
 10
0.0
 20
0.0
 30
0.0
  0
VERTEX
  5
1849
  8
0
 10
63.5
 20
35.0
 30
0.0
  0
VERTEX
  5
184A
  8
0
 10
63.543577871373827
 20
35.001902650954143
 30
0.0
  0
VERTEX
  5
184B
  8
0
 10
63.586824088833481
 20
35.007596123493897
 30
0.0
  0
VERTEX
  5
184C
  8
0
 10
63.629409522551271
 20
35.017037086855467
 30
0.0
  0
VERTEX
  5
184D
  8
0
 10
63.671010071662828
 20
35.030153689607047
 30
0.0
  0
VERTEX
  5
184E
  8
0
 10
63.711309130870347
 20
35.046846106481681
 30
0.0
  0
VERTEX
  5
184F
  8
0
 10
63.75
 20
35.06698729810779
 30
0.0
  0
VERTEX
  5
1850
  8
0
 10
63.786788218175531
 20
35.090423977855508
 30
0.0
  0
VERTEX
  5
1851
  8
0
 10
63.794800159963103
 20
35.096152422706638
 30
0.0
  0
SEQEND
  5
1852
  8
0
  0
POLYLINE
  5
1661
  8
0
 66
     1
 10
0.0
 20
0.0
 30
0.0
  0
VERTEX
  5
1853
  8
0
 10
64.0
 20
30.93802055324608
 30
0.0
  0
VERTEX
  5
1854
  8
0
 10
63.996748554828137
 20
30.784581957760949
 30
0.0
  0
VERTEX
  5
1855
  8
0
 10
63.985938457787881
 20
30.630966135243671
 30
0.0
  0
VERTEX
  5
1856
  8
0
 10
63.965391933203541
 20
30.475203167497849
 30
0.0
  0
VERTEX
  5
1857
  8
0
 10
63.932550173969162
 20
30.32130060766486
 30
0.0
  0
VERTEX
  5
1858
  8
0
 10
63.892006973415072
 20
30.192401379037719
 30
0.0
  0
VERTEX
  5
1859
  8
0
 10
63.835802470148373
 20
30.06745538922285
 30
0.0
  0
VERTEX
  5
185A
  8
0
 10
63.794800159963131
 20
30.0
 30
0.0
  0
SEQEND
  5
185B
  8
0
  0
LINE
  5
1662
  8
0
 10
64.0
 20
35.884529946162083
 30
0.0
 11
64.0
 21
24.115470053837932
 31
0.0
  0
LINE
  5
1663
  8
0
 10
64.0
 20
24.115470053837932
 30
0.0
 11
64.200000000000017
 21
24.0
 31
0.0
  0
LINE
  5
1664
  8
0
 10
64.200000000000017
 20
36.0
 30
0.0
 11
64.0
 21
35.884529946162083
 31
0.0
  0
LINE
  5
1665
  8
0
 10
65.0
 20
36.0
 30
0.0
 11
65.000000000000028
 21
24.000000000000021
 31
0.0
  0
LINE
  5
1666
  8
0
 10
64.200000000000017
 20
24.000000000000021
 30
0.0
 11
65.000000000000028
 21
24.000000000000021
 31
0.0
  0
LINE
  5
1667
  8
0
 10
65.0
 20
36.0
 30
0.0
 11
64.200000000000017
 21
36.0
 31
0.0
  0
LINE
  5
1668
  8
0
 10
64.200000000000017
 20
36.0
 30
0.0
 11
64.200000000000017
 21
24.0
 31
0.0
  0
LINE
  5
1669
  8
2
 10
65.0
 20
33.0
 30
0.0
 11
59.0
 21
33.0
 31
0.0
  0
LINE
  5
166A
  8
2
 10
59.0
 20
27.0
 30
0.0
 11
59.0
 21
33.0
 31
0.0
  0
LINE
  5
166B
  8
2
 10
65.000000000000028
 20
27.0
 30
0.0
 11
59.0
 21
27.0
 31
0.0
  0
CIRCLE
  5
1675
  8
0
 10
30.0
 20
30.0
 30
0.0
 40
6.0
  0
LINE
  5
1680
  8
0
 10
24.115470053837932
 20
30.0
 30
0.0
 11
24.226497308103749
 21
30.0
 31
0.0
  0
LINE
  5
1684
  8
0
 10
27.057735026918952
 20
35.096152422706638
 30
0.0
 11
27.11324865405189
 21
35.0
 31
0.0
  0
LINE
  5
1688
  8
0
 10
27.113248654051858
 20
25.0
 30
0.0
 11
27.057735026918952
 21
24.90384757729338
 31
0.0
  0
LINE
  5
168C
  8
0
 10
32.942264973081024
 20
24.903847577293359
 30
0.0
 11
32.886751345948113
 21
25.0
 31
0.0
  0
LINE
  5
1690
  8
0
 10
32.886751345948113
 20
35.0
 30
0.0
 11
32.942264973081024
 21
35.096152422706638
 31
0.0
  0
LINE
  5
1691
  8
0
 10
35.884529946162083
 20
30.0
 30
0.0
 11
35.773502691896262
 21
30.0
 31
0.0
  0
LINE
  5
1695
  8
0
 10
32.886751345948113
 20
25.0
 30
0.0
 11
35.773502691896262
 21
30.0
 31
0.0
  0
LINE
  5
1696
  8
0
 10
35.773502691896262
 20
30.0
 30
0.0
 11
32.886751345948113
 21
35.0
 31
0.0
  0
LINE
  5
1697
  8
0
 10
32.886751345948113
 20
35.0
 30
0.0
 11
27.11324865405189
 21
35.0
 31
0.0
  0
LINE
  5
1698
  8
0
 10
27.11324865405189
 20
35.0
 30
0.0
 11
24.226497308103749
 21
30.0
 31
0.0
  0
LINE
  5
1699
  8
0
 10
24.226497308103749
 20
30.0
 30
0.0
 11
27.113248654051858
 21
25.0
 31
0.0
  0
LINE
  5
169A
  8
0
 10
27.113248654051858
 20
25.0
 30
0.0
 11
32.886751345948113
 21
25.0
 31
0.0
  0
LINE
  5
169F
  8
0
 10
64.0
 20
67.884529946162075
 30
0.0
 11
63.794800159963131
 21
67.884529946162075
 31
0.0
  0
LINE
  5
16A0
  8
0
 10
63.794800159963131
 20
56.115470053837917
 30
0.0
 11
64.0
 21
56.115470053837917
 31
0.0
  0
LINE
  5
16A1
  8
2
 10
56.58058436319731
 20
62.0
 30
0.0
 11
58.000000000000028
 21
59.541499999999978
 31
0.0
  0
LINE
  5
16A2
  8
2
 10
58.000000000000028
 20
64.458500000000015
 30
0.0
 11
56.58058436319731
 21
62.0
 31
0.0
  0
LINE
  5
16A3
  8
2
 10
58.000000000000028
 20
64.458500000000015
 30
0.0
 11
58.000000000000028
 21
59.541499999999978
 31
0.0
  0
LINE
  5
16A4
  8
2
 10
58.000000000000028
 20
59.541500000000021
 30
0.0
 11
64.458500000000015
 21
59.541500000000021
 31
0.0
  0
LINE
  5
16A5
  8
2
 10
64.458500000000015
 20
64.458499999999987
 30
0.0
 11
58.000000000000028
 21
64.458499999999987
 31
0.0
  0
LINE
  5
16A6
  8
2
 10
64.458500000000015
 20
64.458499999999987
 30
0.0
 11
64.458500000000015
 21
59.541500000000021
 31
0.0
  0
LINE
  5
16A7
  8
2
 10
64.458500000000015
 20
59.541500000000021
 30
0.0
 11
65.000000000000028
 21
59.0
 31
0.0
  0
LINE
  5
16A8
  8
2
 10
65.000000000000028
 20
65.0
 30
0.0
 11
64.458500000000015
 21
64.458499999999987
 31
0.0
  0
ARC
  5
16A9
  8
0
 10
71.999999999999972
 20
62.0
 30
0.0
 40
15.999999999999959
 50
158.8479670259178
 51
201.1520329740822
  0
ARC
  5
16AA
  8
0
 10
72.000000000000014
 20
62.0
 30
0.0
 40
15.198684153570669
 50
169.05105029634561
 51
190.94894970365411
  0
LINE
  5
16AB
  8
0
 10
63.5
 20
67.773502691896255
 30
0.0
 11
57.077980476267101
 21
67.773502691896255
 31
0.0
  0
POLYLINE
  5
16AC
  8
0
 10
57.077980476267079
 20
67.773502691896255
 30
0.0
 66
     1
 70
     8
  0
VERTEX
  8
0
  5
19C1
 10
57.0780
 20
67.7735
 30
0.000000
  70
    32
  0
VERTEX
  8
0
  5
19C2
 10
57.0694
 20
67.7512
 30
0.000000
  70
    32
  0
VERTEX
  8
0
  5
19C3
 10
57.0610
 20
67.7289
 30
0.000000
  70
    32
  0
VERTEX
  8
0
  5
19C4
 10
57.0527
 20
67.7066
 30
0.000000
  70
    32
  0
VERTEX
  8
0
  5
19C5
 10
57.0446
 20
67.6843
 30
0.000000
  70
    32
  0
VERTEX
  8
0
  5
19C6
 10
57.0365
 20
67.6620
 30
0.000000
  70
    32
  0
VERTEX
  8
0
  5
19C7
 10
57.0287
 20
67.6396
 30
0.000000
  70
    32
  0
VERTEX
  8
0
  5
19C8
 10
57.0209
 20
67.6173
 30
0.000000
  70
    32
  0
VERTEX
  8
0
  5
19C9
 10
57.0133
 20
67.5949
 30
0.000000
  70
    32
  0
VERTEX
  8
0
  5
19CA
 10
57.0058
 20
67.5725
 30
0.000000
  70
    32
  0
VERTEX
  8
0
  5
19CB
 10
56.9985
 20
67.5501
 30
0.000000
  70
    32
  0
VERTEX
  8
0
  5
19CC
 10
56.9912
 20
67.5277
 30
0.000000
  70
    32
  0
VERTEX
  8
0
  5
19CD
 10
56.9841
 20
67.5053
 30
0.000000
  70
    32
  0
VERTEX
  8
0
  5
19CE
 10
56.9772
 20
67.4829
 30
0.000000
  70
    32
  0
VERTEX
  8
0
  5
19CF
 10
56.9704
 20
67.4604
 30
0.000000
  70
    32
  0
VERTEX
  8
0
  5
19D0
 10
56.9637
 20
67.4380
 30
0.000000
  70
    32
  0
VERTEX
  8
0
  5
19D1
 10
56.9571
 20
67.4156
 30
0.000000
  70
    32
  0
VERTEX
  8
0
  5
19D2
 10
56.9507
 20
67.3931
 30
0.000000
  70
    32
  0
VERTEX
  8
0
  5
19D3
 10
56.9445
 20
67.3706
 30
0.000000
  70
    32
  0
VERTEX
  8
0
  5
19D4
 10
56.9383
 20
67.3481
 30
0.000000
  70
    32
  0
VERTEX
  8
0
  5
19D5
 10
56.9323
 20
67.3256
 30
0.000000
  70
    32
  0
VERTEX
  8
0
  5
19D6
 10
56.9264
 20
67.3031
 30
0.000000
  70
    32
  0
VERTEX
  8
0
  5
19D7
 10
56.9207
 20
67.2806
 30
0.000000
  70
    32
  0
VERTEX
  8
0
  5
19D8
 10
56.9151
 20
67.2581
 30
0.000000
  70
    32
  0
VERTEX
  8
0
  5
19D9
 10
56.9096
 20
67.2356
 30
0.000000
  70
    32
  0
VERTEX
  8
0
  5
19DA
 10
56.9042
 20
67.2131
 30
0.000000
  70
    32
  0
VERTEX
  8
0
  5
19DB
 10
56.8990
 20
67.1905
 30
0.000000
  70
    32
  0
VERTEX
  8
0
  5
19DC
 10
56.8940
 20
67.1680
 30
0.000000
  70
    32
  0
VERTEX
  8
0
  5
19DD
 10
56.8890
 20
67.1454
 30
0.000000
  70
    32
  0
VERTEX
  8
0
  5
19DE
 10
56.8842
 20
67.1229
 30
0.000000
  70
    32
  0
VERTEX
  8
0
  5
19DF
 10
56.8796
 20
67.1003
 30
0.000000
  70
    32
  0
VERTEX
  8
0
  5
19E0
 10
56.8750
 20
67.0777
 30
0.000000
  70
    32
  0
VERTEX
  8
0
  5
19E1
 10
56.8706
 20
67.0551
 30
0.000000
  70
    32
  0
VERTEX
  8
0
  5
19E2
 10
56.8664
 20
67.0325
 30
0.000000
  70
    32
  0
VERTEX
  8
0
  5
19E3
 10
56.8623
 20
67.0099
 30
0.000000
  70
    32
  0
VERTEX
  8
0
  5
19E4
 10
56.8583
 20
66.9873
 30
0.000000
  70
    32
  0
VERTEX
  8
0
  5
19E5
 10
56.8544
 20
66.9647
 30
0.000000
  70
    32
  0
VERTEX
  8
0
  5
19E6
 10
56.8507
 20
66.9421
 30
0.000000
  70
    32
  0
VERTEX
  8
0
  5
19E7
 10
56.8471
 20
66.9195
 30
0.000000
  70
    32
  0
VERTEX
  8
0
  5
19E8
 10
56.8436
 20
66.8969
 30
0.000000
  70
    32
  0
VERTEX
  8
0
  5
19E9
 10
56.8403
 20
66.8742
 30
0.000000
  70
    32
  0
VERTEX
  8
0
  5
19EA
 10
56.8371
 20
66.8516
 30
0.000000
  70
    32
  0
VERTEX
  8
0
  5
19EB
 10
56.8341
 20
66.8290
 30
0.000000
  70
    32
  0
VERTEX
  8
0
  5
19EC
 10
56.8312
 20
66.8063
 30
0.000000
  70
    32
  0
VERTEX
  8
0
  5
19ED
 10
56.8284
 20
66.7837
 30
0.000000
  70
    32
  0
VERTEX
  8
0
  5
19EE
 10
56.8258
 20
66.7610
 30
0.000000
  70
    32
  0
VERTEX
  8
0
  5
19EF
 10
56.8233
 20
66.7384
 30
0.000000
  70
    32
  0
VERTEX
  8
0
  5
19F0
 10
56.8209
 20
66.7157
 30
0.000000
  70
    32
  0
VERTEX
  8
0
  5
19F1
 10
56.8187
 20
66.6930
 30
0.000000
  70
    32
  0
VERTEX
  8
0
  5
19F2
 10
56.8166
 20
66.6704
 30
0.000000
  70
    32
  0
VERTEX
  8
0
  5
19F3
 10
56.8146
 20
66.6477
 30
0.000000
  70
    32
  0
VERTEX
  8
0
  5
19F4
 10
56.8128
 20
66.6250
 30
0.000000
  70
    32
  0
VERTEX
  8
0
  5
19F5
 10
56.8111
 20
66.6024
 30
0.000000
  70
    32
  0
VERTEX
  8
0
  5
19F6
 10
56.8095
 20
66.5797
 30
0.000000
  70
    32
  0
VERTEX
  8
0
  5
19F7
 10
56.8081
 20
66.5570
 30
0.000000
  70
    32
  0
VERTEX
  8
0
  5
19F8
 10
56.8068
 20
66.5343
 30
0.000000
  70
    32
  0
VERTEX
  8
0
  5
19F9
 10
56.8057
 20
66.5116
 30
0.000000
  70
    32
  0
VERTEX
  8
0
  5
19FA
 10
56.8046
 20
66.4889
 30
0.000000
  70
    32
  0
VERTEX
  8
0
  5
19FB
 10
56.8038
 20
66.4663
 30
0.000000
  70
    32
  0
VERTEX
  8
0
  5
19FC
 10
56.8030
 20
66.4436
 30
0.000000
  70
    32
  0
VERTEX
  8
0
  5
19FD
 10
56.8024
 20
66.4209
 30
0.000000
  70
    32
  0
VERTEX
  8
0
  5
19FE
 10
56.8019
 20
66.3982
 30
0.000000
  70
    32
  0
VERTEX
  8
0
  5
19FF
 10
56.8016
 20
66.3755
 30
0.000000
  70
    32
  0
VERTEX
  8
0
  5
1A00
 10
56.8014
 20
66.3528
 30
0.000000
  70
    32
  0
VERTEX
  8
0
  5
1A01
 10
56.8013
 20
66.3301
 30
0.000000
  70
    32
  0
VERTEX
  8
0
  5
1A02
 10
56.8014
 20
66.3074
 30
0.000000
  70
    32
  0
VERTEX
  8
0
  5
1A03
 10
56.8016
 20
66.2847
 30
0.000000
  70
    32
  0
VERTEX
  8
0
  5
1A04
 10
56.8019
 20
66.2621
 30
0.000000
  70
    32
  0
VERTEX
  8
0
  5
1A05
 10
56.8024
 20
66.2394
 30
0.000000
  70
    32
  0
VERTEX
  8
0
  5
1A06
 10
56.8030
 20
66.2167
 30
0.000000
  70
    32
  0
VERTEX
  8
0
  5
1A07
 10
56.8038
 20
66.1940
 30
0.000000
  70
    32
  0
VERTEX
  8
0
  5
1A08
 10
56.8046
 20
66.1713
 30
0.000000
  70
    32
  0
VERTEX
  8
0
  5
1A09
 10
56.8057
 20
66.1486
 30
0.000000
  70
    32
  0
VERTEX
  8
0
  5
1A0A
 10
56.8068
 20
66.1259
 30
0.000000
  70
    32
  0
VERTEX
  8
0
  5
1A0B
 10
56.8081
 20
66.1033
 30
0.000000
  70
    32
  0
VERTEX
  8
0
  5
1A0C
 10
56.8095
 20
66.0806
 30
0.000000
  70
    32
  0
VERTEX
  8
0
  5
1A0D
 10
56.8111
 20
66.0579
 30
0.000000
  70
    32
  0
VERTEX
  8
0
  5
1A0E
 10
56.8128
 20
66.0352
 30
0.000000
  70
    32
  0
VERTEX
  8
0
  5
1A0F
 10
56.8146
 20
66.0126
 30
0.000000
  70
    32
  0
VERTEX
  8
0
  5
1A10
 10
56.8166
 20
65.9899
 30
0.000000
  70
    32
  0
VERTEX
  8
0
  5
1A11
 10
56.8187
 20
65.9672
 30
0.000000
  70
    32
  0
VERTEX
  8
0
  5
1A12
 10
56.8209
 20
65.9446
 30
0.000000
  70
    32
  0
VERTEX
  8
0
  5
1A13
 10
56.8233
 20
65.9219
 30
0.000000
  70
    32
  0
VERTEX
  8
0
  5
1A14
 10
56.8258
 20
65.8992
 30
0.000000
  70
    32
  0
VERTEX
  8
0
  5
1A15
 10
56.8284
 20
65.8766
 30
0.000000
  70
    32
  0
VERTEX
  8
0
  5
1A16
 10
56.8312
 20
65.8539
 30
0.000000
  70
    32
  0
VERTEX
  8
0
  5
1A17
 10
56.8341
 20
65.8313
 30
0.000000
  70
    32
  0
VERTEX
  8
0
  5
1A18
 10
56.8371
 20
65.8087
 30
0.000000
  70
    32
  0
VERTEX
  8
0
  5
1A19
 10
56.8403
 20
65.7860
 30
0.000000
  70
    32
  0
VERTEX
  8
0
  5
1A1A
 10
56.8436
 20
65.7634
 30
0.000000
  70
    32
  0
VERTEX
  8
0
  5
1A1B
 10
56.8471
 20
65.7408
 30
0.000000
  70
    32
  0
VERTEX
  8
0
  5
1A1C
 10
56.8507
 20
65.7181
 30
0.000000
  70
    32
  0
VERTEX
  8
0
  5
1A1D
 10
56.8544
 20
65.6955
 30
0.000000
  70
    32
  0
VERTEX
  8
0
  5
1A1E
 10
56.8583
 20
65.6729
 30
0.000000
  70
    32
  0
VERTEX
  8
0
  5
1A1F
 10
56.8623
 20
65.6503
 30
0.000000
  70
    32
  0
VERTEX
  8
0
  5
1A20
 10
56.8664
 20
65.6277
 30
0.000000
  70
    32
  0
VERTEX
  8
0
  5
1A21
 10
56.8706
 20
65.6051
 30
0.000000
  70
    32
  0
VERTEX
  8
0
  5
1A22
 10
56.8750
 20
65.5825
 30
0.000000
  70
    32
  0
VERTEX
  8
0
  5
1A23
 10
56.8796
 20
65.5600
 30
0.000000
  70
    32
  0
VERTEX
  8
0
  5
1A24
 10
56.8842
 20
65.5374
 30
0.000000
  70
    32
  0
VERTEX
  8
0
  5
1A25
 10
56.8890
 20
65.5148
 30
0.000000
  70
    32
  0
VERTEX
  8
0
  5
1A26
 10
56.8940
 20
65.4923
 30
0.000000
  70
    32
  0
VERTEX
  8
0
  5
1A27
 10
56.8990
 20
65.4697
 30
0.000000
  70
    32
  0
VERTEX
  8
0
  5
1A28
 10
56.9042
 20
65.4472
 30
0.000000
  70
    32
  0
VERTEX
  8
0
  5
1A29
 10
56.9096
 20
65.4247
 30
0.000000
  70
    32
  0
VERTEX
  8
0
  5
1A2A
 10
56.9151
 20
65.4021
 30
0.000000
  70
    32
  0
VERTEX
  8
0
  5
1A2B
 10
56.9207
 20
65.3796
 30
0.000000
  70
    32
  0
VERTEX
  8
0
  5
1A2C
 10
56.9264
 20
65.3571
 30
0.000000
  70
    32
  0
VERTEX
  8
0
  5
1A2D
 10
56.9323
 20
65.3346
 30
0.000000
  70
    32
  0
VERTEX
  8
0
  5
1A2E
 10
56.9383
 20
65.3121
 30
0.000000
  70
    32
  0
VERTEX
  8
0
  5
1A2F
 10
56.9445
 20
65.2896
 30
0.000000
  70
    32
  0
VERTEX
  8
0
  5
1A30
 10
56.9507
 20
65.2672
 30
0.000000
  70
    32
  0
VERTEX
  8
0
  5
1A31
 10
56.9571
 20
65.2447
 30
0.000000
  70
    32
  0
VERTEX
  8
0
  5
1A32
 10
56.9637
 20
65.2223
 30
0.000000
  70
    32
  0
VERTEX
  8
0
  5
1A33
 10
56.9704
 20
65.1998
 30
0.000000
  70
    32
  0
VERTEX
  8
0
  5
1A34
 10
56.9772
 20
65.1774
 30
0.000000
  70
    32
  0
VERTEX
  8
0
  5
1A35
 10
56.9841
 20
65.1550
 30
0.000000
  70
    32
  0
VERTEX
  8
0
  5
1A36
 10
56.9912
 20
65.1325
 30
0.000000
  70
    32
  0
VERTEX
  8
0
  5
1A37
 10
56.9985
 20
65.1101
 30
0.000000
  70
    32
  0
VERTEX
  8
0
  5
1A38
 10
57.0058
 20
65.0877
 30
0.000000
  70
    32
  0
VERTEX
  8
0
  5
1A39
 10
57.0133
 20
65.0654
 30
0.000000
  70
    32
  0
VERTEX
  8
0
  5
1A3A
 10
57.0209
 20
65.0430
 30
0.000000
  70
    32
  0
VERTEX
  8
0
  5
1A3B
 10
57.0287
 20
65.0206
 30
0.000000
  70
    32
  0
VERTEX
  8
0
  5
1A3C
 10
57.0365
 20
64.9983
 30
0.000000
  70
    32
  0
VERTEX
  8
0
  5
1A3D
 10
57.0446
 20
64.9760
 30
0.000000
  70
    32
  0
VERTEX
  8
0
  5
1A3E
 10
57.0527
 20
64.9536
 30
0.000000
  70
    32
  0
VERTEX
  8
0
  5
1A3F
 10
57.0610
 20
64.9313
 30
0.000000
  70
    32
  0
VERTEX
  8
0
  5
1A40
 10
57.0694
 20
64.9090
 30
0.000000
  70
    32
  0
VERTEX
  8
0
  5
1A41
 10
57.0780
 20
64.8868
 30
0.000000
  70
    32
  0
SEQEND
  8
0
  5
1A42
  0
LINE
  5
16AD
  8
0
 10
63.5
 20
64.886751345948142
 30
0.0
 11
57.077980476267072
 21
64.886751345948142
 31
0.0
  0
POLYLINE
  5
16AE
  8
0
 10
57.077980476267093
 20
59.113248654051851
 30
0.0
 66
     1
 70
     8
  0
VERTEX
  8
0
  5
1A43
 10
57.0780
 20
59.1132
 30
0.000000
  70
    32
  0
VERTEX
  8
0
  5
1A44
 10
57.0694
 20
59.0910
 30
0.000000
  70
    32
  0
VERTEX
  8
0
  5
1A45
 10
57.0610
 20
59.0687
 30
0.000000
  70
    32
  0
VERTEX
  8
0
  5
1A46
 10
57.0527
 20
59.0464
 30
0.000000
  70
    32
  0
VERTEX
  8
0
  5
1A47
 10
57.0446
 20
59.0240
 30
0.000000
  70
    32
  0
VERTEX
  8
0
  5
1A48
 10
57.0365
 20
59.0017
 30
0.000000
  70
    32
  0
VERTEX
  8
0
  5
1A49
 10
57.0287
 20
58.9794
 30
0.000000
  70
    32
  0
VERTEX
  8
0
  5
1A4A
 10
57.0209
 20
58.9570
 30
0.000000
  70
    32
  0
VERTEX
  8
0
  5
1A4B
 10
57.0133
 20
58.9346
 30
0.000000
  70
    32
  0
VERTEX
  8
0
  5
1A4C
 10
57.0058
 20
58.9123
 30
0.000000
  70
    32
  0
VERTEX
  8
0
  5
1A4D
 10
56.9985
 20
58.8899
 30
0.000000
  70
    32
  0
VERTEX
  8
0
  5
1A4E
 10
56.9912
 20
58.8675
 30
0.000000
  70
    32
  0
VERTEX
  8
0
  5
1A4F
 10
56.9841
 20
58.8450
 30
0.000000
  70
    32
  0
VERTEX
  8
0
  5
1A50
 10
56.9772
 20
58.8226
 30
0.000000
  70
    32
  0
VERTEX
  8
0
  5
1A51
 10
56.9704
 20
58.8002
 30
0.000000
  70
    32
  0
VERTEX
  8
0
  5
1A52
 10
56.9637
 20
58.7777
 30
0.000000
  70
    32
  0
VERTEX
  8
0
  5
1A53
 10
56.9571
 20
58.7553
 30
0.000000
  70
    32
  0
VERTEX
  8
0
  5
1A54
 10
56.9507
 20
58.7328
 30
0.000000
  70
    32
  0
VERTEX
  8
0
  5
1A55
 10
56.9445
 20
58.7104
 30
0.000000
  70
    32
  0
VERTEX
  8
0
  5
1A56
 10
56.9383
 20
58.6879
 30
0.000000
  70
    32
  0
VERTEX
  8
0
  5
1A57
 10
56.9323
 20
58.6654
 30
0.000000
  70
    32
  0
VERTEX
  8
0
  5
1A58
 10
56.9264
 20
58.6429
 30
0.000000
  70
    32
  0
VERTEX
  8
0
  5
1A59
 10
56.9207
 20
58.6204
 30
0.000000
  70
    32
  0
VERTEX
  8
0
  5
1A5A
 10
56.9151
 20
58.5979
 30
0.000000
  70
    32
  0
VERTEX
  8
0
  5
1A5B
 10
56.9096
 20
58.5753
 30
0.000000
  70
    32
  0
VERTEX
  8
0
  5
1A5C
 10
56.9042
 20
58.5528
 30
0.000000
  70
    32
  0
VERTEX
  8
0
  5
1A5D
 10
56.8990
 20
58.5303
 30
0.000000
  70
    32
  0
VERTEX
  8
0
  5
1A5E
 10
56.8940
 20
58.5077
 30
0.000000
  70
    32
  0
VERTEX
  8
0
  5
1A5F
 10
56.8890
 20
58.4852
 30
0.000000
  70
    32
  0
VERTEX
  8
0
  5
1A60
 10
56.8842
 20
58.4626
 30
0.000000
  70
    32
  0
VERTEX
  8
0
  5
1A61
 10
56.8796
 20
58.4400
 30
0.000000
  70
    32
  0
VERTEX
  8
0
  5
1A62
 10
56.8750
 20
58.4175
 30
0.000000
  70
    32
  0
VERTEX
  8
0
  5
1A63
 10
56.8706
 20
58.3949
 30
0.000000
  70
    32
  0
VERTEX
  8
0
  5
1A64
 10
56.8664
 20
58.3723
 30
0.000000
  70
    32
  0
VERTEX
  8
0
  5
1A65
 10
56.8623
 20
58.3497
 30
0.000000
  70
    32
  0
VERTEX
  8
0
  5
1A66
 10
56.8583
 20
58.3271
 30
0.000000
  70
    32
  0
VERTEX
  8
0
  5
1A67
 10
56.8544
 20
58.3045
 30
0.000000
  70
    32
  0
VERTEX
  8
0
  5
1A68
 10
56.8507
 20
58.2819
 30
0.000000
  70
    32
  0
VERTEX
  8
0
  5
1A69
 10
56.8471
 20
58.2592
 30
0.000000
  70
    32
  0
VERTEX
  8
0
  5
1A6A
 10
56.8436
 20
58.2366
 30
0.000000
  70
    32
  0
VERTEX
  8
0
  5
1A6B
 10
56.8403
 20
58.2140
 30
0.000000
  70
    32
  0
VERTEX
  8
0
  5
1A6C
 10
56.8371
 20
58.1913
 30
0.000000
  70
    32
  0
VERTEX
  8
0
  5
1A6D
 10
56.8341
 20
58.1687
 30
0.000000
  70
    32
  0
VERTEX
  8
0
  5
1A6E
 10
56.8312
 20
58.1461
 30
0.000000
  70
    32
  0
VERTEX
  8
0
  5
1A6F
 10
56.8284
 20
58.1234
 30
0.000000
  70
    32
  0
VERTEX
  8
0
  5
1A70
 10
56.8258
 20
58.1008
 30
0.000000
  70
    32
  0
VERTEX
  8
0
  5
1A71
 10
56.8233
 20
58.0781
 30
0.000000
  70
    32
  0
VERTEX
  8
0
  5
1A72
 10
56.8209
 20
58.0554
 30
0.000000
  70
    32
  0
VERTEX
  8
0
  5
1A73
 10
56.8187
 20
58.0328
 30
0.000000
  70
    32
  0
VERTEX
  8
0
  5
1A74
 10
56.8166
 20
58.0101
 30
0.000000
  70
    32
  0
VERTEX
  8
0
  5
1A75
 10
56.8146
 20
57.9874
 30
0.000000
  70
    32
  0
VERTEX
  8
0
  5
1A76
 10
56.8128
 20
57.9648
 30
0.000000
  70
    32
  0
VERTEX
  8
0
  5
1A77
 10
56.8111
 20
57.9421
 30
0.000000
  70
    32
  0
VERTEX
  8
0
  5
1A78
 10
56.8095
 20
57.9194
 30
0.000000
  70
    32
  0
VERTEX
  8
0
  5
1A79
 10
56.8081
 20
57.8967
 30
0.000000
  70
    32
  0
VERTEX
  8
0
  5
1A7A
 10
56.8068
 20
57.8741
 30
0.000000
  70
    32
  0
VERTEX
  8
0
  5
1A7B
 10
56.8057
 20
57.8514
 30
0.000000
  70
    32
  0
VERTEX
  8
0
  5
1A7C
 10
56.8046
 20
57.8287
 30
0.000000
  70
    32
  0
VERTEX
  8
0
  5
1A7D
 10
56.8038
 20
57.8060
 30
0.000000
  70
    32
  0
VERTEX
  8
0
  5
1A7E
 10
56.8030
 20
57.7833
 30
0.000000
  70
    32
  0
VERTEX
  8
0
  5
1A7F
 10
56.8024
 20
57.7606
 30
0.000000
  70
    32
  0
VERTEX
  8
0
  5
1A80
 10
56.8019
 20
57.7379
 30
0.000000
  70
    32
  0
VERTEX
  8
0
  5
1A81
 10
56.8016
 20
57.7153
 30
0.000000
  70
    32
  0
VERTEX
  8
0
  5
1A82
 10
56.8014
 20
57.6926
 30
0.000000
  70
    32
  0
VERTEX
  8
0
  5
1A83
 10
56.8013
 20
57.6699
 30
0.000000
  70
    32
  0
VERTEX
  8
0
  5
1A84
 10
56.8014
 20
57.6472
 30
0.000000
  70
    32
  0
VERTEX
  8
0
  5
1A85
 10
56.8016
 20
57.6245
 30
0.000000
  70
    32
  0
VERTEX
  8
0
  5
1A86
 10
56.8019
 20
57.6018
 30
0.000000
  70
    32
  0
VERTEX
  8
0
  5
1A87
 10
56.8024
 20
57.5791
 30
0.000000
  70
    32
  0
VERTEX
  8
0
  5
1A88
 10
56.8030
 20
57.5564
 30
0.000000
  70
    32
  0
VERTEX
  8
0
  5
1A89
 10
56.8038
 20
57.5337
 30
0.000000
  70
    32
  0
VERTEX
  8
0
  5
1A8A
 10
56.8046
 20
57.5111
 30
0.000000
  70
    32
  0
VERTEX
  8
0
  5
1A8B
 10
56.8057
 20
57.4884
 30
0.000000
  70
    32
  0
VERTEX
  8
0
  5
1A8C
 10
56.8068
 20
57.4657
 30
0.000000
  70
    32
  0
VERTEX
  8
0
  5
1A8D
 10
56.8081
 20
57.4430
 30
0.000000
  70
    32
  0
VERTEX
  8
0
  5
1A8E
 10
56.8095
 20
57.4203
 30
0.000000
  70
    32
  0
VERTEX
  8
0
  5
1A8F
 10
56.8111
 20
57.3976
 30
0.000000
  70
    32
  0
VERTEX
  8
0
  5
1A90
 10
56.8128
 20
57.3750
 30
0.000000
  70
    32
  0
VERTEX
  8
0
  5
1A91
 10
56.8146
 20
57.3523
 30
0.000000
  70
    32
  0
VERTEX
  8
0
  5
1A92
 10
56.8166
 20
57.3296
 30
0.000000
  70
    32
  0
VERTEX
  8
0
  5
1A93
 10
56.8187
 20
57.3070
 30
0.000000
  70
    32
  0
VERTEX
  8
0
  5
1A94
 10
56.8209
 20
57.2843
 30
0.000000
  70
    32
  0
VERTEX
  8
0
  5
1A95
 10
56.8233
 20
57.2616
 30
0.000000
  70
    32
  0
VERTEX
  8
0
  5
1A96
 10
56.8258
 20
57.2390
 30
0.000000
  70
    32
  0
VERTEX
  8
0
  5
1A97
 10
56.8284
 20
57.2163
 30
0.000000
  70
    32
  0
VERTEX
  8
0
  5
1A98
 10
56.8312
 20
57.1937
 30
0.000000
  70
    32
  0
VERTEX
  8
0
  5
1A99
 10
56.8341
 20
57.1710
 30
0.000000
  70
    32
  0
VERTEX
  8
0
  5
1A9A
 10
56.8371
 20
57.1484
 30
0.000000
  70
    32
  0
VERTEX
  8
0
  5
1A9B
 10
56.8403
 20
57.1258
 30
0.000000
  70
    32
  0
VERTEX
  8
0
  5
1A9C
 10
56.8436
 20
57.1031
 30
0.000000
  70
    32
  0
VERTEX
  8
0
  5
1A9D
 10
56.8471
 20
57.0805
 30
0.000000
  70
    32
  0
VERTEX
  8
0
  5
1A9E
 10
56.8507
 20
57.0579
 30
0.000000
  70
    32
  0
VERTEX
  8
0
  5
1A9F
 10
56.8544
 20
57.0353
 30
0.000000
  70
    32
  0
VERTEX
  8
0
  5
1AA0
 10
56.8583
 20
57.0127
 30
0.000000
  70
    32
  0
VERTEX
  8
0
  5
1AA1
 10
56.8623
 20
56.9901
 30
0.000000
  70
    32
  0
VERTEX
  8
0
  5
1AA2
 10
56.8664
 20
56.9675
 30
0.000000
  70
    32
  0
VERTEX
  8
0
  5
1AA3
 10
56.8706
 20
56.9449
 30
0.000000
  70
    32
  0
VERTEX
  8
0
  5
1AA4
 10
56.8750
 20
56.9223
 30
0.000000
  70
    32
  0
VERTEX
  8
0
  5
1AA5
 10
56.8796
 20
56.8997
 30
0.000000
  70
    32
  0
VERTEX
  8
0
  5
1AA6
 10
56.8842
 20
56.8771
 30
0.000000
  70
    32
  0
VERTEX
  8
0
  5
1AA7
 10
56.8890
 20
56.8546
 30
0.000000
  70
    32
  0
VERTEX
  8
0
  5
1AA8
 10
56.8940
 20
56.8320
 30
0.000000
  70
    32
  0
VERTEX
  8
0
  5
1AA9
 10
56.8990
 20
56.8095
 30
0.000000
  70
    32
  0
VERTEX
  8
0
  5
1AAA
 10
56.9042
 20
56.7869
 30
0.000000
  70
    32
  0
VERTEX
  8
0
  5
1AAB
 10
56.9096
 20
56.7644
 30
0.000000
  70
    32
  0
VERTEX
  8
0
  5
1AAC
 10
56.9151
 20
56.7419
 30
0.000000
  70
    32
  0
VERTEX
  8
0
  5
1AAD
 10
56.9207
 20
56.7194
 30
0.000000
  70
    32
  0
VERTEX
  8
0
  5
1AAE
 10
56.9264
 20
56.6969
 30
0.000000
  70
    32
  0
VERTEX
  8
0
  5
1AAF
 10
56.9323
 20
56.6744
 30
0.000000
  70
    32
  0
VERTEX
  8
0
  5
1AB0
 10
56.9383
 20
56.6519
 30
0.000000
  70
    32
  0
VERTEX
  8
0
  5
1AB1
 10
56.9445
 20
56.6294
 30
0.000000
  70
    32
  0
VERTEX
  8
0
  5
1AB2
 10
56.9507
 20
56.6069
 30
0.000000
  70
    32
  0
VERTEX
  8
0
  5
1AB3
 10
56.9571
 20
56.5844
 30
0.000000
  70
    32
  0
VERTEX
  8
0
  5
1AB4
 10
56.9637
 20
56.5620
 30
0.000000
  70
    32
  0
VERTEX
  8
0
  5
1AB5
 10
56.9704
 20
56.5396
 30
0.000000
  70
    32
  0
VERTEX
  8
0
  5
1AB6
 10
56.9772
 20
56.5171
 30
0.000000
  70
    32
  0
VERTEX
  8
0
  5
1AB7
 10
56.9841
 20
56.4947
 30
0.000000
  70
    32
  0
VERTEX
  8
0
  5
1AB8
 10
56.9912
 20
56.4723
 30
0.000000
  70
    32
  0
VERTEX
  8
0
  5
1AB9
 10
56.9985
 20
56.4499
 30
0.000000
  70
    32
  0
VERTEX
  8
0
  5
1ABA
 10
57.0058
 20
56.4275
 30
0.000000
  70
    32
  0
VERTEX
  8
0
  5
1ABB
 10
57.0133
 20
56.4051
 30
0.000000
  70
    32
  0
VERTEX
  8
0
  5
1ABC
 10
57.0209
 20
56.3827
 30
0.000000
  70
    32
  0
VERTEX
  8
0
  5
1ABD
 10
57.0287
 20
56.3604
 30
0.000000
  70
    32
  0
VERTEX
  8
0
  5
1ABE
 10
57.0365
 20
56.3380
 30
0.000000
  70
    32
  0
VERTEX
  8
0
  5
1ABF
 10
57.0446
 20
56.3157
 30
0.000000
  70
    32
  0
VERTEX
  8
0
  5
1AC0
 10
57.0527
 20
56.2934
 30
0.000000
  70
    32
  0
VERTEX
  8
0
  5
1AC1
 10
57.0610
 20
56.2711
 30
0.000000
  70
    32
  0
VERTEX
  8
0
  5
1AC2
 10
57.0694
 20
56.2488
 30
0.000000
  70
    32
  0
VERTEX
  8
0
  5
1AC3
 10
57.0780
 20
56.2265
 30
0.000000
  70
    32
  0
SEQEND
  8
0
  5
1AC4
  0
LINE
  5
16AF
  8
0
 10
63.5
 20
56.226497308103738
 30
0.0
 11
57.077980476267101
 21
56.226497308103738
 31
0.0
  0
LINE
  5
16B0
  8
0
 10
57.077980476267072
 20
59.113248654051858
 30
0.0
 11
63.5
 21
59.113248654051858
 31
0.0
  0
POLYLINE
  5
16B1
  8
0
 66
     1
 10
0.0
 20
0.0
 30
0.0
  0
VERTEX
  5
185C
  8
0
 10
63.794800159963131
 20
67.884529946162075
 30
0.0
  0
VERTEX
  5
185D
  8
0
 10
63.827925927900928
 20
67.884289257132707
 30
0.0
  0
VERTEX
  5
185E
  8
0
 10
63.8657203642083
 20
67.883133093717305
 30
0.0
  0
VERTEX
  5
185F
  8
0
 10
63.89725409938773
 20
67.880897375055383
 30
0.0
  0
VERTEX
  5
1860
  8
0
 10
63.945058888795501
 20
67.872734902874313
 30
0.0
  0
VERTEX
  5
1861
  8
0
 10
63.971124350766871
 20
67.862271818613237
 30
0.0
  0
VERTEX
  5
1862
  8
0
 10
63.987938155417822
 20
67.84828042050421
 30
0.0
  0
VERTEX
  5
1863
  8
0
 10
63.997175667078771
 20
67.830580421761169
 30
0.0
  0
VERTEX
  5
1864
  8
0
 10
64.000000000000028
 20
67.809286542163875
 30
0.0
  0
SEQEND
  5
1865
  8
0
  0
POLYLINE
  5
16B2
  8
0
 66
     1
 10
0.0
 20
0.0
 30
0.0
  0
VERTEX
  5
1866
  8
0
 10
63.794800159963131
 20
67.884529946162075
 30
0.0
  0
VERTEX
  5
1867
  8
0
 10
63.75848072079603
 20
67.856636116672064
 30
0.0
  0
VERTEX
  5
1868
  8
0
 10
63.720194087268737
 20
67.832503575784301
 30
0.0
  0
VERTEX
  5
1869
  8
0
 10
63.680231643780502
 20
67.812315986706608
 30
0.0
  0
VERTEX
  5
186A
  8
0
 10
63.638897528656258
 20
67.796226989181463
 30
0.0
  0
VERTEX
  5
186B
  8
0
 10
63.596506319470301
 20
67.784359030194821
 30
0.0
  0
VERTEX
  5
186C
  8
0
 10
63.553380638921112
 20
67.776802432080672
 30
0.0
  0
VERTEX
  5
186D
  8
0
 10
63.509848699477573
 20
67.773614705113403
 30
0.0
  0
VERTEX
  5
186E
  8
0
 10
63.500000010536723
 20
67.773502691896255
 30
0.0
  0
SEQEND
  5
186F
  8
0
  0
POLYLINE
  5
16B4
  8
0
 66
     1
 10
0.0
 20
0.0
 30
0.0
  0
VERTEX
  5
1870
  8
0
 10
63.794800159963131
 20
56.115470053837917
 30
0.0
  0
VERTEX
  5
1871
  8
0
 10
63.75848072079603
 20
56.143363883327943
 30
0.0
  0
VERTEX
  5
1872
  8
0
 10
63.720194087268737
 20
56.167496424215699
 30
0.0
  0
VERTEX
  5
1873
  8
0
 10
63.680231643780502
 20
56.187684013293392
 30
0.0
  0
VERTEX
  5
1874
  8
0
 10
63.638897528656258
 20
56.203773010818537
 30
0.0
  0
VERTEX
  5
1875
  8
0
 10
63.596506319470301
 20
56.215640969805179
 30
0.0
  0
VERTEX
  5
1876
  8
0
 10
63.553380638921112
 20
56.223197567919328
 30
0.0
  0
VERTEX
  5
1877
  8
0
 10
63.509848699477573
 20
56.226385294886597
 30
0.0
  0
VERTEX
  5
1878
  8
0
 10
63.499999972122481
 20
56.226497308103738
 30
0.0
  0
SEQEND
  5
1879
  8
0
  0
POLYLINE
  5
16B5
  8
0
 66
     1
 10
0.0
 20
0.0
 30
0.0
  0
VERTEX
  5
187A
  8
0
 10
64.0
 20
56.190713457836132
 30
0.0
  0
VERTEX
  5
187B
  8
0
 10
63.996744323438293
 20
56.168040420064578
 30
0.0
  0
VERTEX
  5
187C
  8
0
 10
63.985938457787881
 20
56.149395379667681
 30
0.0
  0
VERTEX
  5
187D
  8
0
 10
63.965442638915533
 20
56.13473303638591
 30
0.0
  0
VERTEX
  5
187E
  8
0
 10
63.932550173969162
 20
56.124248251773032
 30
0.0
  0
VERTEX
  5
187F
  8
0
 10
63.892006973415107
 20
56.11861628554788
 30
0.0
  0
VERTEX
  5
1880
  8
0
 10
63.835802470148373
 20
56.115856692963462
 30
0.0
  0
VERTEX
  5
1881
  8
0
 10
63.794800159963131
 20
56.115470053837917
 30
0.0
  0
SEQEND
  5
1882
  8
0
  0
POLYLINE
  5
16B6
  8
0
 66
     1
 10
0.0
 20
0.0
 30
0.0
  0
VERTEX
  5
1883
  8
0
 10
63.794800159963131
 20
64.942264973081024
 30
0.0
  0
VERTEX
  5
1884
  8
0
 10
63.75848072079603
 20
64.928318058336032
 30
0.0
  0
VERTEX
  5
1885
  8
0
 10
63.720194087268737
 20
64.916251787892151
 30
0.0
  0
VERTEX
  5
1886
  8
0
 10
63.680231643780502
 20
64.906157993353304
 30
0.0
  0
VERTEX
  5
1887
  8
0
 10
63.638897528656258
 20
64.898113494590746
 30
0.0
  0
VERTEX
  5
1888
  8
0
 10
63.596506319470301
 20
64.892179515097411
 30
0.0
  0
VERTEX
  5
1889
  8
0
 10
63.553380638921112
 20
64.888401216040336
 30
0.0
  0
VERTEX
  5
188A
  8
0
 10
63.509848699477601
 20
64.886807352556701
 30
0.0
  0
VERTEX
  5
188B
  8
0
 10
63.500000034946339
 20
64.886751345948142
 30
0.0
  0
SEQEND
  5
188C
  8
0
  0
POLYLINE
  5
16B7
  8
0
 66
     1
 10
0.0
 20
0.0
 30
0.0
  0
VERTEX
  5
188D
  8
0
 10
63.5
 20
59.113248654051858
 30
0.0
  0
VERTEX
  5
188E
  8
0
 10
63.543577871373849
 20
59.112150158011332
 30
0.0
  0
VERTEX
  5
188F
  8
0
 10
63.586824088833481
 20
59.108863030107869
 30
0.0
  0
VERTEX
  5
1890
  8
0
 10
63.629409522551271
 20
59.103412287369672
 30
0.0
  0
VERTEX
  5
1891
  8
0
 10
63.671010071662828
 20
59.095839413240192
 30
0.0
  0
VERTEX
  5
1892
  8
0
 10
63.711309130870369
 20
59.08620204186419
 30
0.0
  0
VERTEX
  5
1893
  8
0
 10
63.75
 20
59.074573519457061
 30
0.0
  0
VERTEX
  5
1894
  8
0
 10
63.786788218175531
 20
59.061042346095803
 30
0.0
  0
VERTEX
  5
1895
  8
0
 10
63.794800159963131
 20
59.057735026918969
 30
0.0
  0
SEQEND
  5
1896
  8
0
  0
POLYLINE
  5
16B8
  8
0
 66
     1
 10
0.0
 20
0.0
 30
0.0
  0
VERTEX
  5
1897
  8
0
 10
63.794800159963131
 20
64.942264973081024
 30
0.0
  0
VERTEX
  5
1898
  8
0
 10
63.827925927900957
 20
64.896052663396063
 30
0.0
  0
VERTEX
  5
1899
  8
0
 10
63.865859907470451
 20
64.83028615946921
 30
0.0
  0
VERTEX
  5
189A
  8
0
 10
63.897254099387759
 20
64.761412200998848
 30
0.0
  0
VERTEX
  5
189B
  8
0
 10
63.945058888795501
 20
64.613864605124135
 30
0.0
  0
VERTEX
  5
189C
  8
0
 10
63.971200783664642
 20
64.487988504839507
 30
0.0
  0
VERTEX
  5
189D
  8
0
 10
63.987938155417822
 20
64.359355642634455
 30
0.0
  0
VERTEX
  5
189E
  8
0
 10
63.997193854756802
 20
64.226626466725691
 30
0.0
  0
VERTEX
  5
189F
  8
0
 10
64.000000000000028
 20
64.092293642698905
 30
0.0
  0
SEQEND
  5
18A0
  8
0
  0
POLYLINE
  5
16B9
  8
0
 66
     1
 10
0.0
 20
0.0
 30
0.0
  0
VERTEX
  5
18A1
  8
0
 10
64.000000000000028
 20
65.716992899464969
 30
0.0
  0
VERTEX
  5
18A2
  8
0
 10
63.996748554828137
 20
65.595462042838363
 30
0.0
  0
VERTEX
  5
18A3
  8
0
 10
63.985938457787881
 20
65.471735012214879
 30
0.0
  0
VERTEX
  5
18A4
  8
0
 10
63.965391933203563
 20
65.344188997122785
 30
0.0
  0
VERTEX
  5
18A5
  8
0
 10
63.932550173969162
 20
65.216130362602627
 30
0.0
  0
VERTEX
  5
18A6
  8
0
 10
63.892006973415107
 20
65.107316339195904
 30
0.0
  0
VERTEX
  5
18A7
  8
0
 10
63.835802470148373
 20
65.000489734207434
 30
0.0
  0
VERTEX
  5
18A8
  8
0
 10
63.794800159963131
 20
64.942264973081024
 30
0.0
  0
SEQEND
  5
18A9
  8
0
  0
POLYLINE
  5
16BA
  8
0
 66
     1
 10
0.0
 20
0.0
 30
0.0
  0
VERTEX
  5
18AA
  8
0
 10
64.000000000000028
 20
59.907706357301088
 30
0.0
  0
VERTEX
  5
18AB
  8
0
 10
63.996748554828137
 20
59.763473770705453
 30
0.0
  0
VERTEX
  5
18AC
  8
0
 10
63.985938457787881
 20
59.621130391882559
 30
0.0
  0
VERTEX
  5
18AD
  8
0
 10
63.965391933203563
 20
59.478887032901177
 30
0.0
  0
VERTEX
  5
18AE
  8
0
 10
63.932550173969162
 20
59.340378614375652
 30
0.0
  0
VERTEX
  5
18AF
  8
0
 10
63.892006973415107
 20
59.225932624743763
 30
0.0
  0
VERTEX
  5
18B0
  8
0
 10
63.835802470148373
 20
59.116346427170861
 30
0.0
  0
VERTEX
  5
18B1
  8
0
 10
63.794800159963131
 20
59.057735026918969
 30
0.0
  0
SEQEND
  5
18B2
  8
0
  0
POLYLINE
  5
16BB
  8
0
 66
     1
 10
0.0
 20
0.0
 30
0.0
  0
VERTEX
  5
18B3
  8
0
 10
63.794800159963131
 20
59.057735026918969
 30
0.0
  0
VERTEX
  5
18B4
  8
0
 10
63.827925927900928
 20
59.011763406263391
 30
0.0
  0
VERTEX
  5
18B5
  8
0
 10
63.865859907470423
 20
58.947162161536049
 30
0.0
  0
VERTEX
  5
18B6
  8
0
 10
63.89725409938773
 20
58.880514825943493
 30
0.0
  0
VERTEX
  5
18B7
  8
0
 10
63.945058888795501
 20
58.741129702249907
 30
0.0
  0
VERTEX
  5
18B8
  8
0
 10
63.971200783664607
 20
58.625752382549017
 30
0.0
  0
VERTEX
  5
18B9
  8
0
 10
63.987938155417822
 20
58.511075222130273
 30
0.0
  0
VERTEX
  5
18BA
  8
0
 10
63.997193854756802
 20
58.396073519334657
 30
0.0
  0
VERTEX
  5
18BB
  8
0
 10
64.0
 20
58.283007100535031
 30
0.0
  0
SEQEND
  5
18BC
  8
0
  0
LINE
  5
16BC
  8
0
 10
64.0
 20
56.115470053837917
 30
0.0
 11
64.200000000000017
 21
56.0
 31
0.0
  0
LINE
  5
16BD
  8
0
 10
64.200000000000017
 20
68.0
 30
0.0
 11
64.0
 21
67.884529946162075
 31
0.0
  0
LINE
  5
16BE
  8
0
 10
64.0
 20
67.884529946162075
 30
0.0
 11
64.0
 21
56.115470053837917
 31
0.0
  0
LINE
  5
16BF
  8
0
 10
65.000000000000028
 20
68.0
 30
0.0
 11
65.000000000000028
 21
56.0
 31
0.0
  0
LINE
  5
16C0
  8
0
 10
64.200000000000017
 20
68.0
 30
0.0
 11
64.200000000000017
 21
56.0
 31
0.0
  0
LINE
  5
16C1
  8
0
 10
64.200000000000017
 20
56.0
 30
0.0
 11
65.000000000000028
 21
56.0
 31
0.0
  0
LINE
  5
16C2
  8
0
 10
65.000000000000028
 20
68.0
 30
0.0
 11
64.200000000000017
 21
68.0
 31
0.0
  0
LINE
  5
16C3
  8
2
 10
65.000000000000028
 20
59.0
 30
0.0
 11
59.0
 21
59.0
 31
0.0
  0
LINE
  5
16C4
  8
2
 10
58.999999999999972
 20
65.0
 30
0.0
 11
59.0
 21
59.0
 31
0.0
  0
LINE
  5
16C5
  8
2
 10
65.000000000000028
 20
65.0
 30
0.0
 11
59.0
 21
65.0
 31
0.0
  0
LINE
  5
1773
  8
1
 10
54.000000000000028
 20
30.000000000000011
 30
0.0
 11
67.000000000000014
 21
30.000000000000011
 31
0.0
  0
LINE
  5
1776
  8
1
 10
67.000000000000014
 20
62.0
 30
0.0
 11
54.0
 21
62.0
 31
0.0
  0
CIRCLE
  5
1779
  8
0
 10
30.0
 20
30.0
 30
0.0
 40
5.8845299461620746
  0
LINE
  5
177A
  8
1
 10
30.0
 20
38.0
 30
0.0
 11
30.0
 21
22.0
 31
0.0
  0
LINE
  5
177B
  8
1
 10
38.0
 20
30.0
 30
0.0
 11
22.0
 21
30.0
 31
0.0
  0
ENDSEC
  0
EOF
