  0
SECTION
  2
HEADER
  9
$ACADVER
  1
AC1009
  9
$INSBASE
 10
0.0
 20
0.0
 30
0.0
  9
$EXTMIN
 10
0.0
 20
-2.960436562073669
 30
-4.0
  9
$EXTMAX
 10
282.44999999999999
 20
315.35000000000008
 30
4.0
  9
$LIMMIN
 10
0.0
 20
0.0
  9
$LIMMAX
 10
187.5
 20
135.0
  9
$ORTHOMODE
 70
     1
  9
$REGENMODE
 70
     1
  9
$FILLMODE
 70
     1
  9
$QTEXTMODE
 70
     0
  9
$MIRRTEXT
 70
     0
  9
$DRAGMODE
 70
     2
  9
$LTSCALE
 40
10.0
  9
$OSMODE
 70
    37
  9
$ATTMODE
 70
     1
  9
$TEXTSIZE
 40
4.0
  9
$TRACEWID
 40
0.05
  9
$TEXTSTYLE
  7
STANDARD
  9
$CLAYER
  8
0
  9
$CELTYPE
  6
BYLAYER
  9
$CECOLOR
 62
   256
  9
$DIMSCALE
 40
0.5
  9
$DIMASZ
 40
3.0
  9
$DIMEXO
 40
2.0
  9
$DIMDLI
 40
0.38
  9
$DIMRND
 40
0.0
  9
$DIMDLE
 40
0.0
  9
$DIMEXE
 40
2.0
  9
$DIMTP
 40
0.0
  9
$DIMTM
 40
0.0
  9
$DIMTXT
 40
3.0
  9
$DIMCEN
 40
0.0
  9
$DIMTSZ
 40
0.0
  9
$DIMTOL
 70
     0
  9
$DIMLIM
 70
     0
  9
$DIMTIH
 70
     0
  9
$DIMTOH
 70
     0
  9
$DIMSE1
 70
     0
  9
$DIMSE2
 70
     0
  9
$DIMTAD
 70
     1
  9
$DIMZIN
 70
     0
  9
$DIMBLK
  1

  9
$DIMASO
 70
     0
  9
$DIMSHO
 70
     0
  9
$DIMPOST
  1

  9
$DIMAPOST
  1

  9
$DIMALT
 70
     0
  9
$DIMALTD
 70
     2
  9
$DIMALTF
 40
25.399999999999999
  9
$DIMLFAC
 40
1.0
  9
$DIMTOFL
 70
     0
  9
$DIMTVP
 40
1.6000000000000001
  9
$DIMTIX
 70
     1
  9
$DIMSOXD
 70
     0
  9
$DIMSAH
 70
     0
  9
$DIMBLK1
  1

  9
$DIMBLK2
  1

  9
$DIMSTYLE
  2
STANDARD
  9
$DIMCLRD
 70
     0
  9
$DIMCLRE
 70
     0
  9
$DIMCLRT
 70
     0
  9
$DIMTFAC
 40
1.0
  9
$DIMGAP
 40
0.09
  9
$LUNITS
 70
     2
  9
$LUPREC
 70
     4
  9
$SKETCHINC
 40
0.1
  9
$FILLETRAD
 40
1.25
  9
$AUNITS
 70
     0
  9
$AUPREC
 70
     0
  9
$MENU
  1
E:\r13\win\SUPPORT\ACAD
  9
$ELEVATION
 40
0.0
  9
$PELEVATION
 40
0.0
  9
$THICKNESS
 40
0.0
  9
$LIMCHECK
 70
     0
  9
$BLIPMODE
 70
     0
  9
$CHAMFERA
 40
0.0
  9
$CHAMFERB
 40
0.0
  9
$SKPOLY
 70
     0
  9
$TDCREATE
 40
2449840.6143865739
  9
$TDUPDATE
 40
2458820.724598519
  9
$TDINDWG
 40
0.3930383565
  9
$TDUSRTIMER
 40
0.3930383565
  9
$USRTIMER
 70
     1
  9
$ANGBASE
 50
0.0
  9
$ANGDIR
 70
     0
  9
$PDMODE
 70
     0
  9
$PDSIZE
 40
0.0
  9
$PLINEWID
 40
0.0
  9
$COORDS
 70
     1
  9
$SPLFRAME
 70
     0
  9
$SPLINETYPE
 70
     6
  9
$SPLINESEGS
 70
     8
  9
$ATTDIA
 70
     0
  9
$ATTREQ
 70
     1
  9
$HANDLING
 70
     1
  9
$HANDSEED
  5
2C1E
  9
$SURFTAB1
 70
     6
  9
$SURFTAB2
 70
     6
  9
$SURFTYPE
 70
     6
  9
$SURFU
 70
     6
  9
$SURFV
 70
     6
  9
$UCSNAME
  2

  9
$UCSORG
 10
0.0
 20
0.0
 30
0.0
  9
$UCSXDIR
 10
1.0
 20
0.0
 30
0.0
  9
$UCSYDIR
 10
0.0
 20
1.0
 30
0.0
  9
$PUCSNAME
  2

  9
$PUCSORG
 10
0.0
 20
0.0
 30
0.0
  9
$PUCSXDIR
 10
1.0
 20
0.0
 30
0.0
  9
$PUCSYDIR
 10
0.0
 20
1.0
 30
0.0
  9
$USERI1
 70
     0
  9
$USERI2
 70
     1
  9
$USERI3
 70
     1
  9
$USERI4
 70
     0
  9
$USERI5
 70
     0
  9
$USERR1
 40
0.0
  9
$USERR2
 40
0.0
  9
$USERR3
 40
0.0
  9
$USERR4
 40
0.0
  9
$USERR5
 40
0.0
  9
$WORLDVIEW
 70
     1
  9
$SHADEDGE
 70
     3
  9
$SHADEDIF
 70
    70
  9
$TILEMODE
 70
     1
  9
$MAXACTVP
 70
    16
  9
$PLIMCHECK
 70
     0
  9
$PEXTMIN
 10
1.0000000000000000E+020
 20
1.0000000000000000E+020
 30
1.0000000000000000E+020
  9
$PEXTMAX
 10
-1.0000000000000000E+020
 20
-1.0000000000000000E+020
 30
-1.0000000000000000E+020
  9
$PLIMMIN
 10
0.0
 20
0.0
  9
$PLIMMAX
 10
12.0
 20
9.0
  9
$UNITMODE
 70
     0
  9
$VISRETAIN
 70
     0
  9
$PLINEGEN
 70
     0
  9
$PSLTSCALE
 70
     0
  0
ENDSEC
  0
SECTION
  2
TABLES
  0
TABLE
  2
VPORT
 70
     1
  0
VPORT
  2
*ACTIVE
 70
     0
 10
0.0
 20
0.0
 11
1.0
 21
1.0
 12
314.27439422178747
 22
156.19478246008731
 13
0.0
 23
0.0
 14
5.0
 24
5.0
 15
5.0
 25
5.0
 16
0.0
 26
0.0
 36
1.0
 17
0.0
 27
0.0
 37
0.0
 40
321.0939445563842
 41
2.415644171779141
 42
50.0
 43
0.0
 44
0.0
 50
0.0
 51
0.0
 71
     0
 72
   100
 73
     1
 74
     0
 75
     0
 76
     0
 77
     0
 78
     0
  0
ENDTAB
  0
TABLE
  2
LTYPE
 70
     3
  0
LTYPE
  2
CONTINUOUS
 70
     0
  3
Solid Line
 72
    65
 73
     0
 40
0.0
  0
LTYPE
  2
CENTER
 70
     0
  3
____ _ ____ _ ____ _ ____ _ ____ _ ____ _ ____
 72
    65
 73
     4
 40
2.0
 49
1.25
 49
-0.25
 49
0.25
 49
-0.25
  0
LTYPE
  2
PHANTOM2
 70
     0
  3
___ _ _ ___ _ _ ___ _ _ ___ _ _
 72
    65
 73
     6
 40
1.25
 49
0.625
 49
-0.125
 49
0.125
 49
-0.125
 49
0.125
 49
-0.125
  0
ENDTAB
  0
TABLE
  2
LAYER
 70
     4
  0
LAYER
  2
0
 70
     0
 62
     7
  6
CONTINUOUS
  0
LAYER
  2
1
 70
     0
 62
     1
  6
CENTER
  0
LAYER
  2
3
 70
     0
 62
     3
  6
CONTINUOUS
  0
LAYER
  2
DEFPOINTS
 70
     0
 62
     7
  6
CONTINUOUS
  0
ENDTAB
  0
TABLE
  2
STYLE
 70
     2
  0
STYLE
  2
STANDARD
 70
     0
 40
0.0
 41
1.0
 50
0.0
 71
     0
 42
4.0
  3
TXT
  4
BIGFONT
  0
STYLE
  2
STANDARD1
 70
     0
 40
0.0
 41
1.0
 50
0.0
 71
     0
 42
3.0
  3
txt
  4

  0
ENDTAB
  0
TABLE
  2
VIEW
 70
     1
  0
VIEW
  2
ALL
 70
     0
 40
179.66152299999999
 10
141.903918
 20
89.830760999999995
 41
0.0
 11
0.0
 21
0.0
 31
1.0
 12
0.0
 22
0.0
 32
0.0
 42
0.0
 43
0.0
 44
0.0
 50
0.0
 71
     0
  0
ENDTAB
  0
TABLE
  2
UCS
 70
     0
  0
ENDTAB
  0
TABLE
  2
APPID
 70
     5
  0
APPID
  2
ACAD
 70
     0
  0
APPID
  2
DCO15
 70
     0
  0
APPID
  2
ACAD_MLEADERVER
 70
     0
  0
APPID
  2
ACAD_NAV_VCDISPLAY
 70
     0
  0
APPID
  2
ACAD_EXEMPT_FROM_CAD_STANDARDS
 70
     0
  0
ENDTAB
  0
TABLE
  2
DIMSTYLE
 70
     1
  0
DIMSTYLE
  2
STANDARD
 70
     0
  3

  4

  5

  6

  7

 40
1.0
 41
0.18
 42
0.0625
 43
0.38
 44
0.18
 45
0.0
 46
0.0
 47
0.0
 48
0.0
140
0.18
141
0.09
142
0.0
143
25.399999999999999
144
1.0
145
0.0
146
1.0
147
0.09
 71
     0
 72
     0
 73
     1
 74
     1
 75
     0
 76
     0
 77
     0
 78
     0
170
     0
171
     2
172
     0
173
     0
174
     0
175
     0
176
     0
177
     0
178
     0
  0
ENDTAB
  0
ENDSEC
  0
SECTION
  2
BLOCKS
  0
BLOCK
  8
0
  2
$MODEL_SPACE
 70
     0
 10
0.0
 20
0.0
 30
0.0
  3
$MODEL_SPACE
  1

  0
ENDBLK
  5
1BD
  8
0
  0
BLOCK
 67
     1
  8
0
  2
$PAPER_SPACE
 70
     0
 10
0.0
 20
0.0
 30
0.0
  3
$PAPER_SPACE
  1

  0
ENDBLK
  5
1BB
 67
     1
  8
0
  0
ENDSEC
  0
SECTION
  2
ENTITIES
  0
TEXT
  5
10A0
  8
0
 62
     3
 10
0.0
 20
0.0
 30
0.0
 40
10.0
  1
HD-FKR8X16
  7
STANDARD1
  0
ARC
  5
1FE2
  8
0
 10
141.59999999999999
 20
169.0500000000001
 30
0.0
 40
0.6000000000051259
 50
133.97655897310011
 51
270.0
  0
ARC
  5
1FE3
  8
0
 10
158.40000000000009
 20
169.0500000000001
 30
0.0
 40
0.6000000000051259
 50
270.0
 51
46.02344102689991
  0
LINE
  5
1FE4
  8
0
 10
158.81661840830009
 20
169.48177436450001
 30
0.0
 11
157.66690795860001
 21
170.59112817720001
 31
0.0
  0
LINE
  5
1FE5
  8
0
 10
142.33309204139999
 20
170.59112817720001
 30
0.0
 11
141.1833815917
 21
169.48177436450001
 31
0.0
  0
LINE
  5
1FE6
  8
0
 10
157.98728739070009
 20
180.84999999999999
 30
0.0
 11
157.98728739070009
 21
180.94999999999999
 31
0.0
  0
LINE
  5
1FE7
  8
0
 10
142.0127126093
 20
180.94999999999999
 30
0.0
 11
142.0127126093
 21
180.84999999999999
 31
0.0
  0
ARC
  5
1FE8
  8
0
 10
142.11271260929999
 20
180.84999999999999
 30
0.0
 40
0.1000000000000149
 50
180.0
 51
260.0999999859967
  0
ARC
  5
1FE9
  8
0
 10
157.88728739070001
 20
180.84999999999999
 30
0.0
 40
0.1000000000000227
 50
279.9000000140033
 51
0.0
  0
LINE
  5
1FEA
  8
0
 10
142.09551969960009
 20
180.75148906730001
 30
0.0
 11
143.25
 21
180.5500000000001
 31
0.0
  0
LINE
  5
1FEB
  8
0
 10
156.75
 20
180.5500000000001
 30
0.0
 11
157.9044803005001
 21
180.75148906730001
 31
0.0
  0
ARC
  5
1FEC
  8
0
 10
140.25
 20
172.75
 30
0.0
 40
3.0
 50
313.97655897359891
 51
0.0
  0
ARC
  5
1FED
  8
0
 10
159.75
 20
172.75
 30
0.0
 40
3.0000000000000089
 50
180.0
 51
226.02344102640109
  0
LINE
  5
1FEE
  8
0
 10
156.75
 20
172.75
 30
0.0
 11
156.75
 21
180.5500000000001
 31
0.0
  0
LINE
  5
1FEF
  8
0
 10
143.25
 20
180.5500000000001
 30
0.0
 11
143.25
 21
172.75
 31
0.0
  0
LINE
  5
1FFF
  8
0
 10
141.59999999999999
 20
168.44999999999999
 30
0.0
 11
158.40000000000009
 21
168.44999999999999
 31
0.0
  0
LINE
  5
200C
  8
0
 10
143.25
 20
180.5500000000001
 30
0.0
 11
156.75000000000011
 21
180.5500000000001
 31
0.0
  0
LINE
  5
2012
  8
1
 10
150.0
 20
232.01365481360531
 30
0.0
 11
150.0
 21
147.44999999999999
 31
0.0
  0
LINE
  5
202B
  8
1
 10
236.5
 20
297.89999999999998
 30
0.0
 11
132.59999999999999
 21
297.89999999999998
 31
0.0
  0
CIRCLE
  5
202C
  8
0
 10
150.0
 20
100.0
 30
0.0
 40
9.0
  0
CIRCLE
  5
2030
  8
0
 10
150.0
 20
100.0
 30
0.0
 40
4.000000000019142
  0
CIRCLE
  5
2031
  8
3
 10
150.0
 20
100.0
 30
0.0
 40
3.2330000000000041
  0
CIRCLE
  5
2034
  8
0
 10
150.0
 20
100.0
 30
0.0
 40
11.800000000000001
  0
ARC
  5
206C
  8
0
 10
261.60000000000002
 20
169.0500000000001
 30
0.0
 40
0.6000000000050864
 50
133.97655897310011
 51
270.0
  0
ARC
  5
206D
  8
0
 10
278.40000000000009
 20
169.0500000000001
 30
0.0
 40
0.6000000000050864
 50
270.0
 51
46.02344102689991
  0
LINE
  5
206E
  8
0
 10
278.81661840830009
 20
169.48177436450001
 30
0.0
 11
277.66690795860001
 21
170.59112817720001
 31
0.0
  0
LINE
  5
206F
  8
0
 10
262.33309204140011
 20
170.59112817720001
 30
0.0
 11
261.18338159170003
 21
169.48177436450001
 31
0.0
  0
LINE
  5
2070
  8
0
 10
277.98728739069998
 20
180.84999999999999
 30
0.0
 11
277.98728739069998
 21
180.94999999999999
 31
0.0
  0
LINE
  5
2071
  8
0
 10
262.01271260930002
 20
180.94999999999999
 30
0.0
 11
262.01271260930002
 21
180.84999999999999
 31
0.0
  0
ARC
  5
2072
  8
0
 10
262.11271260929999
 20
180.84999999999999
 30
0.0
 40
0.1000000000000227
 50
180.0
 51
260.0999999859967
  0
ARC
  5
2073
  8
0
 10
277.88728739070012
 20
180.84999999999999
 30
0.0
 40
0.1000000000000247
 50
279.9000000140033
 51
0.0
  0
LINE
  5
2074
  8
0
 10
262.09551969960012
 20
180.75148906730001
 30
0.0
 11
263.25
 21
180.5500000000001
 31
0.0
  0
LINE
  5
2075
  8
0
 10
276.75
 20
180.5500000000001
 30
0.0
 11
277.9044803005001
 21
180.75148906730001
 31
0.0
  0
ARC
  5
2076
  8
0
 10
260.25
 20
172.75
 30
0.0
 40
3.0
 50
313.97655897359891
 51
0.0
  0
ARC
  5
2077
  8
0
 10
279.75
 20
172.75
 30
0.0
 40
3.0
 50
180.0
 51
226.02344102640109
  0
LINE
  5
2078
  8
0
 10
276.75
 20
172.75
 30
0.0
 11
276.75
 21
180.5500000000001
 31
0.0
  0
LINE
  5
2079
  8
0
 10
263.25
 20
180.5500000000001
 30
0.0
 11
263.25
 21
172.75
 31
0.0
  0
LINE
  5
20B0
  8
0
 10
261.60000000000002
 20
168.44999999999999
 30
0.0
 11
278.40000000000009
 21
168.44999999999999
 31
0.0
  0
LINE
  5
20B1
  8
0
 10
263.25
 20
180.5500000000001
 30
0.0
 11
276.75
 21
180.5500000000001
 31
0.0
  0
ARC
  5
20BE
  8
0
 10
61.600000000000023
 20
169.0500000000001
 30
0.0
 40
0.6000000000051259
 50
133.97655897310011
 51
270.0
  0
ARC
  5
20BF
  8
0
 10
78.399999999999977
 20
169.0500000000001
 30
0.0
 40
0.6000000000051458
 50
270.0
 51
46.02344102689991
  0
LINE
  5
20C0
  8
0
 10
78.816618408299973
 20
169.48177436450001
 30
0.0
 11
77.66690795859995
 21
170.59112817720001
 31
0.0
  0
LINE
  5
20C1
  8
0
 10
62.333092041399937
 20
170.59112817720001
 30
0.0
 11
61.183381591699913
 21
169.48177436450001
 31
0.0
  0
LINE
  5
20C2
  8
0
 10
77.987287390699976
 20
180.84999999999999
 30
0.0
 11
77.987287390699976
 21
180.94999999999999
 31
0.0
  0
LINE
  5
20C3
  8
0
 10
62.012712609299911
 20
180.94999999999999
 30
0.0
 11
62.012712609299911
 21
180.84999999999999
 31
0.0
  0
ARC
  5
20C4
  8
0
 10
62.11271260930004
 20
180.84999999999999
 30
0.0
 40
0.1000000000000125
 50
180.0
 51
260.0999999859967
  0
ARC
  5
20C5
  8
0
 10
77.887287390699953
 20
180.84999999999999
 30
0.0
 40
0.1000000000000227
 50
279.9000000140033
 51
0.0
  0
LINE
  5
20C6
  8
0
 10
62.095519699599997
 20
180.75148906730001
 30
0.0
 11
63.25
 21
180.5500000000001
 31
0.0
  0
LINE
  5
20C7
  8
0
 10
76.75
 20
180.5500000000001
 30
0.0
 11
77.90448030050004
 21
180.75148906730001
 31
0.0
  0
ARC
  5
20C8
  8
0
 10
60.25
 20
172.75
 30
0.0
 40
3.0
 50
313.97655897359891
 51
0.0
  0
ARC
  5
20C9
  8
0
 10
79.75
 20
172.75
 30
0.0
 40
3.0000000000000089
 50
180.0
 51
226.02344102640109
  0
LINE
  5
20CA
  8
0
 10
76.75
 20
172.75
 30
0.0
 11
76.75
 21
180.5500000000001
 31
0.0
  0
LINE
  5
20CB
  8
0
 10
63.25
 20
180.5500000000001
 30
0.0
 11
63.25
 21
172.75
 31
0.0
  0
LINE
  5
20E1
  8
0
 10
61.600000000000023
 20
168.44999999999999
 30
0.0
 11
78.399999999999977
 21
168.44999999999999
 31
0.0
  0
LINE
  5
20E2
  8
0
 10
63.25
 20
180.5500000000001
 30
0.0
 11
76.75
 21
180.5500000000001
 31
0.0
  0
LINE
  5
21C8
  8
1
 10
150.0
 20
315.35000000000008
 30
0.0
 11
150.0
 21
280.44999999999999
 31
0.0
  0
LINE
  5
21C9
  8
1
 10
236.5
 20
100.0
 30
0.0
 11
132.59999999999999
 21
100.0
 31
0.0
  0
LINE
  5
21CA
  8
1
 10
150.0
 20
117.45
 30
0.0
 11
150.0
 21
82.549999999999969
 31
0.0
  0
LINE
  5
21CC
  8
1
 10
70.0
 20
250.4500000000001
 30
0.0
 11
70.0
 21
147.44999999999999
 31
0.0
  0
LINE
  5
21CF
  8
1
 10
270.0
 20
250.4500000000001
 30
0.0
 11
270.0
 21
147.44999999999999
 31
0.0
  0
LINE
  5
22A8
  8
0
 10
73.0
 20
166.34282032302761
 30
0.0
 11
73.0
 21
167.05000000000001
 31
0.0
  0
LINE
  5
22A9
  8
0
 10
67.0
 20
167.05000000000001
 30
0.0
 11
67.0
 21
166.34282032302761
 31
0.0
  0
ARC
  5
22AA
  8
0
 10
73.599999999999994
 20
166.34282032302761
 30
0.0
 40
0.6000000000000015
 50
180.0
 51
210.00000000000011
  0
ARC
  5
22AB
  8
0
 10
66.400000000000006
 20
166.34282032302761
 30
0.0
 40
0.5999999999999927
 50
329.99999999999989
 51
0.0
  0
LINE
  5
22AC
  8
0
 10
67.0
 20
166.34282032302761
 30
0.0
 11
73.0
 21
166.34282032302761
 31
0.0
  0
ARC
  5
22AD
  8
0
 10
73.599999999999994
 20
167.05000000000001
 30
0.0
 40
0.6000000000000009
 50
90.0
 51
180.0
  0
ARC
  5
22AE
  8
0
 10
66.400000000000006
 20
167.05000000000001
 30
0.0
 40
0.600000000000001
 50
0.0
 51
90.0
  0
LINE
  5
22AF
  8
0
 10
67.0
 20
167.05000000000001
 30
0.0
 11
73.0
 21
167.05000000000001
 31
0.0
  0
LINE
  5
22B0
  8
0
 10
74.0
 20
153.21700000000001
 30
0.0
 11
74.0
 21
164.44999999999999
 31
0.0
  0
LINE
  5
22B1
  8
0
 10
66.0
 20
164.44999999999999
 30
0.0
 11
66.0
 21
153.21700000000001
 31
0.0
  0
LINE
  5
22B2
  8
0
 10
66.919615242270666
 20
166.0428203230276
 30
0.0
 11
66.0
 21
164.44999999999999
 31
0.0
  0
LINE
  5
22B3
  8
0
 10
74.0
 20
164.44999999999999
 30
0.0
 11
73.080384757729334
 21
166.0428203230276
 31
0.0
  0
LINE
  5
22B4
  8
0
 10
66.919615242270666
 20
166.0428203230276
 30
0.0
 11
73.080384757729334
 21
166.0428203230276
 31
0.0
  0
LINE
  5
22B5
  8
0
 10
66.0
 20
164.44999999999999
 30
0.0
 11
74.0
 21
164.44999999999999
 31
0.0
  0
LINE
  5
22B6
  8
0
 10
74.0
 20
167.65000000000001
 30
0.0
 11
74.0
 21
168.44999999999999
 31
0.0
  0
LINE
  5
22B7
  8
0
 10
66.0
 20
168.44999999999999
 30
0.0
 11
66.0
 21
167.65000000000001
 31
0.0
  0
LINE
  5
22B8
  8
0
 10
66.0
 20
167.65000000000001
 30
0.0
 11
74.0
 21
167.65000000000001
 31
0.0
  0
LINE
  5
22B9
  8
0
 10
73.233000000000004
 20
152.44999999999999
 30
0.0
 11
74.0
 21
153.21700000000001
 31
0.0
  0
LINE
  5
22BA
  8
0
 10
66.0
 20
153.21700000000001
 30
0.0
 11
66.766999999999996
 21
152.44999999999999
 31
0.0
  0
LINE
  5
22BB
  8
0
 10
66.0
 20
153.21700000000001
 30
0.0
 11
74.0
 21
153.21700000000001
 31
0.0
  0
LINE
  5
22BC
  8
0
 10
66.766999999999996
 20
152.44999999999999
 30
0.0
 11
73.233000000000004
 21
152.44999999999999
 31
0.0
  0
LINE
  5
22BD
  8
3
 10
73.233000000000004
 20
152.44999999999999
 30
0.0
 11
73.233000000000004
 21
164.44999999999999
 31
0.0
  0
LINE
  5
22BF
  8
3
 10
66.766999999999996
 20
152.44999999999999
 30
0.0
 11
66.766999999999996
 21
164.44999999999999
 31
0.0
  0
POINT
  5
22C1
  8
0
 10
70.0
 20
153.21700000000001
 30
4.0
  0
POINT
  5
22C2
  8
0
 10
70.0
 20
153.21700000000001
 30
-4.0
  0
POINT
  5
22C3
  8
0
 10
70.0
 20
152.44999999999999
 30
0.0
  0
POINT
  5
22C4
  8
0
 10
70.0
 20
168.44999999999999
 30
0.0
  0
LINE
  5
22CC
  8
0
 10
153.0
 20
166.34282032302761
 30
0.0
 11
153.0
 21
167.05000000000001
 31
0.0
  0
LINE
  5
22CD
  8
0
 10
147.0
 20
167.05000000000001
 30
0.0
 11
147.0
 21
166.34282032302761
 31
0.0
  0
ARC
  5
22CE
  8
0
 10
153.59999999999999
 20
166.34282032302761
 30
0.0
 40
0.6000000000000015
 50
180.0
 51
210.0000000000002
  0
ARC
  5
22CF
  8
0
 10
146.40000000000001
 20
166.34282032302761
 30
0.0
 40
0.5999999999999927
 50
329.99999999999977
 51
0.0
  0
LINE
  5
22D0
  8
0
 10
147.0
 20
166.34282032302761
 30
0.0
 11
153.0
 21
166.34282032302761
 31
0.0
  0
ARC
  5
22D1
  8
0
 10
153.59999999999999
 20
167.05000000000001
 30
0.0
 40
0.6000000000000009
 50
90.0
 51
180.0
  0
ARC
  5
22D2
  8
0
 10
146.40000000000001
 20
167.05000000000001
 30
0.0
 40
0.600000000000001
 50
0.0
 51
90.0
  0
LINE
  5
22D3
  8
0
 10
147.0
 20
167.05000000000001
 30
0.0
 11
153.0
 21
167.05000000000001
 31
0.0
  0
LINE
  5
22D4
  8
0
 10
154.0
 20
153.21700000000001
 30
0.0
 11
154.0
 21
164.44999999999999
 31
0.0
  0
LINE
  5
22D5
  8
0
 10
146.0
 20
164.44999999999999
 30
0.0
 11
146.0
 21
153.21700000000001
 31
0.0
  0
LINE
  5
22D6
  8
0
 10
146.91961524227059
 20
166.0428203230276
 30
0.0
 11
146.0
 21
164.44999999999999
 31
0.0
  0
LINE
  5
22D7
  8
0
 10
154.0
 20
164.44999999999999
 30
0.0
 11
153.08038475772929
 21
166.0428203230276
 31
0.0
  0
LINE
  5
22D8
  8
0
 10
146.91961524227059
 20
166.0428203230276
 30
0.0
 11
153.08038475772929
 21
166.0428203230276
 31
0.0
  0
LINE
  5
22D9
  8
0
 10
146.0
 20
164.44999999999999
 30
0.0
 11
154.0
 21
164.44999999999999
 31
0.0
  0
LINE
  5
22DA
  8
0
 10
154.0
 20
167.65000000000001
 30
0.0
 11
154.0
 21
168.44999999999999
 31
0.0
  0
LINE
  5
22DB
  8
0
 10
146.0
 20
168.44999999999999
 30
0.0
 11
146.0
 21
167.65000000000001
 31
0.0
  0
LINE
  5
22DC
  8
0
 10
146.0
 20
167.65000000000001
 30
0.0
 11
154.0
 21
167.65000000000001
 31
0.0
  0
LINE
  5
22DD
  8
0
 10
153.233
 20
152.44999999999999
 30
0.0
 11
154.0
 21
153.21700000000001
 31
0.0
  0
LINE
  5
22DE
  8
0
 10
146.0
 20
153.21700000000001
 30
0.0
 11
146.767
 21
152.44999999999999
 31
0.0
  0
LINE
  5
22DF
  8
0
 10
146.0
 20
153.21700000000001
 30
0.0
 11
154.0
 21
153.21700000000001
 31
0.0
  0
LINE
  5
22E0
  8
0
 10
146.767
 20
152.44999999999999
 30
0.0
 11
153.233
 21
152.44999999999999
 31
0.0
  0
LINE
  5
22E1
  8
3
 10
153.233
 20
152.44999999999999
 30
0.0
 11
153.233
 21
164.44999999999999
 31
0.0
  0
LINE
  5
22E2
  8
3
 10
146.767
 20
152.44999999999999
 30
0.0
 11
146.767
 21
164.44999999999999
 31
0.0
  0
POINT
  5
22E3
  8
0
 10
150.0
 20
153.21700000000001
 30
4.0
  0
POINT
  5
22E4
  8
0
 10
150.0
 20
153.21700000000001
 30
-4.0
  0
POINT
  5
22E5
  8
0
 10
150.0
 20
152.44999999999999
 30
0.0
  0
POINT
  5
22E6
  8
0
 10
150.0
 20
168.44999999999999
 30
0.0
  0
LINE
  5
22E7
  8
0
 10
273.0
 20
166.34282032302761
 30
0.0
 11
273.0
 21
167.05000000000001
 31
0.0
  0
LINE
  5
22E8
  8
0
 10
267.00000000000011
 20
167.05000000000001
 30
0.0
 11
267.00000000000011
 21
166.34282032302761
 31
0.0
  0
ARC
  5
22E9
  8
0
 10
273.60000000000002
 20
166.34282032302761
 30
0.0
 40
0.6000000000000015
 50
180.0
 51
209.9999999999998
  0
ARC
  5
22EA
  8
0
 10
266.40000000000009
 20
166.34282032302761
 30
0.0
 40
0.5999999999999927
 50
330.00000000000023
 51
0.0
  0
LINE
  5
22EB
  8
0
 10
267.00000000000011
 20
166.34282032302761
 30
0.0
 11
273.0
 21
166.34282032302761
 31
0.0
  0
ARC
  5
22EC
  8
0
 10
273.60000000000002
 20
167.05000000000001
 30
0.0
 40
0.6000000000000009
 50
90.0
 51
180.0
  0
ARC
  5
22ED
  8
0
 10
266.40000000000009
 20
167.05000000000001
 30
0.0
 40
0.600000000000001
 50
0.0
 51
90.0
  0
LINE
  5
22EE
  8
0
 10
267.00000000000011
 20
167.05000000000001
 30
0.0
 11
273.0
 21
167.05000000000001
 31
0.0
  0
LINE
  5
22EF
  8
0
 10
274.00000000000011
 20
153.21700000000001
 30
0.0
 11
274.00000000000011
 21
164.44999999999999
 31
0.0
  0
LINE
  5
22F0
  8
0
 10
266.00000000000011
 20
164.44999999999999
 30
0.0
 11
266.00000000000011
 21
153.21700000000001
 31
0.0
  0
LINE
  5
22F1
  8
0
 10
266.91961524227071
 20
166.0428203230276
 30
0.0
 11
266.00000000000011
 21
164.44999999999999
 31
0.0
  0
LINE
  5
22F2
  8
0
 10
274.00000000000011
 20
164.44999999999999
 30
0.0
 11
273.08038475772941
 21
166.0428203230276
 31
0.0
  0
LINE
  5
22F3
  8
0
 10
266.91961524227071
 20
166.0428203230276
 30
0.0
 11
273.08038475772941
 21
166.0428203230276
 31
0.0
  0
LINE
  5
22F4
  8
0
 10
266.00000000000011
 20
164.44999999999999
 30
0.0
 11
274.00000000000011
 21
164.44999999999999
 31
0.0
  0
LINE
  5
22F5
  8
0
 10
274.00000000000011
 20
167.65000000000001
 30
0.0
 11
274.00000000000011
 21
168.44999999999999
 31
0.0
  0
LINE
  5
22F6
  8
0
 10
266.00000000000011
 20
168.44999999999999
 30
0.0
 11
266.00000000000011
 21
167.65000000000001
 31
0.0
  0
LINE
  5
22F7
  8
0
 10
266.00000000000011
 20
167.65000000000001
 30
0.0
 11
274.00000000000011
 21
167.65000000000001
 31
0.0
  0
LINE
  5
22F8
  8
0
 10
273.23300000000012
 20
152.44999999999999
 30
0.0
 11
274.00000000000011
 21
153.21700000000001
 31
0.0
  0
LINE
  5
22F9
  8
0
 10
266.00000000000011
 20
153.21700000000001
 30
0.0
 11
266.76700000000011
 21
152.44999999999999
 31
0.0
  0
LINE
  5
22FA
  8
0
 10
266.00000000000011
 20
153.21700000000001
 30
0.0
 11
274.00000000000011
 21
153.21700000000001
 31
0.0
  0
LINE
  5
22FB
  8
0
 10
266.76700000000011
 20
152.44999999999999
 30
0.0
 11
273.23300000000012
 21
152.44999999999999
 31
0.0
  0
LINE
  5
22FC
  8
3
 10
273.23300000000012
 20
152.44999999999999
 30
0.0
 11
273.23300000000012
 21
164.44999999999999
 31
0.0
  0
LINE
  5
22FD
  8
3
 10
266.76700000000011
 20
152.44999999999999
 30
0.0
 11
266.76700000000011
 21
164.44999999999999
 31
0.0
  0
POINT
  5
22FE
  8
0
 10
270.00000000000011
 20
153.21700000000001
 30
4.0
  0
POINT
  5
22FF
  8
0
 10
270.00000000000011
 20
153.21700000000001
 30
-4.0
  0
POINT
  5
2300
  8
0
 10
270.00000000000011
 20
152.44999999999999
 30
0.0
  0
POINT
  5
2301
  8
0
 10
270.00000000000011
 20
168.44999999999999
 30
0.0
  0
LINE
  5
2507
  8
0
 10
231.5
 20
296.72822956810001
 30
0.0
 11
231.5
 21
299.07177043190012
 31
0.0
  0
ARC
  5
2508
  8
0
 10
172.93181448050009
 20
353.39882473590012
 30
0.0
 40
47.599999999999888
 50
261.86970562440149
 51
278.78302068610179
  0
ARC
  5
2509
  8
0
 10
181.9999999888
 20
295.09999999809997
 30
0.0
 40
11.40000000002386
 50
87.988086801799128
 51
99.084720230303375
  0
LINE
  5
250A
  8
0
 10
225.80713302780009
 20
305.00000000000011
 30
0.0
 11
182.40022313830011
 21
306.49297245629998
 31
0.0
  0
ARC
  5
250B
  8
0
 10
224.99265363506541
 20
296.3277938896677
 30
0.0
 40
8.7103694239265934
 50
77.351208749443927
 51
84.634612719725183
  0
ARC
  5
250C
  8
0
 10
225.60000000000019
 20
299.07177043190012
 30
0.0
 40
5.8999999999997677
 50
0.0
 51
77.27105612689715
  0
ARC
  5
250D
  8
0
 10
172.93181448050009
 20
242.40117526399999
 30
0.0
 40
47.599999999999653
 50
98.130294375598552
 51
112.39071048560101
  0
ARC
  5
250E
  8
0
 10
172.93181448050009
 20
353.39882473590012
 30
0.0
 40
47.600000000000207
 50
247.6092895143004
 51
261.86970562440149
  0
LINE
  5
25A7
  8
0
 10
225.80713302780001
 20
290.8000000000003
 30
0.0
 11
182.40022313829991
 21
289.30702754370122
 31
0.0
  0
ARC
  5
25A8
  8
0
 10
224.99265363506541
 20
299.47220611033259
 30
0.0
 40
8.7103694239265934
 50
275.36538728026818
 51
282.64879125055597
  0
ARC
  5
25A9
  8
0
 10
225.60000000000019
 20
296.72822956810018
 30
0.0
 40
5.8999999999997677
 50
282.72894387310271
 51
0.0
  0
ARC
  5
25AA
  8
0
 10
172.93181448050009
 20
242.40117526410009
 30
0.0
 40
47.599999999999888
 50
81.216979313898165
 51
98.130294375598552
  0
ARC
  5
25AB
  8
0
 10
181.9999999888
 20
300.70000000190009
 30
0.0
 40
11.40000000002386
 50
260.91527976969661
 51
272.01191319820077
  0
LINE
  5
25AC
  8
0
 10
137.59999999999999
 20
299.01467484048101
 30
0.0
 11
137.59999999999999
 21
296.785325159519
 31
0.0
  0
ARC
  5
25AD
  8
0
 10
150.0
 20
297.89999999999998
 30
0.0
 40
12.44999999999999
 50
67.322597121496344
 51
174.86330937005641
  0
ARC
  5
25AE
  8
0
 10
150.0
 20
297.89999999999998
 30
0.0
 40
12.44999999999999
 50
185.1366906299435
 51
292.6774028785037
  0
LINE
  5
2603
  8
0
 10
231.5
 20
98.828229568099971
 30
0.0
 11
231.5
 21
101.1717704318999
 31
0.0
  0
ARC
  5
2604
  8
0
 10
172.93181448050009
 20
155.4988247359
 30
0.0
 40
47.599999999999888
 50
261.86970562440138
 51
278.78302068610179
  0
ARC
  5
2605
  8
0
 10
181.9999999888
 20
97.199999998099941
 30
0.0
 40
11.40000000002386
 50
87.988086801799128
 51
99.084720230303446
  0
LINE
  5
2606
  8
0
 10
225.80713302780009
 20
107.09999999999989
 30
0.0
 11
182.40022313830011
 21
108.5929724562999
 31
0.0
  0
ARC
  5
2607
  8
0
 10
224.99265363506541
 20
98.427793889667612
 30
0.0
 40
8.7103694239265934
 50
77.351208749444041
 51
84.634612719725098
  0
ARC
  5
2608
  8
0
 10
225.60000000000019
 20
101.1717704318999
 30
0.0
 40
5.8999999999997677
 50
0.0
 51
77.27105612689725
  0
ARC
  5
2609
  8
0
 10
172.93181448050009
 20
44.501175263999919
 30
0.0
 40
47.599999999999653
 50
98.130294375598623
 51
112.39071048560091
  0
ARC
  5
260A
  8
0
 10
172.93181448050009
 20
155.4988247359
 30
0.0
 40
47.600000000000207
 50
247.60928951430051
 51
261.86970562440138
  0
LINE
  5
260B
  8
0
 10
225.80713302780001
 20
92.900000000000148
 30
0.0
 11
182.40022313829991
 21
91.407027543701133
 31
0.0
  0
ARC
  5
260C
  8
0
 10
224.99265363506541
 20
101.5722061103325
 30
0.0
 40
8.7103694239265934
 50
275.36538728026818
 51
282.64879125055592
  0
ARC
  5
260D
  8
0
 10
225.60000000000019
 20
98.828229568100156
 30
0.0
 40
5.8999999999997677
 50
282.72894387310259
 51
0.0
  0
ARC
  5
260E
  8
0
 10
172.93181448050009
 20
44.50117526409997
 30
0.0
 40
47.599999999999888
 50
81.216979313898136
 51
98.130294375598623
  0
ARC
  5
260F
  8
0
 10
181.9999999888
 20
102.8000000019
 30
0.0
 40
11.40000000002386
 50
260.9152797696965
 51
272.01191319820077
  0
LINE
  5
2610
  8
0
 10
137.59999999999999
 20
101.1146748404809
 30
0.0
 11
137.59999999999999
 21
98.885325159518914
 31
0.0
  0
ARC
  5
2611
  8
0
 10
150.0
 20
99.999999999999943
 30
0.0
 40
12.44999999999999
 50
67.322597121496287
 51
174.86330937005641
  0
ARC
  5
2612
  8
0
 10
150.0
 20
99.999999999999943
 30
0.0
 40
12.44999999999999
 50
185.1366906299435
 51
292.6774028785037
  0
ARC
  5
2613
  8
0
 10
168.93332362025521
 20
208.4062207761832
 30
0.0
 40
6.6892848850180187
 50
117.9310937931461
 51
177.69645270226039
  0
LINE
  5
2614
  8
0
 10
137.75055571089999
 20
208.67508758240001
 30
0.0
 11
138.19999999999999
 21
182.65000000000001
 31
0.0
  0
ARC
  5
2615
  8
0
 10
139.69999999999999
 20
182.65000000000001
 30
0.0
 40
1.5000000000000191
 50
180.0
 51
260.70461183110172
  0
LINE
  5
2616
  8
0
 10
139.4577134196
 20
181.16969691849999
 30
0.0
 11
140.8000000000001
 21
180.94999999999999
 31
0.0
  0
LINE
  5
2617
  8
0
 10
159.19999999999999
 20
180.94999999999999
 30
0.0
 11
160.5422865805001
 21
181.16969691849999
 31
0.0
  0
LINE
  5
2618
  8
0
 10
137.7505557107001
 20
208.67508758240001
 30
0.0
 11
137.72875054790001
 21
209.9383443376
 31
0.0
  0
LINE
  5
2619
  8
0
 10
137.60090852779899
 20
217.34472315776441
 30
0.0
 11
137.72875054790001
 21
209.9383443376
 31
0.0
  0
ARC
  5
261A
  8
0
 10
143.69999999999999
 20
217.44999999999999
 30
0.0
 40
6.1000000000003016
 50
126.1686423476968
 51
180.988888233301
  0
ARC
  5
261B
  8
0
 10
229.88408499740009
 20
43.660081180200052
 30
0.0
 40
200.00000000003101
 50
112.05030004679691
 51
116.67444061213411
  0
ARC
  5
261C
  8
0
 10
249.3774025112001
 20
-23.303327227699981
 30
0.0
 40
269.7000000001994
 50
104.86234307459959
 51
107.96326284230101
  0
ARC
  5
261D
  8
0
 10
261.76791955369998
 20
28.652180253100031
 30
0.0
 40
208.99999999999011
 50
112.9717441521985
 51
117.3339908930997
  0
ARC
  5
261E
  8
0
 10
229.88408499730011
 20
43.66008118030004
 30
0.0
 40
199.9999999999778
 50
108.5674257503033
 51
112.05030004679691
  0
LINE
  5
261F
  8
0
 10
140.8000000000001
 20
180.94999999999999
 30
0.0
 11
159.19999999999999
 21
180.94999999999999
 31
0.0
  0
LINE
  5
2620
  8
0
 10
180.19999999999999
 20
237.37382363500009
 30
0.0
 11
182.40022313830011
 21
237.94779227870001
 31
0.0
  0
LINE
  5
2621
  8
0
 10
180.19999999999999
 20
221.07794386000009
 30
0.0
 11
182.40022313830011
 21
221.99583483149999
 31
0.0
  0
LINE
  5
2622
  8
0
 10
225.80713302780009
 20
232.52358963660001
 30
0.0
 11
225.60000000000019
 21
232.44999999999999
 31
0.0
  0
LINE
  5
2623
  8
0
 10
225.60000000000019
 20
232.44999999999999
 30
0.0
 11
220.69999999999999
 21
230.7001046029001
 31
0.0
  0
ARC
  5
2624
  8
0
 10
216.40000000000009
 20
242.65000000000001
 30
0.0
 40
12.69999999999998
 50
251.6415629245987
 51
289.79054661400193
  0
ARC
  5
2625
  8
0
 10
210.18129510099999
 20
223.85193891130001
 30
0.0
 40
7.1000000000034271
 50
71.790426281300071
 51
103.6978758300021
  0
ARC
  5
2626
  8
0
 10
249.3774025112001
 20
-23.303327227499949
 30
0.0
 40
269.69999999999987
 50
95.013726388001103
 51
104.3792776411988
  0
ARC
  5
2627
  8
0
 10
261.76791955369998
 20
28.652180253100031
 30
0.0
 40
209.0
 50
104.7659075683988
 51
112.3181820657978
  0
LINE
  5
2628
  8
0
 10
226.90000000000009
 20
245.44999999999999
 30
0.0
 11
226.8000000000001
 21
245.44999999999999
 31
0.0
  0
ARC
  5
2629
  8
0
 10
226.90000000000009
 20
240.84999999999999
 30
0.0
 40
4.599999999999965
 50
0.0
 51
90.0
  0
LINE
  5
262A
  8
0
 10
231.5
 20
240.84999999999999
 30
0.0
 11
231.49020696700009
 21
240.55000000000001
 31
0.0
  0
ARC
  5
262B
  8
0
 10
222.79132034410009
 20
240.68407232600001
 30
0.0
 40
8.6999197621407802
 50
290.28244866469902
 51
359.11699386499868
  0
LINE
  5
262C
  8
0
 10
226.8000000000001
 20
245.44999999999999
 30
0.0
 11
225.80713302780009
 21
245.36474381270011
 31
0.0
  0
LINE
  5
262D
  8
0
 10
262.60140394100011
 20
229.94999999999999
 30
0.0
 11
277.39859605900011
 21
229.94999999999999
 31
0.0
  0
ARC
  5
262E
  8
0
 10
318.38368573108193
 20
203.58593342731211
 30
0.0
 40
36.490860425515699
 50
169.97474511941999
 51
171.98317998789301
  0
ARC
  5
262F
  8
0
 10
221.61631395332191
 20
203.58593337435539
 30
0.0
 40
36.490860745512073
 50
8.0168200253136437
 51
10.02525487619779
  0
ARC
  5
2630
  8
0
 10
259.69999999999999
 20
182.65000000000001
 30
0.0
 40
1.500000000000024
 50
180.988888233301
 51
260.70461183110172
  0
ARC
  5
2631
  8
0
 10
280.30000000000013
 20
182.65000000000001
 30
0.0
 40
1.500000000000024
 50
279.29538816889828
 51
359.011111766699
  0
LINE
  5
2632
  8
0
 10
259.45771341960011
 20
181.16969691849999
 30
0.0
 11
260.80000000000001
 21
180.94999999999999
 31
0.0
  0
LINE
  5
2633
  8
0
 10
279.2000000000001
 20
180.94999999999999
 30
0.0
 11
280.5422865805001
 21
181.16969691849999
 31
0.0
  0
LINE
  5
2634
  8
0
 10
257.55000000000013
 20
227.01198384720001
 30
0.0
 11
257.55000000000013
 21
209.9383443376
 31
0.0
  0
LINE
  5
2635
  8
0
 10
282.44999999999999
 20
209.9383443376
 30
0.0
 11
282.44999999999999
 21
227.0096995987
 31
0.0
  0
LINE
  5
2636
  8
0
 10
276.92676825990009
 20
245.44999999999999
 30
0.0
 11
263.07323174020007
 21
245.44999999999999
 31
0.0
  0
LINE
  5
2637
  8
0
 10
276.9484476775001
 20
245.44999999999999
 30
0.0
 11
276.92676825990009
 21
245.44999999999999
 31
0.0
  0
LINE
  5
2638
  8
0
 10
277.10000000000002
 20
245.34204412979571
 30
0.0
 11
276.9484476775001
 21
245.44999999999999
 31
0.0
  0
LINE
  5
2639
  8
0
 10
277.10000000000002
 20
232.2000149438272
 30
0.0
 11
277.10000000000002
 21
245.34204412979571
 31
0.0
  0
LINE
  5
263A
  8
0
 10
263.05155232250007
 20
245.44999999999999
 30
0.0
 11
262.89999999999998
 21
245.3420441297053
 31
0.0
  0
LINE
  5
263B
  8
0
 10
263.07323174020007
 20
245.44999999999999
 30
0.0
 11
263.05155232250007
 21
245.44999999999999
 31
0.0
  0
LINE
  5
263C
  8
0
 10
262.89999999999998
 20
245.34204412970541
 30
0.0
 11
262.89999999999998
 21
232.2000149431251
 31
0.0
  0
POLYLINE
  5
263D
  8
0
 10
278.60000000000002
 20
221.91359320362199
 30
0.0
 66
     1
 70
     8
  0
VERTEX
  8
0
  5
270A
 10
278.600
 20
221.914
 30
0.000000
  70
    32
  0
VERTEX
  8
0
  5
270B
 10
278.593
 20
221.996
 30
0.000000
  70
    32
  0
VERTEX
  8
0
  5
270C
 10
278.586
 20
222.078
 30
0.000000
  70
    32
  0
VERTEX
  8
0
  5
270D
 10
278.579
 20
222.160
 30
0.000000
  70
    32
  0
VERTEX
  8
0
  5
270E
 10
278.572
 20
222.242
 30
0.000000
  70
    32
  0
VERTEX
  8
0
  5
270F
 10
278.565
 20
222.324
 30
0.000000
  70
    32
  0
VERTEX
  8
0
  5
2710
 10
278.558
 20
222.405
 30
0.000000
  70
    32
  0
VERTEX
  8
0
  5
2711
 10
278.551
 20
222.487
 30
0.000000
  70
    32
  0
VERTEX
  8
0
  5
2712
 10
278.544
 20
222.568
 30
0.000000
  70
    32
  0
VERTEX
  8
0
  5
2713
 10
278.536
 20
222.648
 30
0.000000
  70
    32
  0
VERTEX
  8
0
  5
2714
 10
278.529
 20
222.729
 30
0.000000
  70
    32
  0
VERTEX
  8
0
  5
2715
 10
278.522
 20
222.809
 30
0.000000
  70
    32
  0
VERTEX
  8
0
  5
2716
 10
278.515
 20
222.890
 30
0.000000
  70
    32
  0
VERTEX
  8
0
  5
2717
 10
278.508
 20
222.970
 30
0.000000
  70
    32
  0
VERTEX
  8
0
  5
2718
 10
278.501
 20
223.049
 30
0.000000
  70
    32
  0
VERTEX
  8
0
  5
2719
 10
278.494
 20
223.129
 30
0.000000
  70
    32
  0
VERTEX
  8
0
  5
271A
 10
278.487
 20
223.208
 30
0.000000
  70
    32
  0
VERTEX
  8
0
  5
271B
 10
278.480
 20
223.287
 30
0.000000
  70
    32
  0
VERTEX
  8
0
  5
271C
 10
278.473
 20
223.366
 30
0.000000
  70
    32
  0
VERTEX
  8
0
  5
271D
 10
278.466
 20
223.445
 30
0.000000
  70
    32
  0
VERTEX
  8
0
  5
271E
 10
278.458
 20
223.523
 30
0.000000
  70
    32
  0
VERTEX
  8
0
  5
271F
 10
278.451
 20
223.602
 30
0.000000
  70
    32
  0
VERTEX
  8
0
  5
2720
 10
278.444
 20
223.680
 30
0.000000
  70
    32
  0
VERTEX
  8
0
  5
2721
 10
278.437
 20
223.758
 30
0.000000
  70
    32
  0
VERTEX
  8
0
  5
2722
 10
278.430
 20
223.835
 30
0.000000
  70
    32
  0
VERTEX
  8
0
  5
2723
 10
278.423
 20
223.913
 30
0.000000
  70
    32
  0
VERTEX
  8
0
  5
2724
 10
278.416
 20
223.990
 30
0.000000
  70
    32
  0
VERTEX
  8
0
  5
2725
 10
278.409
 20
224.067
 30
0.000000
  70
    32
  0
VERTEX
  8
0
  5
2726
 10
278.402
 20
224.144
 30
0.000000
  70
    32
  0
VERTEX
  8
0
  5
2727
 10
278.394
 20
224.221
 30
0.000000
  70
    32
  0
VERTEX
  8
0
  5
2728
 10
278.387
 20
224.297
 30
0.000000
  70
    32
  0
VERTEX
  8
0
  5
2729
 10
278.380
 20
224.373
 30
0.000000
  70
    32
  0
VERTEX
  8
0
  5
272A
 10
278.373
 20
224.449
 30
0.000000
  70
    32
  0
VERTEX
  8
0
  5
272B
 10
278.366
 20
224.525
 30
0.000000
  70
    32
  0
VERTEX
  8
0
  5
272C
 10
278.359
 20
224.600
 30
0.000000
  70
    32
  0
VERTEX
  8
0
  5
272D
 10
278.352
 20
224.676
 30
0.000000
  70
    32
  0
VERTEX
  8
0
  5
272E
 10
278.344
 20
224.751
 30
0.000000
  70
    32
  0
VERTEX
  8
0
  5
272F
 10
278.337
 20
224.826
 30
0.000000
  70
    32
  0
VERTEX
  8
0
  5
2730
 10
278.330
 20
224.901
 30
0.000000
  70
    32
  0
VERTEX
  8
0
  5
2731
 10
278.323
 20
224.975
 30
0.000000
  70
    32
  0
VERTEX
  8
0
  5
2732
 10
278.316
 20
225.049
 30
0.000000
  70
    32
  0
VERTEX
  8
0
  5
2733
 10
278.309
 20
225.123
 30
0.000000
  70
    32
  0
VERTEX
  8
0
  5
2734
 10
278.302
 20
225.197
 30
0.000000
  70
    32
  0
VERTEX
  8
0
  5
2735
 10
278.294
 20
225.271
 30
0.000000
  70
    32
  0
VERTEX
  8
0
  5
2736
 10
278.287
 20
225.344
 30
0.000000
  70
    32
  0
VERTEX
  8
0
  5
2737
 10
278.280
 20
225.418
 30
0.000000
  70
    32
  0
VERTEX
  8
0
  5
2738
 10
278.273
 20
225.491
 30
0.000000
  70
    32
  0
VERTEX
  8
0
  5
2739
 10
278.266
 20
225.563
 30
0.000000
  70
    32
  0
VERTEX
  8
0
  5
273A
 10
278.258
 20
225.636
 30
0.000000
  70
    32
  0
VERTEX
  8
0
  5
273B
 10
278.251
 20
225.708
 30
0.000000
  70
    32
  0
VERTEX
  8
0
  5
273C
 10
278.244
 20
225.781
 30
0.000000
  70
    32
  0
VERTEX
  8
0
  5
273D
 10
278.237
 20
225.853
 30
0.000000
  70
    32
  0
VERTEX
  8
0
  5
273E
 10
278.230
 20
225.924
 30
0.000000
  70
    32
  0
VERTEX
  8
0
  5
273F
 10
278.223
 20
225.996
 30
0.000000
  70
    32
  0
VERTEX
  8
0
  5
2740
 10
278.215
 20
226.067
 30
0.000000
  70
    32
  0
VERTEX
  8
0
  5
2741
 10
278.208
 20
226.138
 30
0.000000
  70
    32
  0
VERTEX
  8
0
  5
2742
 10
278.201
 20
226.209
 30
0.000000
  70
    32
  0
VERTEX
  8
0
  5
2743
 10
278.194
 20
226.280
 30
0.000000
  70
    32
  0
VERTEX
  8
0
  5
2744
 10
278.187
 20
226.350
 30
0.000000
  70
    32
  0
VERTEX
  8
0
  5
2745
 10
278.179
 20
226.421
 30
0.000000
  70
    32
  0
VERTEX
  8
0
  5
2746
 10
278.172
 20
226.491
 30
0.000000
  70
    32
  0
VERTEX
  8
0
  5
2747
 10
278.165
 20
226.560
 30
0.000000
  70
    32
  0
VERTEX
  8
0
  5
2748
 10
278.158
 20
226.630
 30
0.000000
  70
    32
  0
VERTEX
  8
0
  5
2749
 10
278.150
 20
226.699
 30
0.000000
  70
    32
  0
VERTEX
  8
0
  5
274A
 10
278.143
 20
226.769
 30
0.000000
  70
    32
  0
VERTEX
  8
0
  5
274B
 10
278.136
 20
226.838
 30
0.000000
  70
    32
  0
VERTEX
  8
0
  5
274C
 10
278.129
 20
226.906
 30
0.000000
  70
    32
  0
VERTEX
  8
0
  5
274D
 10
278.122
 20
226.975
 30
0.000000
  70
    32
  0
VERTEX
  8
0
  5
274E
 10
278.114
 20
227.043
 30
0.000000
  70
    32
  0
VERTEX
  8
0
  5
274F
 10
278.107
 20
227.111
 30
0.000000
  70
    32
  0
VERTEX
  8
0
  5
2750
 10
278.100
 20
227.179
 30
0.000000
  70
    32
  0
VERTEX
  8
0
  5
2751
 10
278.093
 20
227.247
 30
0.000000
  70
    32
  0
VERTEX
  8
0
  5
2752
 10
278.085
 20
227.315
 30
0.000000
  70
    32
  0
VERTEX
  8
0
  5
2753
 10
278.078
 20
227.382
 30
0.000000
  70
    32
  0
VERTEX
  8
0
  5
2754
 10
278.071
 20
227.449
 30
0.000000
  70
    32
  0
VERTEX
  8
0
  5
2755
 10
278.064
 20
227.516
 30
0.000000
  70
    32
  0
VERTEX
  8
0
  5
2756
 10
278.056
 20
227.582
 30
0.000000
  70
    32
  0
VERTEX
  8
0
  5
2757
 10
278.049
 20
227.649
 30
0.000000
  70
    32
  0
VERTEX
  8
0
  5
2758
 10
278.042
 20
227.715
 30
0.000000
  70
    32
  0
VERTEX
  8
0
  5
2759
 10
278.035
 20
227.781
 30
0.000000
  70
    32
  0
VERTEX
  8
0
  5
275A
 10
278.027
 20
227.847
 30
0.000000
  70
    32
  0
VERTEX
  8
0
  5
275B
 10
278.020
 20
227.912
 30
0.000000
  70
    32
  0
VERTEX
  8
0
  5
275C
 10
278.013
 20
227.978
 30
0.000000
  70
    32
  0
VERTEX
  8
0
  5
275D
 10
278.006
 20
228.043
 30
0.000000
  70
    32
  0
VERTEX
  8
0
  5
275E
 10
277.998
 20
228.108
 30
0.000000
  70
    32
  0
VERTEX
  8
0
  5
275F
 10
277.991
 20
228.172
 30
0.000000
  70
    32
  0
VERTEX
  8
0
  5
2760
 10
277.984
 20
228.237
 30
0.000000
  70
    32
  0
VERTEX
  8
0
  5
2761
 10
277.976
 20
228.301
 30
0.000000
  70
    32
  0
VERTEX
  8
0
  5
2762
 10
277.969
 20
228.365
 30
0.000000
  70
    32
  0
VERTEX
  8
0
  5
2763
 10
277.962
 20
228.429
 30
0.000000
  70
    32
  0
VERTEX
  8
0
  5
2764
 10
277.955
 20
228.493
 30
0.000000
  70
    32
  0
VERTEX
  8
0
  5
2765
 10
277.947
 20
228.556
 30
0.000000
  70
    32
  0
VERTEX
  8
0
  5
2766
 10
277.940
 20
228.619
 30
0.000000
  70
    32
  0
VERTEX
  8
0
  5
2767
 10
277.933
 20
228.682
 30
0.000000
  70
    32
  0
VERTEX
  8
0
  5
2768
 10
277.925
 20
228.745
 30
0.000000
  70
    32
  0
VERTEX
  8
0
  5
2769
 10
277.918
 20
228.807
 30
0.000000
  70
    32
  0
VERTEX
  8
0
  5
276A
 10
277.911
 20
228.870
 30
0.000000
  70
    32
  0
VERTEX
  8
0
  5
276B
 10
277.904
 20
228.932
 30
0.000000
  70
    32
  0
VERTEX
  8
0
  5
276C
 10
277.896
 20
228.994
 30
0.000000
  70
    32
  0
VERTEX
  8
0
  5
276D
 10
277.889
 20
229.055
 30
0.000000
  70
    32
  0
VERTEX
  8
0
  5
276E
 10
277.882
 20
229.117
 30
0.000000
  70
    32
  0
VERTEX
  8
0
  5
276F
 10
277.874
 20
229.178
 30
0.000000
  70
    32
  0
VERTEX
  8
0
  5
2770
 10
277.867
 20
229.239
 30
0.000000
  70
    32
  0
VERTEX
  8
0
  5
2771
 10
277.860
 20
229.300
 30
0.000000
  70
    32
  0
VERTEX
  8
0
  5
2772
 10
277.852
 20
229.361
 30
0.000000
  70
    32
  0
VERTEX
  8
0
  5
2773
 10
277.845
 20
229.421
 30
0.000000
  70
    32
  0
VERTEX
  8
0
  5
2774
 10
277.838
 20
229.481
 30
0.000000
  70
    32
  0
VERTEX
  8
0
  5
2775
 10
277.830
 20
229.541
 30
0.000000
  70
    32
  0
VERTEX
  8
0
  5
2776
 10
277.823
 20
229.601
 30
0.000000
  70
    32
  0
VERTEX
  8
0
  5
2777
 10
277.816
 20
229.660
 30
0.000000
  70
    32
  0
VERTEX
  8
0
  5
2778
 10
277.808
 20
229.720
 30
0.000000
  70
    32
  0
VERTEX
  8
0
  5
2779
 10
277.801
 20
229.779
 30
0.000000
  70
    32
  0
VERTEX
  8
0
  5
277A
 10
277.794
 20
229.838
 30
0.000000
  70
    32
  0
VERTEX
  8
0
  5
277B
 10
277.786
 20
229.896
 30
0.000000
  70
    32
  0
VERTEX
  8
0
  5
277C
 10
277.779
 20
229.955
 30
0.000000
  70
    32
  0
VERTEX
  8
0
  5
277D
 10
277.772
 20
230.013
 30
0.000000
  70
    32
  0
VERTEX
  8
0
  5
277E
 10
277.764
 20
230.071
 30
0.000000
  70
    32
  0
VERTEX
  8
0
  5
277F
 10
277.757
 20
230.129
 30
0.000000
  70
    32
  0
VERTEX
  8
0
  5
2780
 10
277.750
 20
230.186
 30
0.000000
  70
    32
  0
VERTEX
  8
0
  5
2781
 10
277.742
 20
230.244
 30
0.000000
  70
    32
  0
VERTEX
  8
0
  5
2782
 10
277.735
 20
230.301
 30
0.000000
  70
    32
  0
VERTEX
  8
0
  5
2783
 10
277.728
 20
230.358
 30
0.000000
  70
    32
  0
VERTEX
  8
0
  5
2784
 10
277.720
 20
230.414
 30
0.000000
  70
    32
  0
VERTEX
  8
0
  5
2785
 10
277.713
 20
230.471
 30
0.000000
  70
    32
  0
VERTEX
  8
0
  5
2786
 10
277.706
 20
230.527
 30
0.000000
  70
    32
  0
VERTEX
  8
0
  5
2787
 10
277.698
 20
230.583
 30
0.000000
  70
    32
  0
VERTEX
  8
0
  5
2788
 10
277.691
 20
230.639
 30
0.000000
  70
    32
  0
VERTEX
  8
0
  5
2789
 10
277.683
 20
230.695
 30
0.000000
  70
    32
  0
VERTEX
  8
0
  5
278A
 10
277.676
 20
230.750
 30
0.000000
  70
    32
  0
SEQEND
  8
0
  5
278B
  0
POLYLINE
  5
263E
  8
0
 10
277.67611474914946
 20
230.7499999999547
 30
0.0
 66
     1
 70
     8
  0
VERTEX
  8
0
  5
278C
 10
277.676
 20
230.750
 30
0.000000
  70
    32
  0
VERTEX
  8
0
  5
278D
 10
277.675
 20
230.757
 30
0.000000
  70
    32
  0
VERTEX
  8
0
  5
278E
 10
277.674
 20
230.764
 30
0.000000
  70
    32
  0
VERTEX
  8
0
  5
278F
 10
277.673
 20
230.771
 30
0.000000
  70
    32
  0
VERTEX
  8
0
  5
2790
 10
277.672
 20
230.778
 30
0.000000
  70
    32
  0
VERTEX
  8
0
  5
2791
 10
277.671
 20
230.785
 30
0.000000
  70
    32
  0
VERTEX
  8
0
  5
2792
 10
277.670
 20
230.792
 30
0.000000
  70
    32
  0
VERTEX
  8
0
  5
2793
 10
277.669
 20
230.798
 30
0.000000
  70
    32
  0
VERTEX
  8
0
  5
2794
 10
277.668
 20
230.804
 30
0.000000
  70
    32
  0
VERTEX
  8
0
  5
2795
 10
277.667
 20
230.811
 30
0.000000
  70
    32
  0
VERTEX
  8
0
  5
2796
 10
277.666
 20
230.817
 30
0.000000
  70
    32
  0
VERTEX
  8
0
  5
2797
 10
277.664
 20
230.823
 30
0.000000
  70
    32
  0
VERTEX
  8
0
  5
2798
 10
277.663
 20
230.828
 30
0.000000
  70
    32
  0
VERTEX
  8
0
  5
2799
 10
277.662
 20
230.834
 30
0.000000
  70
    32
  0
VERTEX
  8
0
  5
279A
 10
277.661
 20
230.840
 30
0.000000
  70
    32
  0
VERTEX
  8
0
  5
279B
 10
277.660
 20
230.845
 30
0.000000
  70
    32
  0
VERTEX
  8
0
  5
279C
 10
277.659
 20
230.850
 30
0.000000
  70
    32
  0
VERTEX
  8
0
  5
279D
 10
277.658
 20
230.855
 30
0.000000
  70
    32
  0
VERTEX
  8
0
  5
279E
 10
277.657
 20
230.860
 30
0.000000
  70
    32
  0
VERTEX
  8
0
  5
279F
 10
277.656
 20
230.865
 30
0.000000
  70
    32
  0
VERTEX
  8
0
  5
27A0
 10
277.655
 20
230.870
 30
0.000000
  70
    32
  0
VERTEX
  8
0
  5
27A1
 10
277.654
 20
230.875
 30
0.000000
  70
    32
  0
VERTEX
  8
0
  5
27A2
 10
277.653
 20
230.879
 30
0.000000
  70
    32
  0
VERTEX
  8
0
  5
27A3
 10
277.652
 20
230.883
 30
0.000000
  70
    32
  0
VERTEX
  8
0
  5
27A4
 10
277.651
 20
230.888
 30
0.000000
  70
    32
  0
VERTEX
  8
0
  5
27A5
 10
277.649
 20
230.892
 30
0.000000
  70
    32
  0
VERTEX
  8
0
  5
27A6
 10
277.648
 20
230.896
 30
0.000000
  70
    32
  0
VERTEX
  8
0
  5
27A7
 10
277.647
 20
230.900
 30
0.000000
  70
    32
  0
VERTEX
  8
0
  5
27A8
 10
277.646
 20
230.903
 30
0.000000
  70
    32
  0
VERTEX
  8
0
  5
27A9
 10
277.645
 20
230.907
 30
0.000000
  70
    32
  0
VERTEX
  8
0
  5
27AA
 10
277.644
 20
230.910
 30
0.000000
  70
    32
  0
VERTEX
  8
0
  5
27AB
 10
277.643
 20
230.913
 30
0.000000
  70
    32
  0
VERTEX
  8
0
  5
27AC
 10
277.642
 20
230.917
 30
0.000000
  70
    32
  0
VERTEX
  8
0
  5
27AD
 10
277.641
 20
230.920
 30
0.000000
  70
    32
  0
VERTEX
  8
0
  5
27AE
 10
277.640
 20
230.922
 30
0.000000
  70
    32
  0
VERTEX
  8
0
  5
27AF
 10
277.639
 20
230.925
 30
0.000000
  70
    32
  0
VERTEX
  8
0
  5
27B0
 10
277.638
 20
230.928
 30
0.000000
  70
    32
  0
VERTEX
  8
0
  5
27B1
 10
277.637
 20
230.930
 30
0.000000
  70
    32
  0
VERTEX
  8
0
  5
27B2
 10
277.635
 20
230.933
 30
0.000000
  70
    32
  0
VERTEX
  8
0
  5
27B3
 10
277.634
 20
230.935
 30
0.000000
  70
    32
  0
VERTEX
  8
0
  5
27B4
 10
277.633
 20
230.937
 30
0.000000
  70
    32
  0
VERTEX
  8
0
  5
27B5
 10
277.632
 20
230.939
 30
0.000000
  70
    32
  0
VERTEX
  8
0
  5
27B6
 10
277.631
 20
230.941
 30
0.000000
  70
    32
  0
VERTEX
  8
0
  5
27B7
 10
277.630
 20
230.942
 30
0.000000
  70
    32
  0
VERTEX
  8
0
  5
27B8
 10
277.629
 20
230.944
 30
0.000000
  70
    32
  0
VERTEX
  8
0
  5
27B9
 10
277.628
 20
230.945
 30
0.000000
  70
    32
  0
VERTEX
  8
0
  5
27BA
 10
277.627
 20
230.947
 30
0.000000
  70
    32
  0
VERTEX
  8
0
  5
27BB
 10
277.626
 20
230.948
 30
0.000000
  70
    32
  0
VERTEX
  8
0
  5
27BC
 10
277.625
 20
230.949
 30
0.000000
  70
    32
  0
VERTEX
  8
0
  5
27BD
 10
277.624
 20
230.950
 30
0.000000
  70
    32
  0
VERTEX
  8
0
  5
27BE
 10
277.622
 20
230.950
 30
0.000000
  70
    32
  0
VERTEX
  8
0
  5
27BF
 10
277.621
 20
230.951
 30
0.000000
  70
    32
  0
VERTEX
  8
0
  5
27C0
 10
277.620
 20
230.951
 30
0.000000
  70
    32
  0
VERTEX
  8
0
  5
27C1
 10
277.619
 20
230.952
 30
0.000000
  70
    32
  0
VERTEX
  8
0
  5
27C2
 10
277.618
 20
230.952
 30
0.000000
  70
    32
  0
VERTEX
  8
0
  5
27C3
 10
277.617
 20
230.952
 30
0.000000
  70
    32
  0
VERTEX
  8
0
  5
27C4
 10
277.616
 20
230.952
 30
0.000000
  70
    32
  0
VERTEX
  8
0
  5
27C5
 10
277.615
 20
230.952
 30
0.000000
  70
    32
  0
VERTEX
  8
0
  5
27C6
 10
277.614
 20
230.951
 30
0.000000
  70
    32
  0
VERTEX
  8
0
  5
27C7
 10
277.613
 20
230.951
 30
0.000000
  70
    32
  0
VERTEX
  8
0
  5
27C8
 10
277.612
 20
230.950
 30
0.000000
  70
    32
  0
VERTEX
  8
0
  5
27C9
 10
277.610
 20
230.949
 30
0.000000
  70
    32
  0
VERTEX
  8
0
  5
27CA
 10
277.609
 20
230.949
 30
0.000000
  70
    32
  0
VERTEX
  8
0
  5
27CB
 10
277.608
 20
230.948
 30
0.000000
  70
    32
  0
VERTEX
  8
0
  5
27CC
 10
277.607
 20
230.946
 30
0.000000
  70
    32
  0
VERTEX
  8
0
  5
27CD
 10
277.606
 20
230.945
 30
0.000000
  70
    32
  0
VERTEX
  8
0
  5
27CE
 10
277.605
 20
230.944
 30
0.000000
  70
    32
  0
VERTEX
  8
0
  5
27CF
 10
277.604
 20
230.942
 30
0.000000
  70
    32
  0
VERTEX
  8
0
  5
27D0
 10
277.603
 20
230.940
 30
0.000000
  70
    32
  0
VERTEX
  8
0
  5
27D1
 10
277.602
 20
230.939
 30
0.000000
  70
    32
  0
VERTEX
  8
0
  5
27D2
 10
277.601
 20
230.937
 30
0.000000
  70
    32
  0
VERTEX
  8
0
  5
27D3
 10
277.600
 20
230.935
 30
0.000000
  70
    32
  0
VERTEX
  8
0
  5
27D4
 10
277.599
 20
230.932
 30
0.000000
  70
    32
  0
VERTEX
  8
0
  5
27D5
 10
277.597
 20
230.930
 30
0.000000
  70
    32
  0
VERTEX
  8
0
  5
27D6
 10
277.596
 20
230.928
 30
0.000000
  70
    32
  0
VERTEX
  8
0
  5
27D7
 10
277.595
 20
230.925
 30
0.000000
  70
    32
  0
VERTEX
  8
0
  5
27D8
 10
277.594
 20
230.922
 30
0.000000
  70
    32
  0
VERTEX
  8
0
  5
27D9
 10
277.593
 20
230.919
 30
0.000000
  70
    32
  0
VERTEX
  8
0
  5
27DA
 10
277.592
 20
230.916
 30
0.000000
  70
    32
  0
VERTEX
  8
0
  5
27DB
 10
277.591
 20
230.913
 30
0.000000
  70
    32
  0
VERTEX
  8
0
  5
27DC
 10
277.590
 20
230.910
 30
0.000000
  70
    32
  0
VERTEX
  8
0
  5
27DD
 10
277.589
 20
230.906
 30
0.000000
  70
    32
  0
VERTEX
  8
0
  5
27DE
 10
277.588
 20
230.903
 30
0.000000
  70
    32
  0
VERTEX
  8
0
  5
27DF
 10
277.587
 20
230.899
 30
0.000000
  70
    32
  0
VERTEX
  8
0
  5
27E0
 10
277.586
 20
230.895
 30
0.000000
  70
    32
  0
VERTEX
  8
0
  5
27E1
 10
277.585
 20
230.891
 30
0.000000
  70
    32
  0
VERTEX
  8
0
  5
27E2
 10
277.583
 20
230.887
 30
0.000000
  70
    32
  0
VERTEX
  8
0
  5
27E3
 10
277.582
 20
230.883
 30
0.000000
  70
    32
  0
VERTEX
  8
0
  5
27E4
 10
277.581
 20
230.879
 30
0.000000
  70
    32
  0
VERTEX
  8
0
  5
27E5
 10
277.580
 20
230.874
 30
0.000000
  70
    32
  0
VERTEX
  8
0
  5
27E6
 10
277.579
 20
230.870
 30
0.000000
  70
    32
  0
VERTEX
  8
0
  5
27E7
 10
277.578
 20
230.865
 30
0.000000
  70
    32
  0
VERTEX
  8
0
  5
27E8
 10
277.577
 20
230.860
 30
0.000000
  70
    32
  0
VERTEX
  8
0
  5
27E9
 10
277.576
 20
230.855
 30
0.000000
  70
    32
  0
VERTEX
  8
0
  5
27EA
 10
277.575
 20
230.850
 30
0.000000
  70
    32
  0
VERTEX
  8
0
  5
27EB
 10
277.574
 20
230.844
 30
0.000000
  70
    32
  0
VERTEX
  8
0
  5
27EC
 10
277.573
 20
230.839
 30
0.000000
  70
    32
  0
VERTEX
  8
0
  5
27ED
 10
277.572
 20
230.833
 30
0.000000
  70
    32
  0
VERTEX
  8
0
  5
27EE
 10
277.571
 20
230.828
 30
0.000000
  70
    32
  0
VERTEX
  8
0
  5
27EF
 10
277.570
 20
230.822
 30
0.000000
  70
    32
  0
VERTEX
  8
0
  5
27F0
 10
277.568
 20
230.816
 30
0.000000
  70
    32
  0
VERTEX
  8
0
  5
27F1
 10
277.567
 20
230.810
 30
0.000000
  70
    32
  0
VERTEX
  8
0
  5
27F2
 10
277.566
 20
230.804
 30
0.000000
  70
    32
  0
VERTEX
  8
0
  5
27F3
 10
277.565
 20
230.797
 30
0.000000
  70
    32
  0
VERTEX
  8
0
  5
27F4
 10
277.564
 20
230.791
 30
0.000000
  70
    32
  0
VERTEX
  8
0
  5
27F5
 10
277.563
 20
230.784
 30
0.000000
  70
    32
  0
VERTEX
  8
0
  5
27F6
 10
277.562
 20
230.778
 30
0.000000
  70
    32
  0
VERTEX
  8
0
  5
27F7
 10
277.561
 20
230.771
 30
0.000000
  70
    32
  0
VERTEX
  8
0
  5
27F8
 10
277.560
 20
230.764
 30
0.000000
  70
    32
  0
VERTEX
  8
0
  5
27F9
 10
277.559
 20
230.757
 30
0.000000
  70
    32
  0
VERTEX
  8
0
  5
27FA
 10
277.558
 20
230.749
 30
0.000000
  70
    32
  0
VERTEX
  8
0
  5
27FB
 10
277.557
 20
230.742
 30
0.000000
  70
    32
  0
VERTEX
  8
0
  5
27FC
 10
277.556
 20
230.734
 30
0.000000
  70
    32
  0
VERTEX
  8
0
  5
27FD
 10
277.555
 20
230.727
 30
0.000000
  70
    32
  0
VERTEX
  8
0
  5
27FE
 10
277.554
 20
230.719
 30
0.000000
  70
    32
  0
VERTEX
  8
0
  5
27FF
 10
277.553
 20
230.711
 30
0.000000
  70
    32
  0
VERTEX
  8
0
  5
2800
 10
277.552
 20
230.703
 30
0.000000
  70
    32
  0
VERTEX
  8
0
  5
2801
 10
277.551
 20
230.695
 30
0.000000
  70
    32
  0
VERTEX
  8
0
  5
2802
 10
277.549
 20
230.686
 30
0.000000
  70
    32
  0
VERTEX
  8
0
  5
2803
 10
277.548
 20
230.678
 30
0.000000
  70
    32
  0
VERTEX
  8
0
  5
2804
 10
277.547
 20
230.669
 30
0.000000
  70
    32
  0
VERTEX
  8
0
  5
2805
 10
277.546
 20
230.661
 30
0.000000
  70
    32
  0
VERTEX
  8
0
  5
2806
 10
277.545
 20
230.652
 30
0.000000
  70
    32
  0
VERTEX
  8
0
  5
2807
 10
277.544
 20
230.643
 30
0.000000
  70
    32
  0
VERTEX
  8
0
  5
2808
 10
277.543
 20
230.634
 30
0.000000
  70
    32
  0
VERTEX
  8
0
  5
2809
 10
277.542
 20
230.625
 30
0.000000
  70
    32
  0
VERTEX
  8
0
  5
280A
 10
277.541
 20
230.615
 30
0.000000
  70
    32
  0
VERTEX
  8
0
  5
280B
 10
277.540
 20
230.606
 30
0.000000
  70
    32
  0
VERTEX
  8
0
  5
280C
 10
277.539
 20
230.596
 30
0.000000
  70
    32
  0
SEQEND
  8
0
  5
280D
  0
POLYLINE
  5
263F
  8
0
 10
277.24754158216996
 20
230.7001046029697
 30
0.0
 66
     1
 70
     8
  0
VERTEX
  8
0
  5
280E
 10
277.248
 20
230.700
 30
0.000000
  70
    32
  0
VERTEX
  8
0
  5
280F
 10
277.250
 20
230.678
 30
0.000000
  70
    32
  0
VERTEX
  8
0
  5
2810
 10
277.252
 20
230.656
 30
0.000000
  70
    32
  0
VERTEX
  8
0
  5
2811
 10
277.254
 20
230.634
 30
0.000000
  70
    32
  0
VERTEX
  8
0
  5
2812
 10
277.256
 20
230.613
 30
0.000000
  70
    32
  0
VERTEX
  8
0
  5
2813
 10
277.259
 20
230.592
 30
0.000000
  70
    32
  0
VERTEX
  8
0
  5
2814
 10
277.261
 20
230.572
 30
0.000000
  70
    32
  0
VERTEX
  8
0
  5
2815
 10
277.263
 20
230.551
 30
0.000000
  70
    32
  0
VERTEX
  8
0
  5
2816
 10
277.265
 20
230.532
 30
0.000000
  70
    32
  0
VERTEX
  8
0
  5
2817
 10
277.267
 20
230.512
 30
0.000000
  70
    32
  0
VERTEX
  8
0
  5
2818
 10
277.270
 20
230.493
 30
0.000000
  70
    32
  0
VERTEX
  8
0
  5
2819
 10
277.272
 20
230.474
 30
0.000000
  70
    32
  0
VERTEX
  8
0
  5
281A
 10
277.274
 20
230.455
 30
0.000000
  70
    32
  0
VERTEX
  8
0
  5
281B
 10
277.276
 20
230.437
 30
0.000000
  70
    32
  0
VERTEX
  8
0
  5
281C
 10
277.278
 20
230.419
 30
0.000000
  70
    32
  0
VERTEX
  8
0
  5
281D
 10
277.281
 20
230.401
 30
0.000000
  70
    32
  0
VERTEX
  8
0
  5
281E
 10
277.283
 20
230.384
 30
0.000000
  70
    32
  0
VERTEX
  8
0
  5
281F
 10
277.285
 20
230.367
 30
0.000000
  70
    32
  0
VERTEX
  8
0
  5
2820
 10
277.287
 20
230.350
 30
0.000000
  70
    32
  0
VERTEX
  8
0
  5
2821
 10
277.290
 20
230.334
 30
0.000000
  70
    32
  0
VERTEX
  8
0
  5
2822
 10
277.292
 20
230.318
 30
0.000000
  70
    32
  0
VERTEX
  8
0
  5
2823
 10
277.294
 20
230.303
 30
0.000000
  70
    32
  0
VERTEX
  8
0
  5
2824
 10
277.296
 20
230.287
 30
0.000000
  70
    32
  0
VERTEX
  8
0
  5
2825
 10
277.299
 20
230.272
 30
0.000000
  70
    32
  0
VERTEX
  8
0
  5
2826
 10
277.301
 20
230.258
 30
0.000000
  70
    32
  0
VERTEX
  8
0
  5
2827
 10
277.303
 20
230.243
 30
0.000000
  70
    32
  0
VERTEX
  8
0
  5
2828
 10
277.306
 20
230.229
 30
0.000000
  70
    32
  0
VERTEX
  8
0
  5
2829
 10
277.308
 20
230.216
 30
0.000000
  70
    32
  0
VERTEX
  8
0
  5
282A
 10
277.310
 20
230.203
 30
0.000000
  70
    32
  0
VERTEX
  8
0
  5
282B
 10
277.312
 20
230.190
 30
0.000000
  70
    32
  0
VERTEX
  8
0
  5
282C
 10
277.315
 20
230.177
 30
0.000000
  70
    32
  0
VERTEX
  8
0
  5
282D
 10
277.317
 20
230.165
 30
0.000000
  70
    32
  0
VERTEX
  8
0
  5
282E
 10
277.319
 20
230.153
 30
0.000000
  70
    32
  0
VERTEX
  8
0
  5
282F
 10
277.321
 20
230.141
 30
0.000000
  70
    32
  0
VERTEX
  8
0
  5
2830
 10
277.324
 20
230.130
 30
0.000000
  70
    32
  0
VERTEX
  8
0
  5
2831
 10
277.326
 20
230.119
 30
0.000000
  70
    32
  0
VERTEX
  8
0
  5
2832
 10
277.328
 20
230.108
 30
0.000000
  70
    32
  0
VERTEX
  8
0
  5
2833
 10
277.331
 20
230.098
 30
0.000000
  70
    32
  0
VERTEX
  8
0
  5
2834
 10
277.333
 20
230.088
 30
0.000000
  70
    32
  0
VERTEX
  8
0
  5
2835
 10
277.335
 20
230.079
 30
0.000000
  70
    32
  0
VERTEX
  8
0
  5
2836
 10
277.338
 20
230.070
 30
0.000000
  70
    32
  0
VERTEX
  8
0
  5
2837
 10
277.340
 20
230.061
 30
0.000000
  70
    32
  0
VERTEX
  8
0
  5
2838
 10
277.342
 20
230.052
 30
0.000000
  70
    32
  0
VERTEX
  8
0
  5
2839
 10
277.344
 20
230.044
 30
0.000000
  70
    32
  0
VERTEX
  8
0
  5
283A
 10
277.347
 20
230.036
 30
0.000000
  70
    32
  0
VERTEX
  8
0
  5
283B
 10
277.349
 20
230.029
 30
0.000000
  70
    32
  0
VERTEX
  8
0
  5
283C
 10
277.351
 20
230.021
 30
0.000000
  70
    32
  0
VERTEX
  8
0
  5
283D
 10
277.354
 20
230.015
 30
0.000000
  70
    32
  0
VERTEX
  8
0
  5
283E
 10
277.356
 20
230.008
 30
0.000000
  70
    32
  0
VERTEX
  8
0
  5
283F
 10
277.358
 20
230.002
 30
0.000000
  70
    32
  0
VERTEX
  8
0
  5
2840
 10
277.361
 20
229.996
 30
0.000000
  70
    32
  0
VERTEX
  8
0
  5
2841
 10
277.363
 20
229.991
 30
0.000000
  70
    32
  0
VERTEX
  8
0
  5
2842
 10
277.365
 20
229.986
 30
0.000000
  70
    32
  0
VERTEX
  8
0
  5
2843
 10
277.368
 20
229.981
 30
0.000000
  70
    32
  0
VERTEX
  8
0
  5
2844
 10
277.370
 20
229.976
 30
0.000000
  70
    32
  0
VERTEX
  8
0
  5
2845
 10
277.372
 20
229.972
 30
0.000000
  70
    32
  0
VERTEX
  8
0
  5
2846
 10
277.374
 20
229.969
 30
0.000000
  70
    32
  0
VERTEX
  8
0
  5
2847
 10
277.377
 20
229.965
 30
0.000000
  70
    32
  0
VERTEX
  8
0
  5
2848
 10
277.379
 20
229.962
 30
0.000000
  70
    32
  0
VERTEX
  8
0
  5
2849
 10
277.381
 20
229.959
 30
0.000000
  70
    32
  0
VERTEX
  8
0
  5
284A
 10
277.384
 20
229.957
 30
0.000000
  70
    32
  0
VERTEX
  8
0
  5
284B
 10
277.386
 20
229.955
 30
0.000000
  70
    32
  0
VERTEX
  8
0
  5
284C
 10
277.388
 20
229.953
 30
0.000000
  70
    32
  0
VERTEX
  8
0
  5
284D
 10
277.391
 20
229.952
 30
0.000000
  70
    32
  0
VERTEX
  8
0
  5
284E
 10
277.393
 20
229.951
 30
0.000000
  70
    32
  0
VERTEX
  8
0
  5
284F
 10
277.395
 20
229.950
 30
0.000000
  70
    32
  0
VERTEX
  8
0
  5
2850
 10
277.398
 20
229.950
 30
0.000000
  70
    32
  0
VERTEX
  8
0
  5
2851
 10
277.400
 20
229.950
 30
0.000000
  70
    32
  0
VERTEX
  8
0
  5
2852
 10
277.402
 20
229.950
 30
0.000000
  70
    32
  0
VERTEX
  8
0
  5
2853
 10
277.405
 20
229.951
 30
0.000000
  70
    32
  0
VERTEX
  8
0
  5
2854
 10
277.407
 20
229.952
 30
0.000000
  70
    32
  0
VERTEX
  8
0
  5
2855
 10
277.409
 20
229.954
 30
0.000000
  70
    32
  0
VERTEX
  8
0
  5
2856
 10
277.412
 20
229.955
 30
0.000000
  70
    32
  0
VERTEX
  8
0
  5
2857
 10
277.414
 20
229.957
 30
0.000000
  70
    32
  0
VERTEX
  8
0
  5
2858
 10
277.416
 20
229.960
 30
0.000000
  70
    32
  0
VERTEX
  8
0
  5
2859
 10
277.419
 20
229.963
 30
0.000000
  70
    32
  0
VERTEX
  8
0
  5
285A
 10
277.421
 20
229.966
 30
0.000000
  70
    32
  0
VERTEX
  8
0
  5
285B
 10
277.423
 20
229.969
 30
0.000000
  70
    32
  0
VERTEX
  8
0
  5
285C
 10
277.425
 20
229.973
 30
0.000000
  70
    32
  0
VERTEX
  8
0
  5
285D
 10
277.428
 20
229.977
 30
0.000000
  70
    32
  0
VERTEX
  8
0
  5
285E
 10
277.430
 20
229.982
 30
0.000000
  70
    32
  0
VERTEX
  8
0
  5
285F
 10
277.432
 20
229.987
 30
0.000000
  70
    32
  0
VERTEX
  8
0
  5
2860
 10
277.435
 20
229.992
 30
0.000000
  70
    32
  0
VERTEX
  8
0
  5
2861
 10
277.437
 20
229.997
 30
0.000000
  70
    32
  0
VERTEX
  8
0
  5
2862
 10
277.439
 20
230.003
 30
0.000000
  70
    32
  0
VERTEX
  8
0
  5
2863
 10
277.442
 20
230.009
 30
0.000000
  70
    32
  0
VERTEX
  8
0
  5
2864
 10
277.444
 20
230.016
 30
0.000000
  70
    32
  0
VERTEX
  8
0
  5
2865
 10
277.446
 20
230.023
 30
0.000000
  70
    32
  0
VERTEX
  8
0
  5
2866
 10
277.449
 20
230.030
 30
0.000000
  70
    32
  0
VERTEX
  8
0
  5
2867
 10
277.451
 20
230.038
 30
0.000000
  70
    32
  0
VERTEX
  8
0
  5
2868
 10
277.453
 20
230.046
 30
0.000000
  70
    32
  0
VERTEX
  8
0
  5
2869
 10
277.456
 20
230.054
 30
0.000000
  70
    32
  0
VERTEX
  8
0
  5
286A
 10
277.458
 20
230.062
 30
0.000000
  70
    32
  0
VERTEX
  8
0
  5
286B
 10
277.460
 20
230.071
 30
0.000000
  70
    32
  0
VERTEX
  8
0
  5
286C
 10
277.462
 20
230.081
 30
0.000000
  70
    32
  0
VERTEX
  8
0
  5
286D
 10
277.465
 20
230.090
 30
0.000000
  70
    32
  0
VERTEX
  8
0
  5
286E
 10
277.467
 20
230.100
 30
0.000000
  70
    32
  0
VERTEX
  8
0
  5
286F
 10
277.469
 20
230.111
 30
0.000000
  70
    32
  0
VERTEX
  8
0
  5
2870
 10
277.472
 20
230.121
 30
0.000000
  70
    32
  0
VERTEX
  8
0
  5
2871
 10
277.474
 20
230.132
 30
0.000000
  70
    32
  0
VERTEX
  8
0
  5
2872
 10
277.476
 20
230.143
 30
0.000000
  70
    32
  0
VERTEX
  8
0
  5
2873
 10
277.478
 20
230.155
 30
0.000000
  70
    32
  0
VERTEX
  8
0
  5
2874
 10
277.481
 20
230.167
 30
0.000000
  70
    32
  0
VERTEX
  8
0
  5
2875
 10
277.483
 20
230.179
 30
0.000000
  70
    32
  0
VERTEX
  8
0
  5
2876
 10
277.485
 20
230.192
 30
0.000000
  70
    32
  0
VERTEX
  8
0
  5
2877
 10
277.488
 20
230.205
 30
0.000000
  70
    32
  0
VERTEX
  8
0
  5
2878
 10
277.490
 20
230.218
 30
0.000000
  70
    32
  0
VERTEX
  8
0
  5
2879
 10
277.492
 20
230.232
 30
0.000000
  70
    32
  0
VERTEX
  8
0
  5
287A
 10
277.494
 20
230.246
 30
0.000000
  70
    32
  0
VERTEX
  8
0
  5
287B
 10
277.497
 20
230.261
 30
0.000000
  70
    32
  0
VERTEX
  8
0
  5
287C
 10
277.499
 20
230.275
 30
0.000000
  70
    32
  0
VERTEX
  8
0
  5
287D
 10
277.501
 20
230.290
 30
0.000000
  70
    32
  0
VERTEX
  8
0
  5
287E
 10
277.503
 20
230.306
 30
0.000000
  70
    32
  0
VERTEX
  8
0
  5
287F
 10
277.506
 20
230.321
 30
0.000000
  70
    32
  0
VERTEX
  8
0
  5
2880
 10
277.508
 20
230.337
 30
0.000000
  70
    32
  0
VERTEX
  8
0
  5
2881
 10
277.510
 20
230.354
 30
0.000000
  70
    32
  0
VERTEX
  8
0
  5
2882
 10
277.512
 20
230.370
 30
0.000000
  70
    32
  0
VERTEX
  8
0
  5
2883
 10
277.515
 20
230.387
 30
0.000000
  70
    32
  0
VERTEX
  8
0
  5
2884
 10
277.517
 20
230.405
 30
0.000000
  70
    32
  0
VERTEX
  8
0
  5
2885
 10
277.519
 20
230.422
 30
0.000000
  70
    32
  0
VERTEX
  8
0
  5
2886
 10
277.521
 20
230.440
 30
0.000000
  70
    32
  0
VERTEX
  8
0
  5
2887
 10
277.524
 20
230.459
 30
0.000000
  70
    32
  0
VERTEX
  8
0
  5
2888
 10
277.526
 20
230.477
 30
0.000000
  70
    32
  0
VERTEX
  8
0
  5
2889
 10
277.528
 20
230.496
 30
0.000000
  70
    32
  0
VERTEX
  8
0
  5
288A
 10
277.530
 20
230.516
 30
0.000000
  70
    32
  0
VERTEX
  8
0
  5
288B
 10
277.532
 20
230.535
 30
0.000000
  70
    32
  0
VERTEX
  8
0
  5
288C
 10
277.535
 20
230.555
 30
0.000000
  70
    32
  0
VERTEX
  8
0
  5
288D
 10
277.537
 20
230.576
 30
0.000000
  70
    32
  0
VERTEX
  8
0
  5
288E
 10
277.539
 20
230.596
 30
0.000000
  70
    32
  0
SEQEND
  8
0
  5
288F
  0
LINE
  5
2640
  8
0
 10
277.2475415821001
 20
230.7001046029001
 30
0.0
 11
277.10000000000002
 21
232.2000149438272
 31
0.0
  0
LINE
  5
2641
  8
0
 10
278.60000000000002
 20
238.10534905053709
 30
0.0
 11
278.60000000000002
 21
221.91359320362201
 31
0.0
  0
POLYLINE
  5
2642
  8
0
 10
278.60000000000008
 20
238.10534905053697
 30
0.0
 66
     1
 70
     8
  0
VERTEX
  8
0
  5
2890
 10
278.600
 20
238.105
 30
0.000000
  70
    32
  0
VERTEX
  8
0
  5
2891
 10
278.588
 20
238.188
 30
0.000000
  70
    32
  0
VERTEX
  8
0
  5
2892
 10
278.577
 20
238.271
 30
0.000000
  70
    32
  0
VERTEX
  8
0
  5
2893
 10
278.565
 20
238.353
 30
0.000000
  70
    32
  0
VERTEX
  8
0
  5
2894
 10
278.554
 20
238.435
 30
0.000000
  70
    32
  0
VERTEX
  8
0
  5
2895
 10
278.542
 20
238.516
 30
0.000000
  70
    32
  0
VERTEX
  8
0
  5
2896
 10
278.531
 20
238.597
 30
0.000000
  70
    32
  0
VERTEX
  8
0
  5
2897
 10
278.519
 20
238.678
 30
0.000000
  70
    32
  0
VERTEX
  8
0
  5
2898
 10
278.508
 20
238.758
 30
0.000000
  70
    32
  0
VERTEX
  8
0
  5
2899
 10
278.496
 20
238.838
 30
0.000000
  70
    32
  0
VERTEX
  8
0
  5
289A
 10
278.484
 20
238.917
 30
0.000000
  70
    32
  0
VERTEX
  8
0
  5
289B
 10
278.473
 20
238.996
 30
0.000000
  70
    32
  0
VERTEX
  8
0
  5
289C
 10
278.461
 20
239.074
 30
0.000000
  70
    32
  0
VERTEX
  8
0
  5
289D
 10
278.450
 20
239.152
 30
0.000000
  70
    32
  0
VERTEX
  8
0
  5
289E
 10
278.438
 20
239.230
 30
0.000000
  70
    32
  0
VERTEX
  8
0
  5
289F
 10
278.427
 20
239.307
 30
0.000000
  70
    32
  0
VERTEX
  8
0
  5
28A0
 10
278.415
 20
239.384
 30
0.000000
  70
    32
  0
VERTEX
  8
0
  5
28A1
 10
278.403
 20
239.461
 30
0.000000
  70
    32
  0
VERTEX
  8
0
  5
28A2
 10
278.392
 20
239.537
 30
0.000000
  70
    32
  0
VERTEX
  8
0
  5
28A3
 10
278.380
 20
239.612
 30
0.000000
  70
    32
  0
VERTEX
  8
0
  5
28A4
 10
278.369
 20
239.687
 30
0.000000
  70
    32
  0
VERTEX
  8
0
  5
28A5
 10
278.357
 20
239.762
 30
0.000000
  70
    32
  0
VERTEX
  8
0
  5
28A6
 10
278.345
 20
239.836
 30
0.000000
  70
    32
  0
VERTEX
  8
0
  5
28A7
 10
278.334
 20
239.910
 30
0.000000
  70
    32
  0
VERTEX
  8
0
  5
28A8
 10
278.322
 20
239.984
 30
0.000000
  70
    32
  0
VERTEX
  8
0
  5
28A9
 10
278.311
 20
240.057
 30
0.000000
  70
    32
  0
VERTEX
  8
0
  5
28AA
 10
278.299
 20
240.130
 30
0.000000
  70
    32
  0
VERTEX
  8
0
  5
28AB
 10
278.287
 20
240.202
 30
0.000000
  70
    32
  0
VERTEX
  8
0
  5
28AC
 10
278.276
 20
240.274
 30
0.000000
  70
    32
  0
VERTEX
  8
0
  5
28AD
 10
278.264
 20
240.345
 30
0.000000
  70
    32
  0
VERTEX
  8
0
  5
28AE
 10
278.252
 20
240.416
 30
0.000000
  70
    32
  0
VERTEX
  8
0
  5
28AF
 10
278.241
 20
240.487
 30
0.000000
  70
    32
  0
VERTEX
  8
0
  5
28B0
 10
278.229
 20
240.557
 30
0.000000
  70
    32
  0
VERTEX
  8
0
  5
28B1
 10
278.217
 20
240.627
 30
0.000000
  70
    32
  0
VERTEX
  8
0
  5
28B2
 10
278.206
 20
240.696
 30
0.000000
  70
    32
  0
VERTEX
  8
0
  5
28B3
 10
278.194
 20
240.765
 30
0.000000
  70
    32
  0
VERTEX
  8
0
  5
28B4
 10
278.183
 20
240.833
 30
0.000000
  70
    32
  0
VERTEX
  8
0
  5
28B5
 10
278.171
 20
240.901
 30
0.000000
  70
    32
  0
VERTEX
  8
0
  5
28B6
 10
278.159
 20
240.969
 30
0.000000
  70
    32
  0
VERTEX
  8
0
  5
28B7
 10
278.148
 20
241.036
 30
0.000000
  70
    32
  0
VERTEX
  8
0
  5
28B8
 10
278.136
 20
241.103
 30
0.000000
  70
    32
  0
VERTEX
  8
0
  5
28B9
 10
278.124
 20
241.170
 30
0.000000
  70
    32
  0
VERTEX
  8
0
  5
28BA
 10
278.113
 20
241.236
 30
0.000000
  70
    32
  0
VERTEX
  8
0
  5
28BB
 10
278.101
 20
241.301
 30
0.000000
  70
    32
  0
VERTEX
  8
0
  5
28BC
 10
278.089
 20
241.366
 30
0.000000
  70
    32
  0
VERTEX
  8
0
  5
28BD
 10
278.078
 20
241.431
 30
0.000000
  70
    32
  0
VERTEX
  8
0
  5
28BE
 10
278.066
 20
241.496
 30
0.000000
  70
    32
  0
VERTEX
  8
0
  5
28BF
 10
278.054
 20
241.559
 30
0.000000
  70
    32
  0
VERTEX
  8
0
  5
28C0
 10
278.042
 20
241.623
 30
0.000000
  70
    32
  0
VERTEX
  8
0
  5
28C1
 10
278.031
 20
241.686
 30
0.000000
  70
    32
  0
VERTEX
  8
0
  5
28C2
 10
278.019
 20
241.749
 30
0.000000
  70
    32
  0
VERTEX
  8
0
  5
28C3
 10
278.007
 20
241.811
 30
0.000000
  70
    32
  0
VERTEX
  8
0
  5
28C4
 10
277.996
 20
241.873
 30
0.000000
  70
    32
  0
VERTEX
  8
0
  5
28C5
 10
277.984
 20
241.934
 30
0.000000
  70
    32
  0
VERTEX
  8
0
  5
28C6
 10
277.972
 20
241.995
 30
0.000000
  70
    32
  0
VERTEX
  8
0
  5
28C7
 10
277.961
 20
242.056
 30
0.000000
  70
    32
  0
VERTEX
  8
0
  5
28C8
 10
277.949
 20
242.116
 30
0.000000
  70
    32
  0
VERTEX
  8
0
  5
28C9
 10
277.937
 20
242.176
 30
0.000000
  70
    32
  0
VERTEX
  8
0
  5
28CA
 10
277.925
 20
242.235
 30
0.000000
  70
    32
  0
VERTEX
  8
0
  5
28CB
 10
277.914
 20
242.294
 30
0.000000
  70
    32
  0
VERTEX
  8
0
  5
28CC
 10
277.902
 20
242.352
 30
0.000000
  70
    32
  0
VERTEX
  8
0
  5
28CD
 10
277.890
 20
242.411
 30
0.000000
  70
    32
  0
VERTEX
  8
0
  5
28CE
 10
277.879
 20
242.468
 30
0.000000
  70
    32
  0
VERTEX
  8
0
  5
28CF
 10
277.867
 20
242.525
 30
0.000000
  70
    32
  0
VERTEX
  8
0
  5
28D0
 10
277.855
 20
242.582
 30
0.000000
  70
    32
  0
VERTEX
  8
0
  5
28D1
 10
277.843
 20
242.639
 30
0.000000
  70
    32
  0
VERTEX
  8
0
  5
28D2
 10
277.832
 20
242.695
 30
0.000000
  70
    32
  0
VERTEX
  8
0
  5
28D3
 10
277.820
 20
242.750
 30
0.000000
  70
    32
  0
VERTEX
  8
0
  5
28D4
 10
277.808
 20
242.805
 30
0.000000
  70
    32
  0
VERTEX
  8
0
  5
28D5
 10
277.796
 20
242.860
 30
0.000000
  70
    32
  0
VERTEX
  8
0
  5
28D6
 10
277.785
 20
242.914
 30
0.000000
  70
    32
  0
VERTEX
  8
0
  5
28D7
 10
277.773
 20
242.968
 30
0.000000
  70
    32
  0
VERTEX
  8
0
  5
28D8
 10
277.761
 20
243.022
 30
0.000000
  70
    32
  0
VERTEX
  8
0
  5
28D9
 10
277.749
 20
243.075
 30
0.000000
  70
    32
  0
VERTEX
  8
0
  5
28DA
 10
277.738
 20
243.127
 30
0.000000
  70
    32
  0
VERTEX
  8
0
  5
28DB
 10
277.726
 20
243.179
 30
0.000000
  70
    32
  0
VERTEX
  8
0
  5
28DC
 10
277.714
 20
243.231
 30
0.000000
  70
    32
  0
VERTEX
  8
0
  5
28DD
 10
277.702
 20
243.282
 30
0.000000
  70
    32
  0
VERTEX
  8
0
  5
28DE
 10
277.691
 20
243.333
 30
0.000000
  70
    32
  0
VERTEX
  8
0
  5
28DF
 10
277.679
 20
243.384
 30
0.000000
  70
    32
  0
VERTEX
  8
0
  5
28E0
 10
277.667
 20
243.434
 30
0.000000
  70
    32
  0
VERTEX
  8
0
  5
28E1
 10
277.655
 20
243.484
 30
0.000000
  70
    32
  0
VERTEX
  8
0
  5
28E2
 10
277.644
 20
243.533
 30
0.000000
  70
    32
  0
VERTEX
  8
0
  5
28E3
 10
277.632
 20
243.582
 30
0.000000
  70
    32
  0
VERTEX
  8
0
  5
28E4
 10
277.620
 20
243.630
 30
0.000000
  70
    32
  0
VERTEX
  8
0
  5
28E5
 10
277.608
 20
243.678
 30
0.000000
  70
    32
  0
VERTEX
  8
0
  5
28E6
 10
277.596
 20
243.726
 30
0.000000
  70
    32
  0
VERTEX
  8
0
  5
28E7
 10
277.585
 20
243.773
 30
0.000000
  70
    32
  0
VERTEX
  8
0
  5
28E8
 10
277.573
 20
243.820
 30
0.000000
  70
    32
  0
VERTEX
  8
0
  5
28E9
 10
277.561
 20
243.866
 30
0.000000
  70
    32
  0
VERTEX
  8
0
  5
28EA
 10
277.549
 20
243.912
 30
0.000000
  70
    32
  0
VERTEX
  8
0
  5
28EB
 10
277.538
 20
243.957
 30
0.000000
  70
    32
  0
VERTEX
  8
0
  5
28EC
 10
277.526
 20
244.002
 30
0.000000
  70
    32
  0
VERTEX
  8
0
  5
28ED
 10
277.514
 20
244.047
 30
0.000000
  70
    32
  0
VERTEX
  8
0
  5
28EE
 10
277.502
 20
244.091
 30
0.000000
  70
    32
  0
VERTEX
  8
0
  5
28EF
 10
277.490
 20
244.135
 30
0.000000
  70
    32
  0
VERTEX
  8
0
  5
28F0
 10
277.479
 20
244.178
 30
0.000000
  70
    32
  0
VERTEX
  8
0
  5
28F1
 10
277.467
 20
244.221
 30
0.000000
  70
    32
  0
VERTEX
  8
0
  5
28F2
 10
277.455
 20
244.264
 30
0.000000
  70
    32
  0
VERTEX
  8
0
  5
28F3
 10
277.443
 20
244.306
 30
0.000000
  70
    32
  0
VERTEX
  8
0
  5
28F4
 10
277.431
 20
244.347
 30
0.000000
  70
    32
  0
VERTEX
  8
0
  5
28F5
 10
277.419
 20
244.389
 30
0.000000
  70
    32
  0
VERTEX
  8
0
  5
28F6
 10
277.408
 20
244.429
 30
0.000000
  70
    32
  0
VERTEX
  8
0
  5
28F7
 10
277.396
 20
244.470
 30
0.000000
  70
    32
  0
VERTEX
  8
0
  5
28F8
 10
277.384
 20
244.510
 30
0.000000
  70
    32
  0
VERTEX
  8
0
  5
28F9
 10
277.372
 20
244.549
 30
0.000000
  70
    32
  0
VERTEX
  8
0
  5
28FA
 10
277.360
 20
244.588
 30
0.000000
  70
    32
  0
VERTEX
  8
0
  5
28FB
 10
277.349
 20
244.627
 30
0.000000
  70
    32
  0
VERTEX
  8
0
  5
28FC
 10
277.337
 20
244.665
 30
0.000000
  70
    32
  0
VERTEX
  8
0
  5
28FD
 10
277.325
 20
244.703
 30
0.000000
  70
    32
  0
VERTEX
  8
0
  5
28FE
 10
277.313
 20
244.741
 30
0.000000
  70
    32
  0
VERTEX
  8
0
  5
28FF
 10
277.301
 20
244.778
 30
0.000000
  70
    32
  0
VERTEX
  8
0
  5
2900
 10
277.289
 20
244.814
 30
0.000000
  70
    32
  0
VERTEX
  8
0
  5
2901
 10
277.278
 20
244.850
 30
0.000000
  70
    32
  0
VERTEX
  8
0
  5
2902
 10
277.266
 20
244.886
 30
0.000000
  70
    32
  0
VERTEX
  8
0
  5
2903
 10
277.254
 20
244.921
 30
0.000000
  70
    32
  0
VERTEX
  8
0
  5
2904
 10
277.242
 20
244.956
 30
0.000000
  70
    32
  0
VERTEX
  8
0
  5
2905
 10
277.230
 20
244.991
 30
0.000000
  70
    32
  0
VERTEX
  8
0
  5
2906
 10
277.218
 20
245.025
 30
0.000000
  70
    32
  0
VERTEX
  8
0
  5
2907
 10
277.207
 20
245.058
 30
0.000000
  70
    32
  0
VERTEX
  8
0
  5
2908
 10
277.195
 20
245.092
 30
0.000000
  70
    32
  0
VERTEX
  8
0
  5
2909
 10
277.183
 20
245.124
 30
0.000000
  70
    32
  0
VERTEX
  8
0
  5
290A
 10
277.171
 20
245.157
 30
0.000000
  70
    32
  0
VERTEX
  8
0
  5
290B
 10
277.159
 20
245.189
 30
0.000000
  70
    32
  0
VERTEX
  8
0
  5
290C
 10
277.147
 20
245.220
 30
0.000000
  70
    32
  0
VERTEX
  8
0
  5
290D
 10
277.136
 20
245.251
 30
0.000000
  70
    32
  0
VERTEX
  8
0
  5
290E
 10
277.124
 20
245.282
 30
0.000000
  70
    32
  0
VERTEX
  8
0
  5
290F
 10
277.112
 20
245.312
 30
0.000000
  70
    32
  0
VERTEX
  8
0
  5
2910
 10
277.100
 20
245.342
 30
0.000000
  70
    32
  0
SEQEND
  8
0
  5
2911
  0
POLYLINE
  5
2643
  8
0
 10
262.32388525169745
 20
230.74999999988333
 30
0.0
 66
     1
 70
     8
  0
VERTEX
  8
0
  5
2912
 10
262.324
 20
230.750
 30
0.000000
  70
    32
  0
VERTEX
  8
0
  5
2913
 10
262.317
 20
230.695
 30
0.000000
  70
    32
  0
VERTEX
  8
0
  5
2914
 10
262.309
 20
230.639
 30
0.000000
  70
    32
  0
VERTEX
  8
0
  5
2915
 10
262.302
 20
230.583
 30
0.000000
  70
    32
  0
VERTEX
  8
0
  5
2916
 10
262.294
 20
230.527
 30
0.000000
  70
    32
  0
VERTEX
  8
0
  5
2917
 10
262.287
 20
230.471
 30
0.000000
  70
    32
  0
VERTEX
  8
0
  5
2918
 10
262.280
 20
230.414
 30
0.000000
  70
    32
  0
VERTEX
  8
0
  5
2919
 10
262.272
 20
230.358
 30
0.000000
  70
    32
  0
VERTEX
  8
0
  5
291A
 10
262.265
 20
230.301
 30
0.000000
  70
    32
  0
VERTEX
  8
0
  5
291B
 10
262.258
 20
230.244
 30
0.000000
  70
    32
  0
VERTEX
  8
0
  5
291C
 10
262.250
 20
230.186
 30
0.000000
  70
    32
  0
VERTEX
  8
0
  5
291D
 10
262.243
 20
230.129
 30
0.000000
  70
    32
  0
VERTEX
  8
0
  5
291E
 10
262.236
 20
230.071
 30
0.000000
  70
    32
  0
VERTEX
  8
0
  5
291F
 10
262.228
 20
230.013
 30
0.000000
  70
    32
  0
VERTEX
  8
0
  5
2920
 10
262.221
 20
229.955
 30
0.000000
  70
    32
  0
VERTEX
  8
0
  5
2921
 10
262.214
 20
229.896
 30
0.000000
  70
    32
  0
VERTEX
  8
0
  5
2922
 10
262.206
 20
229.838
 30
0.000000
  70
    32
  0
VERTEX
  8
0
  5
2923
 10
262.199
 20
229.779
 30
0.000000
  70
    32
  0
VERTEX
  8
0
  5
2924
 10
262.192
 20
229.720
 30
0.000000
  70
    32
  0
VERTEX
  8
0
  5
2925
 10
262.184
 20
229.660
 30
0.000000
  70
    32
  0
VERTEX
  8
0
  5
2926
 10
262.177
 20
229.601
 30
0.000000
  70
    32
  0
VERTEX
  8
0
  5
2927
 10
262.170
 20
229.541
 30
0.000000
  70
    32
  0
VERTEX
  8
0
  5
2928
 10
262.162
 20
229.481
 30
0.000000
  70
    32
  0
VERTEX
  8
0
  5
2929
 10
262.155
 20
229.421
 30
0.000000
  70
    32
  0
VERTEX
  8
0
  5
292A
 10
262.148
 20
229.361
 30
0.000000
  70
    32
  0
VERTEX
  8
0
  5
292B
 10
262.140
 20
229.300
 30
0.000000
  70
    32
  0
VERTEX
  8
0
  5
292C
 10
262.133
 20
229.239
 30
0.000000
  70
    32
  0
VERTEX
  8
0
  5
292D
 10
262.126
 20
229.178
 30
0.000000
  70
    32
  0
VERTEX
  8
0
  5
292E
 10
262.118
 20
229.117
 30
0.000000
  70
    32
  0
VERTEX
  8
0
  5
292F
 10
262.111
 20
229.055
 30
0.000000
  70
    32
  0
VERTEX
  8
0
  5
2930
 10
262.104
 20
228.994
 30
0.000000
  70
    32
  0
VERTEX
  8
0
  5
2931
 10
262.096
 20
228.932
 30
0.000000
  70
    32
  0
VERTEX
  8
0
  5
2932
 10
262.089
 20
228.870
 30
0.000000
  70
    32
  0
VERTEX
  8
0
  5
2933
 10
262.082
 20
228.807
 30
0.000000
  70
    32
  0
VERTEX
  8
0
  5
2934
 10
262.075
 20
228.745
 30
0.000000
  70
    32
  0
VERTEX
  8
0
  5
2935
 10
262.067
 20
228.682
 30
0.000000
  70
    32
  0
VERTEX
  8
0
  5
2936
 10
262.060
 20
228.619
 30
0.000000
  70
    32
  0
VERTEX
  8
0
  5
2937
 10
262.053
 20
228.556
 30
0.000000
  70
    32
  0
VERTEX
  8
0
  5
2938
 10
262.045
 20
228.493
 30
0.000000
  70
    32
  0
VERTEX
  8
0
  5
2939
 10
262.038
 20
228.429
 30
0.000000
  70
    32
  0
VERTEX
  8
0
  5
293A
 10
262.031
 20
228.365
 30
0.000000
  70
    32
  0
VERTEX
  8
0
  5
293B
 10
262.024
 20
228.301
 30
0.000000
  70
    32
  0
VERTEX
  8
0
  5
293C
 10
262.016
 20
228.237
 30
0.000000
  70
    32
  0
VERTEX
  8
0
  5
293D
 10
262.009
 20
228.172
 30
0.000000
  70
    32
  0
VERTEX
  8
0
  5
293E
 10
262.002
 20
228.108
 30
0.000000
  70
    32
  0
VERTEX
  8
0
  5
293F
 10
261.994
 20
228.043
 30
0.000000
  70
    32
  0
VERTEX
  8
0
  5
2940
 10
261.987
 20
227.978
 30
0.000000
  70
    32
  0
VERTEX
  8
0
  5
2941
 10
261.980
 20
227.912
 30
0.000000
  70
    32
  0
VERTEX
  8
0
  5
2942
 10
261.973
 20
227.847
 30
0.000000
  70
    32
  0
VERTEX
  8
0
  5
2943
 10
261.965
 20
227.781
 30
0.000000
  70
    32
  0
VERTEX
  8
0
  5
2944
 10
261.958
 20
227.715
 30
0.000000
  70
    32
  0
VERTEX
  8
0
  5
2945
 10
261.951
 20
227.649
 30
0.000000
  70
    32
  0
VERTEX
  8
0
  5
2946
 10
261.944
 20
227.582
 30
0.000000
  70
    32
  0
VERTEX
  8
0
  5
2947
 10
261.936
 20
227.516
 30
0.000000
  70
    32
  0
VERTEX
  8
0
  5
2948
 10
261.929
 20
227.449
 30
0.000000
  70
    32
  0
VERTEX
  8
0
  5
2949
 10
261.922
 20
227.382
 30
0.000000
  70
    32
  0
VERTEX
  8
0
  5
294A
 10
261.915
 20
227.315
 30
0.000000
  70
    32
  0
VERTEX
  8
0
  5
294B
 10
261.907
 20
227.247
 30
0.000000
  70
    32
  0
VERTEX
  8
0
  5
294C
 10
261.900
 20
227.179
 30
0.000000
  70
    32
  0
VERTEX
  8
0
  5
294D
 10
261.893
 20
227.111
 30
0.000000
  70
    32
  0
VERTEX
  8
0
  5
294E
 10
261.886
 20
227.043
 30
0.000000
  70
    32
  0
VERTEX
  8
0
  5
294F
 10
261.878
 20
226.975
 30
0.000000
  70
    32
  0
VERTEX
  8
0
  5
2950
 10
261.871
 20
226.906
 30
0.000000
  70
    32
  0
VERTEX
  8
0
  5
2951
 10
261.864
 20
226.838
 30
0.000000
  70
    32
  0
VERTEX
  8
0
  5
2952
 10
261.857
 20
226.769
 30
0.000000
  70
    32
  0
VERTEX
  8
0
  5
2953
 10
261.850
 20
226.699
 30
0.000000
  70
    32
  0
VERTEX
  8
0
  5
2954
 10
261.842
 20
226.630
 30
0.000000
  70
    32
  0
VERTEX
  8
0
  5
2955
 10
261.835
 20
226.560
 30
0.000000
  70
    32
  0
VERTEX
  8
0
  5
2956
 10
261.828
 20
226.491
 30
0.000000
  70
    32
  0
VERTEX
  8
0
  5
2957
 10
261.821
 20
226.421
 30
0.000000
  70
    32
  0
VERTEX
  8
0
  5
2958
 10
261.813
 20
226.350
 30
0.000000
  70
    32
  0
VERTEX
  8
0
  5
2959
 10
261.806
 20
226.280
 30
0.000000
  70
    32
  0
VERTEX
  8
0
  5
295A
 10
261.799
 20
226.209
 30
0.000000
  70
    32
  0
VERTEX
  8
0
  5
295B
 10
261.792
 20
226.138
 30
0.000000
  70
    32
  0
VERTEX
  8
0
  5
295C
 10
261.785
 20
226.067
 30
0.000000
  70
    32
  0
VERTEX
  8
0
  5
295D
 10
261.777
 20
225.996
 30
0.000000
  70
    32
  0
VERTEX
  8
0
  5
295E
 10
261.770
 20
225.924
 30
0.000000
  70
    32
  0
VERTEX
  8
0
  5
295F
 10
261.763
 20
225.853
 30
0.000000
  70
    32
  0
VERTEX
  8
0
  5
2960
 10
261.756
 20
225.781
 30
0.000000
  70
    32
  0
VERTEX
  8
0
  5
2961
 10
261.749
 20
225.708
 30
0.000000
  70
    32
  0
VERTEX
  8
0
  5
2962
 10
261.742
 20
225.636
 30
0.000000
  70
    32
  0
VERTEX
  8
0
  5
2963
 10
261.734
 20
225.563
 30
0.000000
  70
    32
  0
VERTEX
  8
0
  5
2964
 10
261.727
 20
225.491
 30
0.000000
  70
    32
  0
VERTEX
  8
0
  5
2965
 10
261.720
 20
225.418
 30
0.000000
  70
    32
  0
VERTEX
  8
0
  5
2966
 10
261.713
 20
225.344
 30
0.000000
  70
    32
  0
VERTEX
  8
0
  5
2967
 10
261.706
 20
225.271
 30
0.000000
  70
    32
  0
VERTEX
  8
0
  5
2968
 10
261.698
 20
225.197
 30
0.000000
  70
    32
  0
VERTEX
  8
0
  5
2969
 10
261.691
 20
225.123
 30
0.000000
  70
    32
  0
VERTEX
  8
0
  5
296A
 10
261.684
 20
225.049
 30
0.000000
  70
    32
  0
VERTEX
  8
0
  5
296B
 10
261.677
 20
224.975
 30
0.000000
  70
    32
  0
VERTEX
  8
0
  5
296C
 10
261.670
 20
224.901
 30
0.000000
  70
    32
  0
VERTEX
  8
0
  5
296D
 10
261.663
 20
224.826
 30
0.000000
  70
    32
  0
VERTEX
  8
0
  5
296E
 10
261.656
 20
224.751
 30
0.000000
  70
    32
  0
VERTEX
  8
0
  5
296F
 10
261.648
 20
224.676
 30
0.000000
  70
    32
  0
VERTEX
  8
0
  5
2970
 10
261.641
 20
224.600
 30
0.000000
  70
    32
  0
VERTEX
  8
0
  5
2971
 10
261.634
 20
224.525
 30
0.000000
  70
    32
  0
VERTEX
  8
0
  5
2972
 10
261.627
 20
224.449
 30
0.000000
  70
    32
  0
VERTEX
  8
0
  5
2973
 10
261.620
 20
224.373
 30
0.000000
  70
    32
  0
VERTEX
  8
0
  5
2974
 10
261.613
 20
224.297
 30
0.000000
  70
    32
  0
VERTEX
  8
0
  5
2975
 10
261.606
 20
224.221
 30
0.000000
  70
    32
  0
VERTEX
  8
0
  5
2976
 10
261.598
 20
224.144
 30
0.000000
  70
    32
  0
VERTEX
  8
0
  5
2977
 10
261.591
 20
224.067
 30
0.000000
  70
    32
  0
VERTEX
  8
0
  5
2978
 10
261.584
 20
223.990
 30
0.000000
  70
    32
  0
VERTEX
  8
0
  5
2979
 10
261.577
 20
223.913
 30
0.000000
  70
    32
  0
VERTEX
  8
0
  5
297A
 10
261.570
 20
223.835
 30
0.000000
  70
    32
  0
VERTEX
  8
0
  5
297B
 10
261.563
 20
223.758
 30
0.000000
  70
    32
  0
VERTEX
  8
0
  5
297C
 10
261.556
 20
223.680
 30
0.000000
  70
    32
  0
VERTEX
  8
0
  5
297D
 10
261.549
 20
223.602
 30
0.000000
  70
    32
  0
VERTEX
  8
0
  5
297E
 10
261.542
 20
223.523
 30
0.000000
  70
    32
  0
VERTEX
  8
0
  5
297F
 10
261.534
 20
223.445
 30
0.000000
  70
    32
  0
VERTEX
  8
0
  5
2980
 10
261.527
 20
223.366
 30
0.000000
  70
    32
  0
VERTEX
  8
0
  5
2981
 10
261.520
 20
223.287
 30
0.000000
  70
    32
  0
VERTEX
  8
0
  5
2982
 10
261.513
 20
223.208
 30
0.000000
  70
    32
  0
VERTEX
  8
0
  5
2983
 10
261.506
 20
223.129
 30
0.000000
  70
    32
  0
VERTEX
  8
0
  5
2984
 10
261.499
 20
223.049
 30
0.000000
  70
    32
  0
VERTEX
  8
0
  5
2985
 10
261.492
 20
222.970
 30
0.000000
  70
    32
  0
VERTEX
  8
0
  5
2986
 10
261.485
 20
222.890
 30
0.000000
  70
    32
  0
VERTEX
  8
0
  5
2987
 10
261.478
 20
222.809
 30
0.000000
  70
    32
  0
VERTEX
  8
0
  5
2988
 10
261.471
 20
222.729
 30
0.000000
  70
    32
  0
VERTEX
  8
0
  5
2989
 10
261.464
 20
222.648
 30
0.000000
  70
    32
  0
VERTEX
  8
0
  5
298A
 10
261.456
 20
222.568
 30
0.000000
  70
    32
  0
VERTEX
  8
0
  5
298B
 10
261.449
 20
222.487
 30
0.000000
  70
    32
  0
VERTEX
  8
0
  5
298C
 10
261.442
 20
222.405
 30
0.000000
  70
    32
  0
VERTEX
  8
0
  5
298D
 10
261.435
 20
222.324
 30
0.000000
  70
    32
  0
VERTEX
  8
0
  5
298E
 10
261.428
 20
222.242
 30
0.000000
  70
    32
  0
VERTEX
  8
0
  5
298F
 10
261.421
 20
222.160
 30
0.000000
  70
    32
  0
VERTEX
  8
0
  5
2990
 10
261.414
 20
222.078
 30
0.000000
  70
    32
  0
VERTEX
  8
0
  5
2991
 10
261.407
 20
221.996
 30
0.000000
  70
    32
  0
VERTEX
  8
0
  5
2992
 10
261.400
 20
221.914
 30
0.000000
  70
    32
  0
SEQEND
  8
0
  5
2993
  0
LINE
  5
2644
  8
0
 10
262.89999999999998
 20
232.2000149431251
 30
0.0
 11
262.75245841790002
 21
230.7001046029001
 31
0.0
  0
POLYLINE
  5
2645
  8
0
 10
262.46088814859974
 20
230.59636984141665
 30
0.0
 66
     1
 70
     8
  0
VERTEX
  8
0
  5
2994
 10
262.461
 20
230.596
 30
0.000000
  70
    32
  0
VERTEX
  8
0
  5
2995
 10
262.463
 20
230.576
 30
0.000000
  70
    32
  0
VERTEX
  8
0
  5
2996
 10
262.465
 20
230.555
 30
0.000000
  70
    32
  0
VERTEX
  8
0
  5
2997
 10
262.468
 20
230.535
 30
0.000000
  70
    32
  0
VERTEX
  8
0
  5
2998
 10
262.470
 20
230.516
 30
0.000000
  70
    32
  0
VERTEX
  8
0
  5
2999
 10
262.472
 20
230.496
 30
0.000000
  70
    32
  0
VERTEX
  8
0
  5
299A
 10
262.474
 20
230.477
 30
0.000000
  70
    32
  0
VERTEX
  8
0
  5
299B
 10
262.476
 20
230.459
 30
0.000000
  70
    32
  0
VERTEX
  8
0
  5
299C
 10
262.479
 20
230.440
 30
0.000000
  70
    32
  0
VERTEX
  8
0
  5
299D
 10
262.481
 20
230.422
 30
0.000000
  70
    32
  0
VERTEX
  8
0
  5
299E
 10
262.483
 20
230.405
 30
0.000000
  70
    32
  0
VERTEX
  8
0
  5
299F
 10
262.485
 20
230.387
 30
0.000000
  70
    32
  0
VERTEX
  8
0
  5
29A0
 10
262.488
 20
230.370
 30
0.000000
  70
    32
  0
VERTEX
  8
0
  5
29A1
 10
262.490
 20
230.354
 30
0.000000
  70
    32
  0
VERTEX
  8
0
  5
29A2
 10
262.492
 20
230.337
 30
0.000000
  70
    32
  0
VERTEX
  8
0
  5
29A3
 10
262.494
 20
230.321
 30
0.000000
  70
    32
  0
VERTEX
  8
0
  5
29A4
 10
262.497
 20
230.306
 30
0.000000
  70
    32
  0
VERTEX
  8
0
  5
29A5
 10
262.499
 20
230.290
 30
0.000000
  70
    32
  0
VERTEX
  8
0
  5
29A6
 10
262.501
 20
230.275
 30
0.000000
  70
    32
  0
VERTEX
  8
0
  5
29A7
 10
262.503
 20
230.261
 30
0.000000
  70
    32
  0
VERTEX
  8
0
  5
29A8
 10
262.506
 20
230.246
 30
0.000000
  70
    32
  0
VERTEX
  8
0
  5
29A9
 10
262.508
 20
230.232
 30
0.000000
  70
    32
  0
VERTEX
  8
0
  5
29AA
 10
262.510
 20
230.218
 30
0.000000
  70
    32
  0
VERTEX
  8
0
  5
29AB
 10
262.512
 20
230.205
 30
0.000000
  70
    32
  0
VERTEX
  8
0
  5
29AC
 10
262.515
 20
230.192
 30
0.000000
  70
    32
  0
VERTEX
  8
0
  5
29AD
 10
262.517
 20
230.179
 30
0.000000
  70
    32
  0
VERTEX
  8
0
  5
29AE
 10
262.519
 20
230.167
 30
0.000000
  70
    32
  0
VERTEX
  8
0
  5
29AF
 10
262.522
 20
230.155
 30
0.000000
  70
    32
  0
VERTEX
  8
0
  5
29B0
 10
262.524
 20
230.143
 30
0.000000
  70
    32
  0
VERTEX
  8
0
  5
29B1
 10
262.526
 20
230.132
 30
0.000000
  70
    32
  0
VERTEX
  8
0
  5
29B2
 10
262.528
 20
230.121
 30
0.000000
  70
    32
  0
VERTEX
  8
0
  5
29B3
 10
262.531
 20
230.111
 30
0.000000
  70
    32
  0
VERTEX
  8
0
  5
29B4
 10
262.533
 20
230.100
 30
0.000000
  70
    32
  0
VERTEX
  8
0
  5
29B5
 10
262.535
 20
230.090
 30
0.000000
  70
    32
  0
VERTEX
  8
0
  5
29B6
 10
262.538
 20
230.081
 30
0.000000
  70
    32
  0
VERTEX
  8
0
  5
29B7
 10
262.540
 20
230.071
 30
0.000000
  70
    32
  0
VERTEX
  8
0
  5
29B8
 10
262.542
 20
230.062
 30
0.000000
  70
    32
  0
VERTEX
  8
0
  5
29B9
 10
262.544
 20
230.054
 30
0.000000
  70
    32
  0
VERTEX
  8
0
  5
29BA
 10
262.547
 20
230.046
 30
0.000000
  70
    32
  0
VERTEX
  8
0
  5
29BB
 10
262.549
 20
230.038
 30
0.000000
  70
    32
  0
VERTEX
  8
0
  5
29BC
 10
262.551
 20
230.030
 30
0.000000
  70
    32
  0
VERTEX
  8
0
  5
29BD
 10
262.554
 20
230.023
 30
0.000000
  70
    32
  0
VERTEX
  8
0
  5
29BE
 10
262.556
 20
230.016
 30
0.000000
  70
    32
  0
VERTEX
  8
0
  5
29BF
 10
262.558
 20
230.009
 30
0.000000
  70
    32
  0
VERTEX
  8
0
  5
29C0
 10
262.561
 20
230.003
 30
0.000000
  70
    32
  0
VERTEX
  8
0
  5
29C1
 10
262.563
 20
229.997
 30
0.000000
  70
    32
  0
VERTEX
  8
0
  5
29C2
 10
262.565
 20
229.992
 30
0.000000
  70
    32
  0
VERTEX
  8
0
  5
29C3
 10
262.568
 20
229.987
 30
0.000000
  70
    32
  0
VERTEX
  8
0
  5
29C4
 10
262.570
 20
229.982
 30
0.000000
  70
    32
  0
VERTEX
  8
0
  5
29C5
 10
262.572
 20
229.977
 30
0.000000
  70
    32
  0
VERTEX
  8
0
  5
29C6
 10
262.575
 20
229.973
 30
0.000000
  70
    32
  0
VERTEX
  8
0
  5
29C7
 10
262.577
 20
229.969
 30
0.000000
  70
    32
  0
VERTEX
  8
0
  5
29C8
 10
262.579
 20
229.966
 30
0.000000
  70
    32
  0
VERTEX
  8
0
  5
29C9
 10
262.581
 20
229.963
 30
0.000000
  70
    32
  0
VERTEX
  8
0
  5
29CA
 10
262.584
 20
229.960
 30
0.000000
  70
    32
  0
VERTEX
  8
0
  5
29CB
 10
262.586
 20
229.957
 30
0.000000
  70
    32
  0
VERTEX
  8
0
  5
29CC
 10
262.588
 20
229.955
 30
0.000000
  70
    32
  0
VERTEX
  8
0
  5
29CD
 10
262.591
 20
229.954
 30
0.000000
  70
    32
  0
VERTEX
  8
0
  5
29CE
 10
262.593
 20
229.952
 30
0.000000
  70
    32
  0
VERTEX
  8
0
  5
29CF
 10
262.595
 20
229.951
 30
0.000000
  70
    32
  0
VERTEX
  8
0
  5
29D0
 10
262.598
 20
229.950
 30
0.000000
  70
    32
  0
VERTEX
  8
0
  5
29D1
 10
262.600
 20
229.950
 30
0.000000
  70
    32
  0
VERTEX
  8
0
  5
29D2
 10
262.602
 20
229.950
 30
0.000000
  70
    32
  0
VERTEX
  8
0
  5
29D3
 10
262.605
 20
229.950
 30
0.000000
  70
    32
  0
VERTEX
  8
0
  5
29D4
 10
262.607
 20
229.951
 30
0.000000
  70
    32
  0
VERTEX
  8
0
  5
29D5
 10
262.609
 20
229.952
 30
0.000000
  70
    32
  0
VERTEX
  8
0
  5
29D6
 10
262.612
 20
229.953
 30
0.000000
  70
    32
  0
VERTEX
  8
0
  5
29D7
 10
262.614
 20
229.955
 30
0.000000
  70
    32
  0
VERTEX
  8
0
  5
29D8
 10
262.616
 20
229.957
 30
0.000000
  70
    32
  0
VERTEX
  8
0
  5
29D9
 10
262.619
 20
229.959
 30
0.000000
  70
    32
  0
VERTEX
  8
0
  5
29DA
 10
262.621
 20
229.962
 30
0.000000
  70
    32
  0
VERTEX
  8
0
  5
29DB
 10
262.623
 20
229.965
 30
0.000000
  70
    32
  0
VERTEX
  8
0
  5
29DC
 10
262.626
 20
229.969
 30
0.000000
  70
    32
  0
VERTEX
  8
0
  5
29DD
 10
262.628
 20
229.972
 30
0.000000
  70
    32
  0
VERTEX
  8
0
  5
29DE
 10
262.630
 20
229.976
 30
0.000000
  70
    32
  0
VERTEX
  8
0
  5
29DF
 10
262.632
 20
229.981
 30
0.000000
  70
    32
  0
VERTEX
  8
0
  5
29E0
 10
262.635
 20
229.986
 30
0.000000
  70
    32
  0
VERTEX
  8
0
  5
29E1
 10
262.637
 20
229.991
 30
0.000000
  70
    32
  0
VERTEX
  8
0
  5
29E2
 10
262.639
 20
229.996
 30
0.000000
  70
    32
  0
VERTEX
  8
0
  5
29E3
 10
262.642
 20
230.002
 30
0.000000
  70
    32
  0
VERTEX
  8
0
  5
29E4
 10
262.644
 20
230.008
 30
0.000000
  70
    32
  0
VERTEX
  8
0
  5
29E5
 10
262.646
 20
230.015
 30
0.000000
  70
    32
  0
VERTEX
  8
0
  5
29E6
 10
262.649
 20
230.021
 30
0.000000
  70
    32
  0
VERTEX
  8
0
  5
29E7
 10
262.651
 20
230.029
 30
0.000000
  70
    32
  0
VERTEX
  8
0
  5
29E8
 10
262.653
 20
230.036
 30
0.000000
  70
    32
  0
VERTEX
  8
0
  5
29E9
 10
262.656
 20
230.044
 30
0.000000
  70
    32
  0
VERTEX
  8
0
  5
29EA
 10
262.658
 20
230.052
 30
0.000000
  70
    32
  0
VERTEX
  8
0
  5
29EB
 10
262.660
 20
230.061
 30
0.000000
  70
    32
  0
VERTEX
  8
0
  5
29EC
 10
262.662
 20
230.070
 30
0.000000
  70
    32
  0
VERTEX
  8
0
  5
29ED
 10
262.665
 20
230.079
 30
0.000000
  70
    32
  0
VERTEX
  8
0
  5
29EE
 10
262.667
 20
230.088
 30
0.000000
  70
    32
  0
VERTEX
  8
0
  5
29EF
 10
262.669
 20
230.098
 30
0.000000
  70
    32
  0
VERTEX
  8
0
  5
29F0
 10
262.672
 20
230.108
 30
0.000000
  70
    32
  0
VERTEX
  8
0
  5
29F1
 10
262.674
 20
230.119
 30
0.000000
  70
    32
  0
VERTEX
  8
0
  5
29F2
 10
262.676
 20
230.130
 30
0.000000
  70
    32
  0
VERTEX
  8
0
  5
29F3
 10
262.679
 20
230.141
 30
0.000000
  70
    32
  0
VERTEX
  8
0
  5
29F4
 10
262.681
 20
230.153
 30
0.000000
  70
    32
  0
VERTEX
  8
0
  5
29F5
 10
262.683
 20
230.165
 30
0.000000
  70
    32
  0
VERTEX
  8
0
  5
29F6
 10
262.685
 20
230.177
 30
0.000000
  70
    32
  0
VERTEX
  8
0
  5
29F7
 10
262.688
 20
230.190
 30
0.000000
  70
    32
  0
VERTEX
  8
0
  5
29F8
 10
262.690
 20
230.203
 30
0.000000
  70
    32
  0
VERTEX
  8
0
  5
29F9
 10
262.692
 20
230.216
 30
0.000000
  70
    32
  0
VERTEX
  8
0
  5
29FA
 10
262.694
 20
230.229
 30
0.000000
  70
    32
  0
VERTEX
  8
0
  5
29FB
 10
262.697
 20
230.243
 30
0.000000
  70
    32
  0
VERTEX
  8
0
  5
29FC
 10
262.699
 20
230.258
 30
0.000000
  70
    32
  0
VERTEX
  8
0
  5
29FD
 10
262.701
 20
230.272
 30
0.000000
  70
    32
  0
VERTEX
  8
0
  5
29FE
 10
262.704
 20
230.287
 30
0.000000
  70
    32
  0
VERTEX
  8
0
  5
29FF
 10
262.706
 20
230.303
 30
0.000000
  70
    32
  0
VERTEX
  8
0
  5
2A00
 10
262.708
 20
230.318
 30
0.000000
  70
    32
  0
VERTEX
  8
0
  5
2A01
 10
262.710
 20
230.334
 30
0.000000
  70
    32
  0
VERTEX
  8
0
  5
2A02
 10
262.713
 20
230.350
 30
0.000000
  70
    32
  0
VERTEX
  8
0
  5
2A03
 10
262.715
 20
230.367
 30
0.000000
  70
    32
  0
VERTEX
  8
0
  5
2A04
 10
262.717
 20
230.384
 30
0.000000
  70
    32
  0
VERTEX
  8
0
  5
2A05
 10
262.719
 20
230.401
 30
0.000000
  70
    32
  0
VERTEX
  8
0
  5
2A06
 10
262.722
 20
230.419
 30
0.000000
  70
    32
  0
VERTEX
  8
0
  5
2A07
 10
262.724
 20
230.437
 30
0.000000
  70
    32
  0
VERTEX
  8
0
  5
2A08
 10
262.726
 20
230.455
 30
0.000000
  70
    32
  0
VERTEX
  8
0
  5
2A09
 10
262.728
 20
230.474
 30
0.000000
  70
    32
  0
VERTEX
  8
0
  5
2A0A
 10
262.730
 20
230.493
 30
0.000000
  70
    32
  0
VERTEX
  8
0
  5
2A0B
 10
262.733
 20
230.512
 30
0.000000
  70
    32
  0
VERTEX
  8
0
  5
2A0C
 10
262.735
 20
230.532
 30
0.000000
  70
    32
  0
VERTEX
  8
0
  5
2A0D
 10
262.737
 20
230.551
 30
0.000000
  70
    32
  0
VERTEX
  8
0
  5
2A0E
 10
262.739
 20
230.572
 30
0.000000
  70
    32
  0
VERTEX
  8
0
  5
2A0F
 10
262.741
 20
230.592
 30
0.000000
  70
    32
  0
VERTEX
  8
0
  5
2A10
 10
262.744
 20
230.613
 30
0.000000
  70
    32
  0
VERTEX
  8
0
  5
2A11
 10
262.746
 20
230.634
 30
0.000000
  70
    32
  0
VERTEX
  8
0
  5
2A12
 10
262.748
 20
230.656
 30
0.000000
  70
    32
  0
VERTEX
  8
0
  5
2A13
 10
262.750
 20
230.678
 30
0.000000
  70
    32
  0
VERTEX
  8
0
  5
2A14
 10
262.752
 20
230.700
 30
0.000000
  70
    32
  0
SEQEND
  8
0
  5
2A15
  0
POLYLINE
  5
2646
  8
0
 10
262.46088814854659
 20
230.59636984141684
 30
0.0
 66
     1
 70
     8
  0
VERTEX
  8
0
  5
2A16
 10
262.461
 20
230.596
 30
0.000000
  70
    32
  0
VERTEX
  8
0
  5
2A17
 10
262.460
 20
230.606
 30
0.000000
  70
    32
  0
VERTEX
  8
0
  5
2A18
 10
262.459
 20
230.615
 30
0.000000
  70
    32
  0
VERTEX
  8
0
  5
2A19
 10
262.458
 20
230.625
 30
0.000000
  70
    32
  0
VERTEX
  8
0
  5
2A1A
 10
262.457
 20
230.634
 30
0.000000
  70
    32
  0
VERTEX
  8
0
  5
2A1B
 10
262.456
 20
230.643
 30
0.000000
  70
    32
  0
VERTEX
  8
0
  5
2A1C
 10
262.455
 20
230.652
 30
0.000000
  70
    32
  0
VERTEX
  8
0
  5
2A1D
 10
262.454
 20
230.661
 30
0.000000
  70
    32
  0
VERTEX
  8
0
  5
2A1E
 10
262.453
 20
230.669
 30
0.000000
  70
    32
  0
VERTEX
  8
0
  5
2A1F
 10
262.452
 20
230.678
 30
0.000000
  70
    32
  0
VERTEX
  8
0
  5
2A20
 10
262.451
 20
230.686
 30
0.000000
  70
    32
  0
VERTEX
  8
0
  5
2A21
 10
262.449
 20
230.695
 30
0.000000
  70
    32
  0
VERTEX
  8
0
  5
2A22
 10
262.448
 20
230.703
 30
0.000000
  70
    32
  0
VERTEX
  8
0
  5
2A23
 10
262.447
 20
230.711
 30
0.000000
  70
    32
  0
VERTEX
  8
0
  5
2A24
 10
262.446
 20
230.719
 30
0.000000
  70
    32
  0
VERTEX
  8
0
  5
2A25
 10
262.445
 20
230.727
 30
0.000000
  70
    32
  0
VERTEX
  8
0
  5
2A26
 10
262.444
 20
230.734
 30
0.000000
  70
    32
  0
VERTEX
  8
0
  5
2A27
 10
262.443
 20
230.742
 30
0.000000
  70
    32
  0
VERTEX
  8
0
  5
2A28
 10
262.442
 20
230.749
 30
0.000000
  70
    32
  0
VERTEX
  8
0
  5
2A29
 10
262.441
 20
230.757
 30
0.000000
  70
    32
  0
VERTEX
  8
0
  5
2A2A
 10
262.440
 20
230.764
 30
0.000000
  70
    32
  0
VERTEX
  8
0
  5
2A2B
 10
262.439
 20
230.771
 30
0.000000
  70
    32
  0
VERTEX
  8
0
  5
2A2C
 10
262.438
 20
230.778
 30
0.000000
  70
    32
  0
VERTEX
  8
0
  5
2A2D
 10
262.437
 20
230.784
 30
0.000000
  70
    32
  0
VERTEX
  8
0
  5
2A2E
 10
262.436
 20
230.791
 30
0.000000
  70
    32
  0
VERTEX
  8
0
  5
2A2F
 10
262.435
 20
230.797
 30
0.000000
  70
    32
  0
VERTEX
  8
0
  5
2A30
 10
262.434
 20
230.804
 30
0.000000
  70
    32
  0
VERTEX
  8
0
  5
2A31
 10
262.433
 20
230.810
 30
0.000000
  70
    32
  0
VERTEX
  8
0
  5
2A32
 10
262.432
 20
230.816
 30
0.000000
  70
    32
  0
VERTEX
  8
0
  5
2A33
 10
262.430
 20
230.822
 30
0.000000
  70
    32
  0
VERTEX
  8
0
  5
2A34
 10
262.429
 20
230.828
 30
0.000000
  70
    32
  0
VERTEX
  8
0
  5
2A35
 10
262.428
 20
230.833
 30
0.000000
  70
    32
  0
VERTEX
  8
0
  5
2A36
 10
262.427
 20
230.839
 30
0.000000
  70
    32
  0
VERTEX
  8
0
  5
2A37
 10
262.426
 20
230.844
 30
0.000000
  70
    32
  0
VERTEX
  8
0
  5
2A38
 10
262.425
 20
230.850
 30
0.000000
  70
    32
  0
VERTEX
  8
0
  5
2A39
 10
262.424
 20
230.855
 30
0.000000
  70
    32
  0
VERTEX
  8
0
  5
2A3A
 10
262.423
 20
230.860
 30
0.000000
  70
    32
  0
VERTEX
  8
0
  5
2A3B
 10
262.422
 20
230.865
 30
0.000000
  70
    32
  0
VERTEX
  8
0
  5
2A3C
 10
262.421
 20
230.870
 30
0.000000
  70
    32
  0
VERTEX
  8
0
  5
2A3D
 10
262.420
 20
230.874
 30
0.000000
  70
    32
  0
VERTEX
  8
0
  5
2A3E
 10
262.419
 20
230.879
 30
0.000000
  70
    32
  0
VERTEX
  8
0
  5
2A3F
 10
262.418
 20
230.883
 30
0.000000
  70
    32
  0
VERTEX
  8
0
  5
2A40
 10
262.417
 20
230.887
 30
0.000000
  70
    32
  0
VERTEX
  8
0
  5
2A41
 10
262.415
 20
230.891
 30
0.000000
  70
    32
  0
VERTEX
  8
0
  5
2A42
 10
262.414
 20
230.895
 30
0.000000
  70
    32
  0
VERTEX
  8
0
  5
2A43
 10
262.413
 20
230.899
 30
0.000000
  70
    32
  0
VERTEX
  8
0
  5
2A44
 10
262.412
 20
230.903
 30
0.000000
  70
    32
  0
VERTEX
  8
0
  5
2A45
 10
262.411
 20
230.906
 30
0.000000
  70
    32
  0
VERTEX
  8
0
  5
2A46
 10
262.410
 20
230.910
 30
0.000000
  70
    32
  0
VERTEX
  8
0
  5
2A47
 10
262.409
 20
230.913
 30
0.000000
  70
    32
  0
VERTEX
  8
0
  5
2A48
 10
262.408
 20
230.916
 30
0.000000
  70
    32
  0
VERTEX
  8
0
  5
2A49
 10
262.407
 20
230.919
 30
0.000000
  70
    32
  0
VERTEX
  8
0
  5
2A4A
 10
262.406
 20
230.922
 30
0.000000
  70
    32
  0
VERTEX
  8
0
  5
2A4B
 10
262.405
 20
230.925
 30
0.000000
  70
    32
  0
VERTEX
  8
0
  5
2A4C
 10
262.404
 20
230.928
 30
0.000000
  70
    32
  0
VERTEX
  8
0
  5
2A4D
 10
262.403
 20
230.930
 30
0.000000
  70
    32
  0
VERTEX
  8
0
  5
2A4E
 10
262.401
 20
230.932
 30
0.000000
  70
    32
  0
VERTEX
  8
0
  5
2A4F
 10
262.400
 20
230.935
 30
0.000000
  70
    32
  0
VERTEX
  8
0
  5
2A50
 10
262.399
 20
230.937
 30
0.000000
  70
    32
  0
VERTEX
  8
0
  5
2A51
 10
262.398
 20
230.939
 30
0.000000
  70
    32
  0
VERTEX
  8
0
  5
2A52
 10
262.397
 20
230.940
 30
0.000000
  70
    32
  0
VERTEX
  8
0
  5
2A53
 10
262.396
 20
230.942
 30
0.000000
  70
    32
  0
VERTEX
  8
0
  5
2A54
 10
262.395
 20
230.944
 30
0.000000
  70
    32
  0
VERTEX
  8
0
  5
2A55
 10
262.394
 20
230.945
 30
0.000000
  70
    32
  0
VERTEX
  8
0
  5
2A56
 10
262.393
 20
230.946
 30
0.000000
  70
    32
  0
VERTEX
  8
0
  5
2A57
 10
262.392
 20
230.948
 30
0.000000
  70
    32
  0
VERTEX
  8
0
  5
2A58
 10
262.391
 20
230.949
 30
0.000000
  70
    32
  0
VERTEX
  8
0
  5
2A59
 10
262.390
 20
230.949
 30
0.000000
  70
    32
  0
VERTEX
  8
0
  5
2A5A
 10
262.388
 20
230.950
 30
0.000000
  70
    32
  0
VERTEX
  8
0
  5
2A5B
 10
262.387
 20
230.951
 30
0.000000
  70
    32
  0
VERTEX
  8
0
  5
2A5C
 10
262.386
 20
230.951
 30
0.000000
  70
    32
  0
VERTEX
  8
0
  5
2A5D
 10
262.385
 20
230.952
 30
0.000000
  70
    32
  0
VERTEX
  8
0
  5
2A5E
 10
262.384
 20
230.952
 30
0.000000
  70
    32
  0
VERTEX
  8
0
  5
2A5F
 10
262.383
 20
230.952
 30
0.000000
  70
    32
  0
VERTEX
  8
0
  5
2A60
 10
262.382
 20
230.952
 30
0.000000
  70
    32
  0
VERTEX
  8
0
  5
2A61
 10
262.381
 20
230.952
 30
0.000000
  70
    32
  0
VERTEX
  8
0
  5
2A62
 10
262.380
 20
230.951
 30
0.000000
  70
    32
  0
VERTEX
  8
0
  5
2A63
 10
262.379
 20
230.951
 30
0.000000
  70
    32
  0
VERTEX
  8
0
  5
2A64
 10
262.378
 20
230.950
 30
0.000000
  70
    32
  0
VERTEX
  8
0
  5
2A65
 10
262.376
 20
230.950
 30
0.000000
  70
    32
  0
VERTEX
  8
0
  5
2A66
 10
262.375
 20
230.949
 30
0.000000
  70
    32
  0
VERTEX
  8
0
  5
2A67
 10
262.374
 20
230.948
 30
0.000000
  70
    32
  0
VERTEX
  8
0
  5
2A68
 10
262.373
 20
230.947
 30
0.000000
  70
    32
  0
VERTEX
  8
0
  5
2A69
 10
262.372
 20
230.945
 30
0.000000
  70
    32
  0
VERTEX
  8
0
  5
2A6A
 10
262.371
 20
230.944
 30
0.000000
  70
    32
  0
VERTEX
  8
0
  5
2A6B
 10
262.370
 20
230.942
 30
0.000000
  70
    32
  0
VERTEX
  8
0
  5
2A6C
 10
262.369
 20
230.941
 30
0.000000
  70
    32
  0
VERTEX
  8
0
  5
2A6D
 10
262.368
 20
230.939
 30
0.000000
  70
    32
  0
VERTEX
  8
0
  5
2A6E
 10
262.367
 20
230.937
 30
0.000000
  70
    32
  0
VERTEX
  8
0
  5
2A6F
 10
262.366
 20
230.935
 30
0.000000
  70
    32
  0
VERTEX
  8
0
  5
2A70
 10
262.365
 20
230.933
 30
0.000000
  70
    32
  0
VERTEX
  8
0
  5
2A71
 10
262.363
 20
230.930
 30
0.000000
  70
    32
  0
VERTEX
  8
0
  5
2A72
 10
262.362
 20
230.928
 30
0.000000
  70
    32
  0
VERTEX
  8
0
  5
2A73
 10
262.361
 20
230.925
 30
0.000000
  70
    32
  0
VERTEX
  8
0
  5
2A74
 10
262.360
 20
230.922
 30
0.000000
  70
    32
  0
VERTEX
  8
0
  5
2A75
 10
262.359
 20
230.920
 30
0.000000
  70
    32
  0
VERTEX
  8
0
  5
2A76
 10
262.358
 20
230.917
 30
0.000000
  70
    32
  0
VERTEX
  8
0
  5
2A77
 10
262.357
 20
230.913
 30
0.000000
  70
    32
  0
VERTEX
  8
0
  5
2A78
 10
262.356
 20
230.910
 30
0.000000
  70
    32
  0
VERTEX
  8
0
  5
2A79
 10
262.355
 20
230.907
 30
0.000000
  70
    32
  0
VERTEX
  8
0
  5
2A7A
 10
262.354
 20
230.903
 30
0.000000
  70
    32
  0
VERTEX
  8
0
  5
2A7B
 10
262.353
 20
230.900
 30
0.000000
  70
    32
  0
VERTEX
  8
0
  5
2A7C
 10
262.352
 20
230.896
 30
0.000000
  70
    32
  0
VERTEX
  8
0
  5
2A7D
 10
262.351
 20
230.892
 30
0.000000
  70
    32
  0
VERTEX
  8
0
  5
2A7E
 10
262.349
 20
230.888
 30
0.000000
  70
    32
  0
VERTEX
  8
0
  5
2A7F
 10
262.348
 20
230.883
 30
0.000000
  70
    32
  0
VERTEX
  8
0
  5
2A80
 10
262.347
 20
230.879
 30
0.000000
  70
    32
  0
VERTEX
  8
0
  5
2A81
 10
262.346
 20
230.875
 30
0.000000
  70
    32
  0
VERTEX
  8
0
  5
2A82
 10
262.345
 20
230.870
 30
0.000000
  70
    32
  0
VERTEX
  8
0
  5
2A83
 10
262.344
 20
230.865
 30
0.000000
  70
    32
  0
VERTEX
  8
0
  5
2A84
 10
262.343
 20
230.860
 30
0.000000
  70
    32
  0
VERTEX
  8
0
  5
2A85
 10
262.342
 20
230.855
 30
0.000000
  70
    32
  0
VERTEX
  8
0
  5
2A86
 10
262.341
 20
230.850
 30
0.000000
  70
    32
  0
VERTEX
  8
0
  5
2A87
 10
262.340
 20
230.845
 30
0.000000
  70
    32
  0
VERTEX
  8
0
  5
2A88
 10
262.339
 20
230.840
 30
0.000000
  70
    32
  0
VERTEX
  8
0
  5
2A89
 10
262.338
 20
230.834
 30
0.000000
  70
    32
  0
VERTEX
  8
0
  5
2A8A
 10
262.337
 20
230.828
 30
0.000000
  70
    32
  0
VERTEX
  8
0
  5
2A8B
 10
262.336
 20
230.823
 30
0.000000
  70
    32
  0
VERTEX
  8
0
  5
2A8C
 10
262.334
 20
230.817
 30
0.000000
  70
    32
  0
VERTEX
  8
0
  5
2A8D
 10
262.333
 20
230.811
 30
0.000000
  70
    32
  0
VERTEX
  8
0
  5
2A8E
 10
262.332
 20
230.804
 30
0.000000
  70
    32
  0
VERTEX
  8
0
  5
2A8F
 10
262.331
 20
230.798
 30
0.000000
  70
    32
  0
VERTEX
  8
0
  5
2A90
 10
262.330
 20
230.792
 30
0.000000
  70
    32
  0
VERTEX
  8
0
  5
2A91
 10
262.329
 20
230.785
 30
0.000000
  70
    32
  0
VERTEX
  8
0
  5
2A92
 10
262.328
 20
230.778
 30
0.000000
  70
    32
  0
VERTEX
  8
0
  5
2A93
 10
262.327
 20
230.771
 30
0.000000
  70
    32
  0
VERTEX
  8
0
  5
2A94
 10
262.326
 20
230.764
 30
0.000000
  70
    32
  0
VERTEX
  8
0
  5
2A95
 10
262.325
 20
230.757
 30
0.000000
  70
    32
  0
VERTEX
  8
0
  5
2A96
 10
262.324
 20
230.750
 30
0.000000
  70
    32
  0
SEQEND
  8
0
  5
2A97
  0
ARC
  5
2647
  8
0
 10
276.45636584358238
 20
221.850366474975
 30
0.0
 40
2.144566393417437
 50
338.88895846034319
 51
1.6894556033504291
  0
ARC
  5
2648
  8
0
 10
288.63071118379997
 20
217.6656825103
 30
0.0
 40
10.73070226283274
 50
161.45855787069399
 51
198.1877935595009
  0
ARC
  5
2649
  8
0
 10
290.54063978969998
 20
238.94005800700009
 30
0.0
 40
13.421950412128099
 50
207.1725556350813
 51
227.58442835290239
  0
ARC
  5
264A
  8
0
 10
249.44252310659999
 20
238.95091064139999
 30
0.0
 40
13.44132025814895
 50
312.43735481310262
 51
332.82375765308342
  0
LINE
  5
264B
  8
0
 10
260.80000000000001
 20
180.94999999999999
 30
0.0
 11
279.2000000000001
 21
180.94999999999999
 31
0.0
  0
ARC
  5
264C
  8
0
 10
259.97594212993829
 20
227.09442536412871
 30
0.0
 40
2.4273425430972981
 50
127.0775976363478
 51
181.9463505851929
  0
ARC
  5
264D
  8
0
 10
279.65480458773732
 20
226.9184997717291
 30
0.0
 40
2.7966828209809722
 50
1.868746680949009
 51
49.056992125606499
  0
ARC
  5
264E
  8
0
 10
118.38368604703869
 20
203.58593337429539
 30
0.0
 40
36.49086074587764
 50
169.97474512380899
 51
171.98317997467069
  0
ARC
  5
264F
  8
0
 10
21.61631395260429
 20
203.58593337423531
 30
0.0
 40
36.49086074623952
 50
8.0168200253435788
 51
10.02525487618637
  0
ARC
  5
2650
  8
0
 10
59.699999999999932
 20
182.65000000000001
 30
0.0
 40
1.5000000000000171
 50
180.988888233301
 51
260.70461183110172
  0
ARC
  5
2651
  8
0
 10
80.299999999999955
 20
182.65000000000001
 30
0.0
 40
1.5000000000000191
 50
279.29538816889828
 51
359.011111766699
  0
LINE
  5
2652
  8
0
 10
59.457713419600047
 20
181.16969691849999
 30
0.0
 11
60.799999999999947
 21
180.94999999999999
 31
0.0
  0
LINE
  5
2653
  8
0
 10
79.199999999999932
 20
180.94999999999999
 30
0.0
 11
80.542286580499976
 21
181.16969691849999
 31
0.0
  0
LINE
  5
2654
  8
0
 10
60.799999999999947
 20
180.94999999999999
 30
0.0
 11
79.199999999999932
 21
180.94999999999999
 31
0.0
  0
LINE
  5
2655
  8
0
 10
162.24944428910001
 20
208.67508758240001
 30
0.0
 11
161.7999999999999
 21
182.65000000000001
 31
0.0
  0
ARC
  5
2656
  8
0
 10
160.2999999999999
 20
182.65000000000001
 30
0.0
 40
1.5000000000000191
 50
279.29538816889828
 51
0.0
  0
LINE
  5
2657
  8
0
 10
61.400000001799981
 20
237.8447307441001
 30
0.0
 11
61.400000001799981
 21
232.80323760723351
 31
0.0
  0
ARC
  5
2658
  8
0
 10
49.146549062999952
 20
239.19152335440009
 30
0.0
 40
13.818728403765281
 50
312.66984313190312
 51
334.53487321070321
  0
ARC
  5
2659
  8
0
 10
57.717914742900007
 20
235.2371712801
 30
0.0
 40
4.381389866223067
 50
333.02844133439822
 51
29.187251948400359
  0
LINE
  5
265A
  8
0
 10
62.9318666291
 20
245.36474381270011
 30
0.0
 11
63.051552322500008
 21
245.44999999999999
 31
0.0
  0
LINE
  5
265B
  8
0
 10
76.948447677499985
 20
245.44999999999999
 30
0.0
 11
63.051552322500008
 21
245.44999999999999
 31
0.0
  0
LINE
  5
265C
  8
0
 10
76.948447677499985
 20
245.44999999999999
 30
0.0
 11
77.068133371000044
 21
245.36474381270011
 31
0.0
  0
ARC
  5
265D
  8
0
 10
62.230784535237042
 20
237.8398517166635
 30
0.0
 40
0.8307988600780131
 50
172.53480977793799
 51
214.12081072516261
  0
POLYLINE
  5
265E
  8
0
 10
62.931866629414884
 20
245.36474381273405
 30
0.0
 66
     1
 70
     8
  0
VERTEX
  8
0
  5
2A98
 10
62.9319
 20
245.365
 30
0.000000
  70
    32
  0
VERTEX
  8
0
  5
2A99
 10
62.9198
 20
245.334
 30
0.000000
  70
    32
  0
VERTEX
  8
0
  5
2A9A
 10
62.9078
 20
245.304
 30
0.000000
  70
    32
  0
VERTEX
  8
0
  5
2A9B
 10
62.8957
 20
245.272
 30
0.000000
  70
    32
  0
VERTEX
  8
0
  5
2A9C
 10
62.8837
 20
245.241
 30
0.000000
  70
    32
  0
VERTEX
  8
0
  5
2A9D
 10
62.8716
 20
245.209
 30
0.000000
  70
    32
  0
VERTEX
  8
0
  5
2A9E
 10
62.8596
 20
245.176
 30
0.000000
  70
    32
  0
VERTEX
  8
0
  5
2A9F
 10
62.8475
 20
245.143
 30
0.000000
  70
    32
  0
VERTEX
  8
0
  5
2AA0
 10
62.8355
 20
245.110
 30
0.000000
  70
    32
  0
VERTEX
  8
0
  5
2AA1
 10
62.8235
 20
245.076
 30
0.000000
  70
    32
  0
VERTEX
  8
0
  5
2AA2
 10
62.8114
 20
245.042
 30
0.000000
  70
    32
  0
VERTEX
  8
0
  5
2AA3
 10
62.7994
 20
245.007
 30
0.000000
  70
    32
  0
VERTEX
  8
0
  5
2AA4
 10
62.7873
 20
244.972
 30
0.000000
  70
    32
  0
VERTEX
  8
0
  5
2AA5
 10
62.7753
 20
244.936
 30
0.000000
  70
    32
  0
VERTEX
  8
0
  5
2AA6
 10
62.7633
 20
244.900
 30
0.000000
  70
    32
  0
VERTEX
  8
0
  5
2AA7
 10
62.7512
 20
244.864
 30
0.000000
  70
    32
  0
VERTEX
  8
0
  5
2AA8
 10
62.7392
 20
244.827
 30
0.000000
  70
    32
  0
VERTEX
  8
0
  5
2AA9
 10
62.7272
 20
244.790
 30
0.000000
  70
    32
  0
VERTEX
  8
0
  5
2AAA
 10
62.7152
 20
244.752
 30
0.000000
  70
    32
  0
VERTEX
  8
0
  5
2AAB
 10
62.7031
 20
244.714
 30
0.000000
  70
    32
  0
VERTEX
  8
0
  5
2AAC
 10
62.6911
 20
244.675
 30
0.000000
  70
    32
  0
VERTEX
  8
0
  5
2AAD
 10
62.6791
 20
244.636
 30
0.000000
  70
    32
  0
VERTEX
  8
0
  5
2AAE
 10
62.6671
 20
244.597
 30
0.000000
  70
    32
  0
VERTEX
  8
0
  5
2AAF
 10
62.6551
 20
244.557
 30
0.000000
  70
    32
  0
VERTEX
  8
0
  5
2AB0
 10
62.6430
 20
244.516
 30
0.000000
  70
    32
  0
VERTEX
  8
0
  5
2AB1
 10
62.6310
 20
244.475
 30
0.000000
  70
    32
  0
VERTEX
  8
0
  5
2AB2
 10
62.6190
 20
244.434
 30
0.000000
  70
    32
  0
VERTEX
  8
0
  5
2AB3
 10
62.6070
 20
244.393
 30
0.000000
  70
    32
  0
VERTEX
  8
0
  5
2AB4
 10
62.5950
 20
244.350
 30
0.000000
  70
    32
  0
VERTEX
  8
0
  5
2AB5
 10
62.5830
 20
244.308
 30
0.000000
  70
    32
  0
VERTEX
  8
0
  5
2AB6
 10
62.5710
 20
244.265
 30
0.000000
  70
    32
  0
VERTEX
  8
0
  5
2AB7
 10
62.5590
 20
244.221
 30
0.000000
  70
    32
  0
VERTEX
  8
0
  5
2AB8
 10
62.5470
 20
244.178
 30
0.000000
  70
    32
  0
VERTEX
  8
0
  5
2AB9
 10
62.5350
 20
244.133
 30
0.000000
  70
    32
  0
VERTEX
  8
0
  5
2ABA
 10
62.5230
 20
244.088
 30
0.000000
  70
    32
  0
VERTEX
  8
0
  5
2ABB
 10
62.5110
 20
244.043
 30
0.000000
  70
    32
  0
VERTEX
  8
0
  5
2ABC
 10
62.4990
 20
243.998
 30
0.000000
  70
    32
  0
VERTEX
  8
0
  5
2ABD
 10
62.4870
 20
243.952
 30
0.000000
  70
    32
  0
VERTEX
  8
0
  5
2ABE
 10
62.4750
 20
243.905
 30
0.000000
  70
    32
  0
VERTEX
  8
0
  5
2ABF
 10
62.4630
 20
243.858
 30
0.000000
  70
    32
  0
VERTEX
  8
0
  5
2AC0
 10
62.4511
 20
243.811
 30
0.000000
  70
    32
  0
VERTEX
  8
0
  5
2AC1
 10
62.4391
 20
243.763
 30
0.000000
  70
    32
  0
VERTEX
  8
0
  5
2AC2
 10
62.4271
 20
243.715
 30
0.000000
  70
    32
  0
VERTEX
  8
0
  5
2AC3
 10
62.4151
 20
243.666
 30
0.000000
  70
    32
  0
VERTEX
  8
0
  5
2AC4
 10
62.4031
 20
243.617
 30
0.000000
  70
    32
  0
VERTEX
  8
0
  5
2AC5
 10
62.3912
 20
243.567
 30
0.000000
  70
    32
  0
VERTEX
  8
0
  5
2AC6
 10
62.3792
 20
243.518
 30
0.000000
  70
    32
  0
VERTEX
  8
0
  5
2AC7
 10
62.3672
 20
243.467
 30
0.000000
  70
    32
  0
VERTEX
  8
0
  5
2AC8
 10
62.3553
 20
243.416
 30
0.000000
  70
    32
  0
VERTEX
  8
0
  5
2AC9
 10
62.3433
 20
243.365
 30
0.000000
  70
    32
  0
VERTEX
  8
0
  5
2ACA
 10
62.3313
 20
243.313
 30
0.000000
  70
    32
  0
VERTEX
  8
0
  5
2ACB
 10
62.3194
 20
243.261
 30
0.000000
  70
    32
  0
VERTEX
  8
0
  5
2ACC
 10
62.3074
 20
243.209
 30
0.000000
  70
    32
  0
VERTEX
  8
0
  5
2ACD
 10
62.2955
 20
243.156
 30
0.000000
  70
    32
  0
VERTEX
  8
0
  5
2ACE
 10
62.2835
 20
243.102
 30
0.000000
  70
    32
  0
VERTEX
  8
0
  5
2ACF
 10
62.2716
 20
243.048
 30
0.000000
  70
    32
  0
VERTEX
  8
0
  5
2AD0
 10
62.2596
 20
242.994
 30
0.000000
  70
    32
  0
VERTEX
  8
0
  5
2AD1
 10
62.2477
 20
242.939
 30
0.000000
  70
    32
  0
VERTEX
  8
0
  5
2AD2
 10
62.2357
 20
242.884
 30
0.000000
  70
    32
  0
VERTEX
  8
0
  5
2AD3
 10
62.2238
 20
242.828
 30
0.000000
  70
    32
  0
VERTEX
  8
0
  5
2AD4
 10
62.2118
 20
242.772
 30
0.000000
  70
    32
  0
VERTEX
  8
0
  5
2AD5
 10
62.1999
 20
242.716
 30
0.000000
  70
    32
  0
VERTEX
  8
0
  5
2AD6
 10
62.1880
 20
242.659
 30
0.000000
  70
    32
  0
VERTEX
  8
0
  5
2AD7
 10
62.1760
 20
242.601
 30
0.000000
  70
    32
  0
VERTEX
  8
0
  5
2AD8
 10
62.1641
 20
242.544
 30
0.000000
  70
    32
  0
VERTEX
  8
0
  5
2AD9
 10
62.1522
 20
242.485
 30
0.000000
  70
    32
  0
VERTEX
  8
0
  5
2ADA
 10
62.1403
 20
242.427
 30
0.000000
  70
    32
  0
VERTEX
  8
0
  5
2ADB
 10
62.1284
 20
242.368
 30
0.000000
  70
    32
  0
VERTEX
  8
0
  5
2ADC
 10
62.1164
 20
242.308
 30
0.000000
  70
    32
  0
VERTEX
  8
0
  5
2ADD
 10
62.1045
 20
242.248
 30
0.000000
  70
    32
  0
VERTEX
  8
0
  5
2ADE
 10
62.0926
 20
242.188
 30
0.000000
  70
    32
  0
VERTEX
  8
0
  5
2ADF
 10
62.0807
 20
242.127
 30
0.000000
  70
    32
  0
VERTEX
  8
0
  5
2AE0
 10
62.0688
 20
242.066
 30
0.000000
  70
    32
  0
VERTEX
  8
0
  5
2AE1
 10
62.0569
 20
242.004
 30
0.000000
  70
    32
  0
VERTEX
  8
0
  5
2AE2
 10
62.0450
 20
241.942
 30
0.000000
  70
    32
  0
VERTEX
  8
0
  5
2AE3
 10
62.0331
 20
241.879
 30
0.000000
  70
    32
  0
VERTEX
  8
0
  5
2AE4
 10
62.0212
 20
241.816
 30
0.000000
  70
    32
  0
VERTEX
  8
0
  5
2AE5
 10
62.0093
 20
241.753
 30
0.000000
  70
    32
  0
VERTEX
  8
0
  5
2AE6
 10
61.9974
 20
241.689
 30
0.000000
  70
    32
  0
VERTEX
  8
0
  5
2AE7
 10
61.9855
 20
241.625
 30
0.000000
  70
    32
  0
VERTEX
  8
0
  5
2AE8
 10
61.9736
 20
241.560
 30
0.000000
  70
    32
  0
VERTEX
  8
0
  5
2AE9
 10
61.9618
 20
241.495
 30
0.000000
  70
    32
  0
VERTEX
  8
0
  5
2AEA
 10
61.9499
 20
241.429
 30
0.000000
  70
    32
  0
VERTEX
  8
0
  5
2AEB
 10
61.9380
 20
241.363
 30
0.000000
  70
    32
  0
VERTEX
  8
0
  5
2AEC
 10
61.9261
 20
241.297
 30
0.000000
  70
    32
  0
VERTEX
  8
0
  5
2AED
 10
61.9143
 20
241.230
 30
0.000000
  70
    32
  0
VERTEX
  8
0
  5
2AEE
 10
61.9024
 20
241.163
 30
0.000000
  70
    32
  0
VERTEX
  8
0
  5
2AEF
 10
61.8905
 20
241.095
 30
0.000000
  70
    32
  0
VERTEX
  8
0
  5
2AF0
 10
61.8787
 20
241.027
 30
0.000000
  70
    32
  0
VERTEX
  8
0
  5
2AF1
 10
61.8668
 20
240.958
 30
0.000000
  70
    32
  0
VERTEX
  8
0
  5
2AF2
 10
61.8550
 20
240.889
 30
0.000000
  70
    32
  0
VERTEX
  8
0
  5
2AF3
 10
61.8431
 20
240.820
 30
0.000000
  70
    32
  0
VERTEX
  8
0
  5
2AF4
 10
61.8313
 20
240.750
 30
0.000000
  70
    32
  0
VERTEX
  8
0
  5
2AF5
 10
61.8194
 20
240.679
 30
0.000000
  70
    32
  0
VERTEX
  8
0
  5
2AF6
 10
61.8076
 20
240.609
 30
0.000000
  70
    32
  0
VERTEX
  8
0
  5
2AF7
 10
61.7958
 20
240.538
 30
0.000000
  70
    32
  0
VERTEX
  8
0
  5
2AF8
 10
61.7839
 20
240.466
 30
0.000000
  70
    32
  0
VERTEX
  8
0
  5
2AF9
 10
61.7721
 20
240.394
 30
0.000000
  70
    32
  0
VERTEX
  8
0
  5
2AFA
 10
61.7603
 20
240.321
 30
0.000000
  70
    32
  0
VERTEX
  8
0
  5
2AFB
 10
61.7484
 20
240.249
 30
0.000000
  70
    32
  0
VERTEX
  8
0
  5
2AFC
 10
61.7366
 20
240.175
 30
0.000000
  70
    32
  0
VERTEX
  8
0
  5
2AFD
 10
61.7248
 20
240.101
 30
0.000000
  70
    32
  0
VERTEX
  8
0
  5
2AFE
 10
61.7130
 20
240.027
 30
0.000000
  70
    32
  0
VERTEX
  8
0
  5
2AFF
 10
61.7012
 20
239.953
 30
0.000000
  70
    32
  0
VERTEX
  8
0
  5
2B00
 10
61.6894
 20
239.878
 30
0.000000
  70
    32
  0
VERTEX
  8
0
  5
2B01
 10
61.6776
 20
239.802
 30
0.000000
  70
    32
  0
VERTEX
  8
0
  5
2B02
 10
61.6658
 20
239.726
 30
0.000000
  70
    32
  0
VERTEX
  8
0
  5
2B03
 10
61.6540
 20
239.650
 30
0.000000
  70
    32
  0
VERTEX
  8
0
  5
2B04
 10
61.6422
 20
239.573
 30
0.000000
  70
    32
  0
VERTEX
  8
0
  5
2B05
 10
61.6304
 20
239.496
 30
0.000000
  70
    32
  0
VERTEX
  8
0
  5
2B06
 10
61.6186
 20
239.418
 30
0.000000
  70
    32
  0
VERTEX
  8
0
  5
2B07
 10
61.6068
 20
239.340
 30
0.000000
  70
    32
  0
VERTEX
  8
0
  5
2B08
 10
61.5950
 20
239.262
 30
0.000000
  70
    32
  0
VERTEX
  8
0
  5
2B09
 10
61.5832
 20
239.183
 30
0.000000
  70
    32
  0
VERTEX
  8
0
  5
2B0A
 10
61.5715
 20
239.103
 30
0.000000
  70
    32
  0
VERTEX
  8
0
  5
2B0B
 10
61.5597
 20
239.024
 30
0.000000
  70
    32
  0
VERTEX
  8
0
  5
2B0C
 10
61.5479
 20
238.943
 30
0.000000
  70
    32
  0
VERTEX
  8
0
  5
2B0D
 10
61.5362
 20
238.863
 30
0.000000
  70
    32
  0
VERTEX
  8
0
  5
2B0E
 10
61.5244
 20
238.782
 30
0.000000
  70
    32
  0
VERTEX
  8
0
  5
2B0F
 10
61.5127
 20
238.700
 30
0.000000
  70
    32
  0
VERTEX
  8
0
  5
2B10
 10
61.5009
 20
238.618
 30
0.000000
  70
    32
  0
VERTEX
  8
0
  5
2B11
 10
61.4892
 20
238.536
 30
0.000000
  70
    32
  0
VERTEX
  8
0
  5
2B12
 10
61.4774
 20
238.453
 30
0.000000
  70
    32
  0
VERTEX
  8
0
  5
2B13
 10
61.4657
 20
238.370
 30
0.000000
  70
    32
  0
VERTEX
  8
0
  5
2B14
 10
61.4539
 20
238.287
 30
0.000000
  70
    32
  0
VERTEX
  8
0
  5
2B15
 10
61.4422
 20
238.202
 30
0.000000
  70
    32
  0
VERTEX
  8
0
  5
2B16
 10
61.4305
 20
238.118
 30
0.000000
  70
    32
  0
VERTEX
  8
0
  5
2B17
 10
61.4187
 20
238.033
 30
0.000000
  70
    32
  0
VERTEX
  8
0
  5
2B18
 10
61.4070
 20
237.948
 30
0.000000
  70
    32
  0
SEQEND
  8
0
  5
2B19
  0
ARC
  5
265F
  8
0
 10
60.65057733893763
 20
226.77261512951679
 30
0.0
 40
3.1099324693696331
 50
133.4323327169416
 51
175.5547519214511
  0
LINE
  5
2660
  8
0
 10
78.599999998200019
 20
237.8447307441001
 30
0.0
 11
78.599999998200019
 21
232.80323760723351
 31
0.0
  0
ARC
  5
2661
  8
0
 10
90.853450936999934
 20
239.19152335440009
 30
0.0
 40
13.818728403765281
 50
205.46512678929679
 51
227.33015686809691
  0
ARC
  5
2662
  8
0
 10
82.282085257099993
 20
235.2371712801
 30
0.0
 40
4.381389866223067
 50
150.81274805159961
 51
206.97155866560169
  0
ARC
  5
2663
  8
0
 10
77.769215464762965
 20
237.8398517166635
 30
0.0
 40
0.8307988600780131
 50
325.8791892748373
 51
7.4651902220619659
  0
POLYLINE
  5
2664
  8
0
 10
77.068133370585002
 20
245.36474381273405
 30
0.0
 66
     1
 70
     8
  0
VERTEX
  8
0
  5
2B1A
 10
77.0681
 20
245.365
 30
0.000000
  70
    32
  0
VERTEX
  8
0
  5
2B1B
 10
77.0802
 20
245.334
 30
0.000000
  70
    32
  0
VERTEX
  8
0
  5
2B1C
 10
77.0922
 20
245.304
 30
0.000000
  70
    32
  0
VERTEX
  8
0
  5
2B1D
 10
77.1043
 20
245.272
 30
0.000000
  70
    32
  0
VERTEX
  8
0
  5
2B1E
 10
77.1163
 20
245.241
 30
0.000000
  70
    32
  0
VERTEX
  8
0
  5
2B1F
 10
77.1284
 20
245.209
 30
0.000000
  70
    32
  0
VERTEX
  8
0
  5
2B20
 10
77.1404
 20
245.176
 30
0.000000
  70
    32
  0
VERTEX
  8
0
  5
2B21
 10
77.1525
 20
245.143
 30
0.000000
  70
    32
  0
VERTEX
  8
0
  5
2B22
 10
77.1645
 20
245.110
 30
0.000000
  70
    32
  0
VERTEX
  8
0
  5
2B23
 10
77.1765
 20
245.076
 30
0.000000
  70
    32
  0
VERTEX
  8
0
  5
2B24
 10
77.1886
 20
245.042
 30
0.000000
  70
    32
  0
VERTEX
  8
0
  5
2B25
 10
77.2006
 20
245.007
 30
0.000000
  70
    32
  0
VERTEX
  8
0
  5
2B26
 10
77.2127
 20
244.972
 30
0.000000
  70
    32
  0
VERTEX
  8
0
  5
2B27
 10
77.2247
 20
244.936
 30
0.000000
  70
    32
  0
VERTEX
  8
0
  5
2B28
 10
77.2367
 20
244.900
 30
0.000000
  70
    32
  0
VERTEX
  8
0
  5
2B29
 10
77.2488
 20
244.864
 30
0.000000
  70
    32
  0
VERTEX
  8
0
  5
2B2A
 10
77.2608
 20
244.827
 30
0.000000
  70
    32
  0
VERTEX
  8
0
  5
2B2B
 10
77.2728
 20
244.790
 30
0.000000
  70
    32
  0
VERTEX
  8
0
  5
2B2C
 10
77.2848
 20
244.752
 30
0.000000
  70
    32
  0
VERTEX
  8
0
  5
2B2D
 10
77.2969
 20
244.714
 30
0.000000
  70
    32
  0
VERTEX
  8
0
  5
2B2E
 10
77.3089
 20
244.675
 30
0.000000
  70
    32
  0
VERTEX
  8
0
  5
2B2F
 10
77.3209
 20
244.636
 30
0.000000
  70
    32
  0
VERTEX
  8
0
  5
2B30
 10
77.3329
 20
244.597
 30
0.000000
  70
    32
  0
VERTEX
  8
0
  5
2B31
 10
77.3449
 20
244.557
 30
0.000000
  70
    32
  0
VERTEX
  8
0
  5
2B32
 10
77.3570
 20
244.516
 30
0.000000
  70
    32
  0
VERTEX
  8
0
  5
2B33
 10
77.3690
 20
244.475
 30
0.000000
  70
    32
  0
VERTEX
  8
0
  5
2B34
 10
77.3810
 20
244.434
 30
0.000000
  70
    32
  0
VERTEX
  8
0
  5
2B35
 10
77.3930
 20
244.393
 30
0.000000
  70
    32
  0
VERTEX
  8
0
  5
2B36
 10
77.4050
 20
244.350
 30
0.000000
  70
    32
  0
VERTEX
  8
0
  5
2B37
 10
77.4170
 20
244.308
 30
0.000000
  70
    32
  0
VERTEX
  8
0
  5
2B38
 10
77.4290
 20
244.265
 30
0.000000
  70
    32
  0
VERTEX
  8
0
  5
2B39
 10
77.4410
 20
244.221
 30
0.000000
  70
    32
  0
VERTEX
  8
0
  5
2B3A
 10
77.4530
 20
244.178
 30
0.000000
  70
    32
  0
VERTEX
  8
0
  5
2B3B
 10
77.4650
 20
244.133
 30
0.000000
  70
    32
  0
VERTEX
  8
0
  5
2B3C
 10
77.4770
 20
244.088
 30
0.000000
  70
    32
  0
VERTEX
  8
0
  5
2B3D
 10
77.4890
 20
244.043
 30
0.000000
  70
    32
  0
VERTEX
  8
0
  5
2B3E
 10
77.5010
 20
243.998
 30
0.000000
  70
    32
  0
VERTEX
  8
0
  5
2B3F
 10
77.5130
 20
243.952
 30
0.000000
  70
    32
  0
VERTEX
  8
0
  5
2B40
 10
77.5250
 20
243.905
 30
0.000000
  70
    32
  0
VERTEX
  8
0
  5
2B41
 10
77.5370
 20
243.858
 30
0.000000
  70
    32
  0
VERTEX
  8
0
  5
2B42
 10
77.5489
 20
243.811
 30
0.000000
  70
    32
  0
VERTEX
  8
0
  5
2B43
 10
77.5609
 20
243.763
 30
0.000000
  70
    32
  0
VERTEX
  8
0
  5
2B44
 10
77.5729
 20
243.715
 30
0.000000
  70
    32
  0
VERTEX
  8
0
  5
2B45
 10
77.5849
 20
243.666
 30
0.000000
  70
    32
  0
VERTEX
  8
0
  5
2B46
 10
77.5969
 20
243.617
 30
0.000000
  70
    32
  0
VERTEX
  8
0
  5
2B47
 10
77.6088
 20
243.567
 30
0.000000
  70
    32
  0
VERTEX
  8
0
  5
2B48
 10
77.6208
 20
243.518
 30
0.000000
  70
    32
  0
VERTEX
  8
0
  5
2B49
 10
77.6328
 20
243.467
 30
0.000000
  70
    32
  0
VERTEX
  8
0
  5
2B4A
 10
77.6447
 20
243.416
 30
0.000000
  70
    32
  0
VERTEX
  8
0
  5
2B4B
 10
77.6567
 20
243.365
 30
0.000000
  70
    32
  0
VERTEX
  8
0
  5
2B4C
 10
77.6687
 20
243.313
 30
0.000000
  70
    32
  0
VERTEX
  8
0
  5
2B4D
 10
77.6806
 20
243.261
 30
0.000000
  70
    32
  0
VERTEX
  8
0
  5
2B4E
 10
77.6926
 20
243.209
 30
0.000000
  70
    32
  0
VERTEX
  8
0
  5
2B4F
 10
77.7045
 20
243.156
 30
0.000000
  70
    32
  0
VERTEX
  8
0
  5
2B50
 10
77.7165
 20
243.102
 30
0.000000
  70
    32
  0
VERTEX
  8
0
  5
2B51
 10
77.7284
 20
243.048
 30
0.000000
  70
    32
  0
VERTEX
  8
0
  5
2B52
 10
77.7404
 20
242.994
 30
0.000000
  70
    32
  0
VERTEX
  8
0
  5
2B53
 10
77.7523
 20
242.939
 30
0.000000
  70
    32
  0
VERTEX
  8
0
  5
2B54
 10
77.7643
 20
242.884
 30
0.000000
  70
    32
  0
VERTEX
  8
0
  5
2B55
 10
77.7762
 20
242.828
 30
0.000000
  70
    32
  0
VERTEX
  8
0
  5
2B56
 10
77.7882
 20
242.772
 30
0.000000
  70
    32
  0
VERTEX
  8
0
  5
2B57
 10
77.8001
 20
242.716
 30
0.000000
  70
    32
  0
VERTEX
  8
0
  5
2B58
 10
77.8120
 20
242.659
 30
0.000000
  70
    32
  0
VERTEX
  8
0
  5
2B59
 10
77.8240
 20
242.601
 30
0.000000
  70
    32
  0
VERTEX
  8
0
  5
2B5A
 10
77.8359
 20
242.544
 30
0.000000
  70
    32
  0
VERTEX
  8
0
  5
2B5B
 10
77.8478
 20
242.485
 30
0.000000
  70
    32
  0
VERTEX
  8
0
  5
2B5C
 10
77.8597
 20
242.427
 30
0.000000
  70
    32
  0
VERTEX
  8
0
  5
2B5D
 10
77.8716
 20
242.368
 30
0.000000
  70
    32
  0
VERTEX
  8
0
  5
2B5E
 10
77.8836
 20
242.308
 30
0.000000
  70
    32
  0
VERTEX
  8
0
  5
2B5F
 10
77.8955
 20
242.248
 30
0.000000
  70
    32
  0
VERTEX
  8
0
  5
2B60
 10
77.9074
 20
242.188
 30
0.000000
  70
    32
  0
VERTEX
  8
0
  5
2B61
 10
77.9193
 20
242.127
 30
0.000000
  70
    32
  0
VERTEX
  8
0
  5
2B62
 10
77.9312
 20
242.066
 30
0.000000
  70
    32
  0
VERTEX
  8
0
  5
2B63
 10
77.9431
 20
242.004
 30
0.000000
  70
    32
  0
VERTEX
  8
0
  5
2B64
 10
77.9550
 20
241.942
 30
0.000000
  70
    32
  0
VERTEX
  8
0
  5
2B65
 10
77.9669
 20
241.879
 30
0.000000
  70
    32
  0
VERTEX
  8
0
  5
2B66
 10
77.9788
 20
241.816
 30
0.000000
  70
    32
  0
VERTEX
  8
0
  5
2B67
 10
77.9907
 20
241.753
 30
0.000000
  70
    32
  0
VERTEX
  8
0
  5
2B68
 10
78.0026
 20
241.689
 30
0.000000
  70
    32
  0
VERTEX
  8
0
  5
2B69
 10
78.0145
 20
241.625
 30
0.000000
  70
    32
  0
VERTEX
  8
0
  5
2B6A
 10
78.0264
 20
241.560
 30
0.000000
  70
    32
  0
VERTEX
  8
0
  5
2B6B
 10
78.0382
 20
241.495
 30
0.000000
  70
    32
  0
VERTEX
  8
0
  5
2B6C
 10
78.0501
 20
241.429
 30
0.000000
  70
    32
  0
VERTEX
  8
0
  5
2B6D
 10
78.0620
 20
241.363
 30
0.000000
  70
    32
  0
VERTEX
  8
0
  5
2B6E
 10
78.0739
 20
241.297
 30
0.000000
  70
    32
  0
VERTEX
  8
0
  5
2B6F
 10
78.0857
 20
241.230
 30
0.000000
  70
    32
  0
VERTEX
  8
0
  5
2B70
 10
78.0976
 20
241.163
 30
0.000000
  70
    32
  0
VERTEX
  8
0
  5
2B71
 10
78.1095
 20
241.095
 30
0.000000
  70
    32
  0
VERTEX
  8
0
  5
2B72
 10
78.1213
 20
241.027
 30
0.000000
  70
    32
  0
VERTEX
  8
0
  5
2B73
 10
78.1332
 20
240.958
 30
0.000000
  70
    32
  0
VERTEX
  8
0
  5
2B74
 10
78.1450
 20
240.889
 30
0.000000
  70
    32
  0
VERTEX
  8
0
  5
2B75
 10
78.1569
 20
240.820
 30
0.000000
  70
    32
  0
VERTEX
  8
0
  5
2B76
 10
78.1687
 20
240.750
 30
0.000000
  70
    32
  0
VERTEX
  8
0
  5
2B77
 10
78.1806
 20
240.679
 30
0.000000
  70
    32
  0
VERTEX
  8
0
  5
2B78
 10
78.1924
 20
240.609
 30
0.000000
  70
    32
  0
VERTEX
  8
0
  5
2B79
 10
78.2042
 20
240.538
 30
0.000000
  70
    32
  0
VERTEX
  8
0
  5
2B7A
 10
78.2161
 20
240.466
 30
0.000000
  70
    32
  0
VERTEX
  8
0
  5
2B7B
 10
78.2279
 20
240.394
 30
0.000000
  70
    32
  0
VERTEX
  8
0
  5
2B7C
 10
78.2397
 20
240.321
 30
0.000000
  70
    32
  0
VERTEX
  8
0
  5
2B7D
 10
78.2516
 20
240.249
 30
0.000000
  70
    32
  0
VERTEX
  8
0
  5
2B7E
 10
78.2634
 20
240.175
 30
0.000000
  70
    32
  0
VERTEX
  8
0
  5
2B7F
 10
78.2752
 20
240.101
 30
0.000000
  70
    32
  0
VERTEX
  8
0
  5
2B80
 10
78.2870
 20
240.027
 30
0.000000
  70
    32
  0
VERTEX
  8
0
  5
2B81
 10
78.2988
 20
239.953
 30
0.000000
  70
    32
  0
VERTEX
  8
0
  5
2B82
 10
78.3106
 20
239.878
 30
0.000000
  70
    32
  0
VERTEX
  8
0
  5
2B83
 10
78.3224
 20
239.802
 30
0.000000
  70
    32
  0
VERTEX
  8
0
  5
2B84
 10
78.3342
 20
239.726
 30
0.000000
  70
    32
  0
VERTEX
  8
0
  5
2B85
 10
78.3460
 20
239.650
 30
0.000000
  70
    32
  0
VERTEX
  8
0
  5
2B86
 10
78.3578
 20
239.573
 30
0.000000
  70
    32
  0
VERTEX
  8
0
  5
2B87
 10
78.3696
 20
239.496
 30
0.000000
  70
    32
  0
VERTEX
  8
0
  5
2B88
 10
78.3814
 20
239.418
 30
0.000000
  70
    32
  0
VERTEX
  8
0
  5
2B89
 10
78.3932
 20
239.340
 30
0.000000
  70
    32
  0
VERTEX
  8
0
  5
2B8A
 10
78.4050
 20
239.262
 30
0.000000
  70
    32
  0
VERTEX
  8
0
  5
2B8B
 10
78.4168
 20
239.183
 30
0.000000
  70
    32
  0
VERTEX
  8
0
  5
2B8C
 10
78.4285
 20
239.103
 30
0.000000
  70
    32
  0
VERTEX
  8
0
  5
2B8D
 10
78.4403
 20
239.024
 30
0.000000
  70
    32
  0
VERTEX
  8
0
  5
2B8E
 10
78.4521
 20
238.943
 30
0.000000
  70
    32
  0
VERTEX
  8
0
  5
2B8F
 10
78.4638
 20
238.863
 30
0.000000
  70
    32
  0
VERTEX
  8
0
  5
2B90
 10
78.4756
 20
238.782
 30
0.000000
  70
    32
  0
VERTEX
  8
0
  5
2B91
 10
78.4873
 20
238.700
 30
0.000000
  70
    32
  0
VERTEX
  8
0
  5
2B92
 10
78.4991
 20
238.618
 30
0.000000
  70
    32
  0
VERTEX
  8
0
  5
2B93
 10
78.5108
 20
238.536
 30
0.000000
  70
    32
  0
VERTEX
  8
0
  5
2B94
 10
78.5226
 20
238.453
 30
0.000000
  70
    32
  0
VERTEX
  8
0
  5
2B95
 10
78.5343
 20
238.370
 30
0.000000
  70
    32
  0
VERTEX
  8
0
  5
2B96
 10
78.5461
 20
238.287
 30
0.000000
  70
    32
  0
VERTEX
  8
0
  5
2B97
 10
78.5578
 20
238.202
 30
0.000000
  70
    32
  0
VERTEX
  8
0
  5
2B98
 10
78.5695
 20
238.118
 30
0.000000
  70
    32
  0
VERTEX
  8
0
  5
2B99
 10
78.5813
 20
238.033
 30
0.000000
  70
    32
  0
VERTEX
  8
0
  5
2B9A
 10
78.5930
 20
237.948
 30
0.000000
  70
    32
  0
SEQEND
  8
0
  5
2B9B
  0
ARC
  5
2665
  8
0
 10
79.349422661062249
 20
226.77261512951679
 30
0.0
 40
3.1099324693696331
 50
4.4452480785488593
 51
46.567667283058782
  0
LINE
  5
2666
  8
0
 10
57.55000000004997
 20
227.0136548137001
 30
0.0
 11
57.55000000004997
 21
209.9383443376
 31
0.0
  0
LINE
  5
2667
  8
0
 10
82.450000000050053
 20
209.9383443376
 30
0.0
 11
82.450000000050053
 21
227.0136548137001
 31
0.0
  0
LINE
  5
2668
  8
0
 10
257.7505557108999
 20
208.67508758240001
 30
0.0
 11
258.20022340849988
 21
182.62411225189999
 31
0.0
  0
LINE
  5
2669
  8
0
 10
281.79977659149989
 20
182.62411225189999
 30
0.0
 11
282.24944428919991
 21
208.67508758240001
 31
0.0
  0
LINE
  5
266A
  8
0
 10
57.750555710900016
 20
208.67508758240001
 30
0.0
 11
58.200000000000038
 21
182.65000000000001
 31
0.0
  0
LINE
  5
266B
  8
0
 10
82.249444289099969
 20
208.67508758240001
 30
0.0
 11
81.799999999999955
 21
182.65000000000001
 31
0.0
  0
POLYLINE
  5
266C
  8
0
 66
     1
 10
0.0
 20
0.0
 30
0.0
  0
VERTEX
  5
266D
  8
0
 10
57.55000000005009
 20
227.01365481415939
 30
0.0
 42
0.1804470622436327
  0
VERTEX
  5
266E
  8
0
 10
58.294362028764787
 20
225.01826419421289
 30
0.0
 42
0.103077630965543
  0
VERTEX
  5
266F
  8
0
 10
61.196520574146462
 20
222.80624199237451
 30
0.0
 42
0.0626810158734109
 70
     2
 50
334.45564591193568
  0
VERTEX
  5
2670
  8
0
 10
64.955147527878793
 20
221.5580240940146
 30
0.0
 42
0.0488980678205214
 50
334.45564591193568
  0
VERTEX
  5
2671
  8
0
 10
69.999999999850047
 20
221.0634745388372
 30
0.0
 42
0.0488980678205202
  0
VERTEX
  5
2672
  8
0
 10
75.044852471850504
 20
221.55802409371799
 30
0.0
 42
0.0626810158734071
  0
VERTEX
  5
2673
  8
0
 10
78.803479425655951
 20
222.80624199185701
 30
0.0
 42
0.1030776309655196
 70
     2
 50
25.54435408469606
  0
VERTEX
  5
2674
  8
0
 10
81.705637971167789
 20
225.0182641935246
 30
0.0
 42
0.1804470622512109
 50
25.54435408469606
  0
VERTEX
  5
2675
  8
0
 10
82.449999999999932
 20
227.01365481351701
 30
0.0
 42
0.1804470622512082
  0
SEQEND
  5
2676
  8
0
  0
LINE
  5
2677
  8
0
 10
261.4000000000002
 20
238.1053490505372
 30
0.0
 11
261.39999999999998
 21
221.91359320362221
 31
0.0
  0
POLYLINE
  5
2678
  8
0
 10
261.40000000000015
 20
238.10534905053711
 30
0.0
 66
     1
 70
     8
  0
VERTEX
  8
0
  5
2B9C
 10
261.400
 20
238.105
 30
0.000000
  70
    32
  0
VERTEX
  8
0
  5
2B9D
 10
261.412
 20
238.188
 30
0.000000
  70
    32
  0
VERTEX
  8
0
  5
2B9E
 10
261.423
 20
238.271
 30
0.000000
  70
    32
  0
VERTEX
  8
0
  5
2B9F
 10
261.435
 20
238.353
 30
0.000000
  70
    32
  0
VERTEX
  8
0
  5
2BA0
 10
261.446
 20
238.435
 30
0.000000
  70
    32
  0
VERTEX
  8
0
  5
2BA1
 10
261.458
 20
238.516
 30
0.000000
  70
    32
  0
VERTEX
  8
0
  5
2BA2
 10
261.469
 20
238.597
 30
0.000000
  70
    32
  0
VERTEX
  8
0
  5
2BA3
 10
261.481
 20
238.678
 30
0.000000
  70
    32
  0
VERTEX
  8
0
  5
2BA4
 10
261.492
 20
238.758
 30
0.000000
  70
    32
  0
VERTEX
  8
0
  5
2BA5
 10
261.504
 20
238.838
 30
0.000000
  70
    32
  0
VERTEX
  8
0
  5
2BA6
 10
261.516
 20
238.917
 30
0.000000
  70
    32
  0
VERTEX
  8
0
  5
2BA7
 10
261.527
 20
238.996
 30
0.000000
  70
    32
  0
VERTEX
  8
0
  5
2BA8
 10
261.539
 20
239.074
 30
0.000000
  70
    32
  0
VERTEX
  8
0
  5
2BA9
 10
261.550
 20
239.152
 30
0.000000
  70
    32
  0
VERTEX
  8
0
  5
2BAA
 10
261.562
 20
239.230
 30
0.000000
  70
    32
  0
VERTEX
  8
0
  5
2BAB
 10
261.573
 20
239.307
 30
0.000000
  70
    32
  0
VERTEX
  8
0
  5
2BAC
 10
261.585
 20
239.384
 30
0.000000
  70
    32
  0
VERTEX
  8
0
  5
2BAD
 10
261.597
 20
239.461
 30
0.000000
  70
    32
  0
VERTEX
  8
0
  5
2BAE
 10
261.608
 20
239.537
 30
0.000000
  70
    32
  0
VERTEX
  8
0
  5
2BAF
 10
261.620
 20
239.612
 30
0.000000
  70
    32
  0
VERTEX
  8
0
  5
2BB0
 10
261.631
 20
239.687
 30
0.000000
  70
    32
  0
VERTEX
  8
0
  5
2BB1
 10
261.643
 20
239.762
 30
0.000000
  70
    32
  0
VERTEX
  8
0
  5
2BB2
 10
261.655
 20
239.836
 30
0.000000
  70
    32
  0
VERTEX
  8
0
  5
2BB3
 10
261.666
 20
239.910
 30
0.000000
  70
    32
  0
VERTEX
  8
0
  5
2BB4
 10
261.678
 20
239.984
 30
0.000000
  70
    32
  0
VERTEX
  8
0
  5
2BB5
 10
261.689
 20
240.057
 30
0.000000
  70
    32
  0
VERTEX
  8
0
  5
2BB6
 10
261.701
 20
240.130
 30
0.000000
  70
    32
  0
VERTEX
  8
0
  5
2BB7
 10
261.713
 20
240.202
 30
0.000000
  70
    32
  0
VERTEX
  8
0
  5
2BB8
 10
261.724
 20
240.274
 30
0.000000
  70
    32
  0
VERTEX
  8
0
  5
2BB9
 10
261.736
 20
240.345
 30
0.000000
  70
    32
  0
VERTEX
  8
0
  5
2BBA
 10
261.748
 20
240.416
 30
0.000000
  70
    32
  0
VERTEX
  8
0
  5
2BBB
 10
261.759
 20
240.487
 30
0.000000
  70
    32
  0
VERTEX
  8
0
  5
2BBC
 10
261.771
 20
240.557
 30
0.000000
  70
    32
  0
VERTEX
  8
0
  5
2BBD
 10
261.783
 20
240.627
 30
0.000000
  70
    32
  0
VERTEX
  8
0
  5
2BBE
 10
261.794
 20
240.696
 30
0.000000
  70
    32
  0
VERTEX
  8
0
  5
2BBF
 10
261.806
 20
240.765
 30
0.000000
  70
    32
  0
VERTEX
  8
0
  5
2BC0
 10
261.817
 20
240.833
 30
0.000000
  70
    32
  0
VERTEX
  8
0
  5
2BC1
 10
261.829
 20
240.901
 30
0.000000
  70
    32
  0
VERTEX
  8
0
  5
2BC2
 10
261.841
 20
240.969
 30
0.000000
  70
    32
  0
VERTEX
  8
0
  5
2BC3
 10
261.852
 20
241.036
 30
0.000000
  70
    32
  0
VERTEX
  8
0
  5
2BC4
 10
261.864
 20
241.103
 30
0.000000
  70
    32
  0
VERTEX
  8
0
  5
2BC5
 10
261.876
 20
241.170
 30
0.000000
  70
    32
  0
VERTEX
  8
0
  5
2BC6
 10
261.887
 20
241.236
 30
0.000000
  70
    32
  0
VERTEX
  8
0
  5
2BC7
 10
261.899
 20
241.301
 30
0.000000
  70
    32
  0
VERTEX
  8
0
  5
2BC8
 10
261.911
 20
241.366
 30
0.000000
  70
    32
  0
VERTEX
  8
0
  5
2BC9
 10
261.922
 20
241.431
 30
0.000000
  70
    32
  0
VERTEX
  8
0
  5
2BCA
 10
261.934
 20
241.496
 30
0.000000
  70
    32
  0
VERTEX
  8
0
  5
2BCB
 10
261.946
 20
241.559
 30
0.000000
  70
    32
  0
VERTEX
  8
0
  5
2BCC
 10
261.958
 20
241.623
 30
0.000000
  70
    32
  0
VERTEX
  8
0
  5
2BCD
 10
261.969
 20
241.686
 30
0.000000
  70
    32
  0
VERTEX
  8
0
  5
2BCE
 10
261.981
 20
241.749
 30
0.000000
  70
    32
  0
VERTEX
  8
0
  5
2BCF
 10
261.993
 20
241.811
 30
0.000000
  70
    32
  0
VERTEX
  8
0
  5
2BD0
 10
262.004
 20
241.873
 30
0.000000
  70
    32
  0
VERTEX
  8
0
  5
2BD1
 10
262.016
 20
241.934
 30
0.000000
  70
    32
  0
VERTEX
  8
0
  5
2BD2
 10
262.028
 20
241.995
 30
0.000000
  70
    32
  0
VERTEX
  8
0
  5
2BD3
 10
262.039
 20
242.056
 30
0.000000
  70
    32
  0
VERTEX
  8
0
  5
2BD4
 10
262.051
 20
242.116
 30
0.000000
  70
    32
  0
VERTEX
  8
0
  5
2BD5
 10
262.063
 20
242.176
 30
0.000000
  70
    32
  0
VERTEX
  8
0
  5
2BD6
 10
262.075
 20
242.235
 30
0.000000
  70
    32
  0
VERTEX
  8
0
  5
2BD7
 10
262.086
 20
242.294
 30
0.000000
  70
    32
  0
VERTEX
  8
0
  5
2BD8
 10
262.098
 20
242.352
 30
0.000000
  70
    32
  0
VERTEX
  8
0
  5
2BD9
 10
262.110
 20
242.411
 30
0.000000
  70
    32
  0
VERTEX
  8
0
  5
2BDA
 10
262.121
 20
242.468
 30
0.000000
  70
    32
  0
VERTEX
  8
0
  5
2BDB
 10
262.133
 20
242.525
 30
0.000000
  70
    32
  0
VERTEX
  8
0
  5
2BDC
 10
262.145
 20
242.582
 30
0.000000
  70
    32
  0
VERTEX
  8
0
  5
2BDD
 10
262.157
 20
242.639
 30
0.000000
  70
    32
  0
VERTEX
  8
0
  5
2BDE
 10
262.168
 20
242.695
 30
0.000000
  70
    32
  0
VERTEX
  8
0
  5
2BDF
 10
262.180
 20
242.750
 30
0.000000
  70
    32
  0
VERTEX
  8
0
  5
2BE0
 10
262.192
 20
242.805
 30
0.000000
  70
    32
  0
VERTEX
  8
0
  5
2BE1
 10
262.204
 20
242.860
 30
0.000000
  70
    32
  0
VERTEX
  8
0
  5
2BE2
 10
262.215
 20
242.914
 30
0.000000
  70
    32
  0
VERTEX
  8
0
  5
2BE3
 10
262.227
 20
242.968
 30
0.000000
  70
    32
  0
VERTEX
  8
0
  5
2BE4
 10
262.239
 20
243.022
 30
0.000000
  70
    32
  0
VERTEX
  8
0
  5
2BE5
 10
262.251
 20
243.075
 30
0.000000
  70
    32
  0
VERTEX
  8
0
  5
2BE6
 10
262.262
 20
243.127
 30
0.000000
  70
    32
  0
VERTEX
  8
0
  5
2BE7
 10
262.274
 20
243.179
 30
0.000000
  70
    32
  0
VERTEX
  8
0
  5
2BE8
 10
262.286
 20
243.231
 30
0.000000
  70
    32
  0
VERTEX
  8
0
  5
2BE9
 10
262.298
 20
243.282
 30
0.000000
  70
    32
  0
VERTEX
  8
0
  5
2BEA
 10
262.309
 20
243.333
 30
0.000000
  70
    32
  0
VERTEX
  8
0
  5
2BEB
 10
262.321
 20
243.384
 30
0.000000
  70
    32
  0
VERTEX
  8
0
  5
2BEC
 10
262.333
 20
243.434
 30
0.000000
  70
    32
  0
VERTEX
  8
0
  5
2BED
 10
262.345
 20
243.484
 30
0.000000
  70
    32
  0
VERTEX
  8
0
  5
2BEE
 10
262.356
 20
243.533
 30
0.000000
  70
    32
  0
VERTEX
  8
0
  5
2BEF
 10
262.368
 20
243.582
 30
0.000000
  70
    32
  0
VERTEX
  8
0
  5
2BF0
 10
262.380
 20
243.630
 30
0.000000
  70
    32
  0
VERTEX
  8
0
  5
2BF1
 10
262.392
 20
243.678
 30
0.000000
  70
    32
  0
VERTEX
  8
0
  5
2BF2
 10
262.404
 20
243.726
 30
0.000000
  70
    32
  0
VERTEX
  8
0
  5
2BF3
 10
262.415
 20
243.773
 30
0.000000
  70
    32
  0
VERTEX
  8
0
  5
2BF4
 10
262.427
 20
243.820
 30
0.000000
  70
    32
  0
VERTEX
  8
0
  5
2BF5
 10
262.439
 20
243.866
 30
0.000000
  70
    32
  0
VERTEX
  8
0
  5
2BF6
 10
262.451
 20
243.912
 30
0.000000
  70
    32
  0
VERTEX
  8
0
  5
2BF7
 10
262.462
 20
243.957
 30
0.000000
  70
    32
  0
VERTEX
  8
0
  5
2BF8
 10
262.474
 20
244.002
 30
0.000000
  70
    32
  0
VERTEX
  8
0
  5
2BF9
 10
262.486
 20
244.047
 30
0.000000
  70
    32
  0
VERTEX
  8
0
  5
2BFA
 10
262.498
 20
244.091
 30
0.000000
  70
    32
  0
VERTEX
  8
0
  5
2BFB
 10
262.510
 20
244.135
 30
0.000000
  70
    32
  0
VERTEX
  8
0
  5
2BFC
 10
262.521
 20
244.178
 30
0.000000
  70
    32
  0
VERTEX
  8
0
  5
2BFD
 10
262.533
 20
244.221
 30
0.000000
  70
    32
  0
VERTEX
  8
0
  5
2BFE
 10
262.545
 20
244.264
 30
0.000000
  70
    32
  0
VERTEX
  8
0
  5
2BFF
 10
262.557
 20
244.306
 30
0.000000
  70
    32
  0
VERTEX
  8
0
  5
2C00
 10
262.569
 20
244.347
 30
0.000000
  70
    32
  0
VERTEX
  8
0
  5
2C01
 10
262.581
 20
244.389
 30
0.000000
  70
    32
  0
VERTEX
  8
0
  5
2C02
 10
262.592
 20
244.429
 30
0.000000
  70
    32
  0
VERTEX
  8
0
  5
2C03
 10
262.604
 20
244.470
 30
0.000000
  70
    32
  0
VERTEX
  8
0
  5
2C04
 10
262.616
 20
244.510
 30
0.000000
  70
    32
  0
VERTEX
  8
0
  5
2C05
 10
262.628
 20
244.549
 30
0.000000
  70
    32
  0
VERTEX
  8
0
  5
2C06
 10
262.640
 20
244.588
 30
0.000000
  70
    32
  0
VERTEX
  8
0
  5
2C07
 10
262.651
 20
244.627
 30
0.000000
  70
    32
  0
VERTEX
  8
0
  5
2C08
 10
262.663
 20
244.665
 30
0.000000
  70
    32
  0
VERTEX
  8
0
  5
2C09
 10
262.675
 20
244.703
 30
0.000000
  70
    32
  0
VERTEX
  8
0
  5
2C0A
 10
262.687
 20
244.741
 30
0.000000
  70
    32
  0
VERTEX
  8
0
  5
2C0B
 10
262.699
 20
244.778
 30
0.000000
  70
    32
  0
VERTEX
  8
0
  5
2C0C
 10
262.711
 20
244.814
 30
0.000000
  70
    32
  0
VERTEX
  8
0
  5
2C0D
 10
262.722
 20
244.850
 30
0.000000
  70
    32
  0
VERTEX
  8
0
  5
2C0E
 10
262.734
 20
244.886
 30
0.000000
  70
    32
  0
VERTEX
  8
0
  5
2C0F
 10
262.746
 20
244.921
 30
0.000000
  70
    32
  0
VERTEX
  8
0
  5
2C10
 10
262.758
 20
244.956
 30
0.000000
  70
    32
  0
VERTEX
  8
0
  5
2C11
 10
262.770
 20
244.991
 30
0.000000
  70
    32
  0
VERTEX
  8
0
  5
2C12
 10
262.782
 20
245.025
 30
0.000000
  70
    32
  0
VERTEX
  8
0
  5
2C13
 10
262.793
 20
245.058
 30
0.000000
  70
    32
  0
VERTEX
  8
0
  5
2C14
 10
262.805
 20
245.092
 30
0.000000
  70
    32
  0
VERTEX
  8
0
  5
2C15
 10
262.817
 20
245.124
 30
0.000000
  70
    32
  0
VERTEX
  8
0
  5
2C16
 10
262.829
 20
245.157
 30
0.000000
  70
    32
  0
VERTEX
  8
0
  5
2C17
 10
262.841
 20
245.189
 30
0.000000
  70
    32
  0
VERTEX
  8
0
  5
2C18
 10
262.853
 20
245.220
 30
0.000000
  70
    32
  0
VERTEX
  8
0
  5
2C19
 10
262.864
 20
245.251
 30
0.000000
  70
    32
  0
VERTEX
  8
0
  5
2C1A
 10
262.876
 20
245.282
 30
0.000000
  70
    32
  0
VERTEX
  8
0
  5
2C1B
 10
262.888
 20
245.312
 30
0.000000
  70
    32
  0
VERTEX
  8
0
  5
2C1C
 10
262.900
 20
245.342
 30
0.000000
  70
    32
  0
SEQEND
  8
0
  5
2C1D
  0
ARC
  5
2679
  8
0
 10
263.54363415641762
 20
221.85036647497509
 30
0.0
 40
2.144566393417437
 50
178.31054439664791
 51
201.11104153965681
  0
ARC
  5
267A
  8
0
 10
251.36928881619991
 20
217.66568251030029
 30
0.0
 40
10.73070226283274
 50
341.81220644049768
 51
18.541442129303629
  0
ENDSEC
  0
EOF
