  0
SECTION
  2
HEADER
  9
$ACADVER
  1
AC1009
  9
$INSBASE
 10
0.0
 20
0.0
 30
0.0
  9
$EXTMIN
 10
0.0
 20
-1.4802182810368341
 30
0.0
  9
$EXTMAX
 10
68.599999999999994
 20
63.79999999999999
 30
0.0
  9
$LIMMIN
 10
0.0
 20
0.0
  9
$LIMMAX
 10
375.0
 20
270.0
  9
$ORTHOMODE
 70
     1
  9
$REGENMODE
 70
     1
  9
$FILLMODE
 70
     1
  9
$QTEXTMODE
 70
     0
  9
$MIRRTEXT
 70
     0
  9
$DRAGMODE
 70
     2
  9
$LTSCALE
 40
5.0
  9
$OSMODE
 70
    37
  9
$ATTMODE
 70
     1
  9
$TEXTSIZE
 40
0.2
  9
$TRACEWID
 40
0.05
  9
$TEXTSTYLE
  7
STANDARD
  9
$CLAYER
  8
4
  9
$CELTYPE
  6
BYLAYER
  9
$CECOLOR
 62
   256
  9
$DIMSCALE
 40
1.0
  9
$DIMASZ
 40
3.0
  9
$DIMEXO
 40
2.0
  9
$DIMDLI
 40
0.38
  9
$DIMRND
 40
0.0
  9
$DIMDLE
 40
0.0
  9
$DIMEXE
 40
2.0
  9
$DIMTP
 40
0.0
  9
$DIMTM
 40
0.0
  9
$DIMTXT
 40
3.2000000000000002
  9
$DIMCEN
 40
0.09
  9
$DIMTSZ
 40
0.0
  9
$DIMTOL
 70
     0
  9
$DIMLIM
 70
     0
  9
$DIMTIH
 70
     0
  9
$DIMTOH
 70
     0
  9
$DIMSE1
 70
     0
  9
$DIMSE2
 70
     0
  9
$DIMTAD
 70
     1
  9
$DIMZIN
 70
     8
  9
$DIMBLK
  1

  9
$DIMASO
 70
     1
  9
$DIMSHO
 70
     0
  9
$DIMPOST
  1

  9
$DIMAPOST
  1

  9
$DIMALT
 70
     0
  9
$DIMALTD
 70
     2
  9
$DIMALTF
 40
25.399999999999999
  9
$DIMLFAC
 40
1.0
  9
$DIMTOFL
 70
     1
  9
$DIMTVP
 40
1.6000000000000001
  9
$DIMTIX
 70
     1
  9
$DIMSOXD
 70
     0
  9
$DIMSAH
 70
     0
  9
$DIMBLK1
  1

  9
$DIMBLK2
  1

  9
$DIMSTYLE
  2
STANDARD
  9
$DIMCLRD
 70
   256
  9
$DIMCLRE
 70
   256
  9
$DIMCLRT
 70
   256
  9
$DIMTFAC
 40
1.0
  9
$DIMGAP
 40
1.0
  9
$LUNITS
 70
     2
  9
$LUPREC
 70
     1
  9
$SKETCHINC
 40
0.1
  9
$FILLETRAD
 40
0.0
  9
$AUNITS
 70
     0
  9
$AUPREC
 70
     0
  9
$MENU
  1
E:\r13\win\SUPPORT\ACAD
  9
$ELEVATION
 40
0.0
  9
$PELEVATION
 40
0.0
  9
$THICKNESS
 40
0.0
  9
$LIMCHECK
 70
     0
  9
$BLIPMODE
 70
     0
  9
$CHAMFERA
 40
0.0
  9
$CHAMFERB
 40
0.0
  9
$SKPOLY
 70
     0
  9
$TDCREATE
 40
2449839.8447916671
  9
$TDUPDATE
 40
2459207.6378475809
  9
$TDINDWG
 40
0.1854632986
  9
$TDUSRTIMER
 40
0.1854632986
  9
$USRTIMER
 70
     1
  9
$ANGBASE
 50
0.0
  9
$ANGDIR
 70
     0
  9
$PDMODE
 70
     0
  9
$PDSIZE
 40
0.0
  9
$PLINEWID
 40
0.0
  9
$COORDS
 70
     1
  9
$SPLFRAME
 70
     0
  9
$SPLINETYPE
 70
     6
  9
$SPLINESEGS
 70
     8
  9
$ATTDIA
 70
     0
  9
$ATTREQ
 70
     1
  9
$HANDLING
 70
     1
  9
$HANDSEED
  5
13D5
  9
$SURFTAB1
 70
     6
  9
$SURFTAB2
 70
     6
  9
$SURFTYPE
 70
     6
  9
$SURFU
 70
     6
  9
$SURFV
 70
     6
  9
$UCSNAME
  2

  9
$UCSORG
 10
0.0
 20
0.0
 30
0.0
  9
$UCSXDIR
 10
1.0
 20
0.0
 30
0.0
  9
$UCSYDIR
 10
0.0
 20
1.0
 30
0.0
  9
$PUCSNAME
  2

  9
$PUCSORG
 10
0.0
 20
0.0
 30
0.0
  9
$PUCSXDIR
 10
1.0
 20
0.0
 30
0.0
  9
$PUCSYDIR
 10
0.0
 20
1.0
 30
0.0
  9
$USERI1
 70
     0
  9
$USERI2
 70
     1
  9
$USERI3
 70
     1
  9
$USERI4
 70
     0
  9
$USERI5
 70
     0
  9
$USERR1
 40
0.0
  9
$USERR2
 40
0.0
  9
$USERR3
 40
0.0
  9
$USERR4
 40
0.0
  9
$USERR5
 40
0.0
  9
$WORLDVIEW
 70
     1
  9
$SHADEDGE
 70
     3
  9
$SHADEDIF
 70
    70
  9
$TILEMODE
 70
     1
  9
$MAXACTVP
 70
    16
  9
$PLIMCHECK
 70
     0
  9
$PEXTMIN
 10
1.0000000000000000E+020
 20
1.0000000000000000E+020
 30
1.0000000000000000E+020
  9
$PEXTMAX
 10
-1.0000000000000000E+020
 20
-1.0000000000000000E+020
 30
-1.0000000000000000E+020
  9
$PLIMMIN
 10
0.0
 20
0.0
  9
$PLIMMAX
 10
12.0
 20
9.0
  9
$UNITMODE
 70
     0
  9
$VISRETAIN
 70
     0
  9
$PLINEGEN
 70
     0
  9
$PSLTSCALE
 70
     0
  0
ENDSEC
  0
SECTION
  2
TABLES
  0
TABLE
  2
VPORT
 70
     1
  0
VPORT
  2
*ACTIVE
 70
     0
 10
0.0
 20
0.0
 11
1.0
 21
1.0
 12
132.35294117647061
 22
50.0
 13
0.0
 23
0.0
 14
10.0
 24
10.0
 15
10.0
 25
10.0
 16
0.0
 26
0.0
 36
1.0
 17
0.0
 27
0.0
 37
0.0
 40
100.0
 41
2.6470588235294108
 42
50.0
 43
0.0
 44
0.0
 50
0.0
 51
0.0
 71
     0
 72
   500
 73
     1
 74
     0
 75
     0
 76
     0
 77
     0
 78
     2
  0
ENDTAB
  0
TABLE
  2
LTYPE
 70
     4
  0
LTYPE
  2
CONTINUOUS
 70
     0
  3
Solid Line
 72
    65
 73
     0
 40
0.0
  0
LTYPE
  2
CENTER
 70
     0
  3
____ _ ____ _ ____ _ ____ _ ____ _ ____ _ ____
 72
    65
 73
     4
 40
2.0
 49
1.25
 49
-0.25
 49
0.25
 49
-0.25
  0
LTYPE
  2
HIDDEN
 70
     0
  3
_ _ _ _ _ _ _ _ _ _ _ _ _ _ _ _ _ _ _ _ _ _ _
 72
    65
 73
     2
 40
0.375
 49
0.25
 49
-0.125
  0
LTYPE
  2
PHANTOM2
 70
     0
  3
___ _ _ ___ _ _ ___ _ _ ___ _ _
 72
    65
 73
     6
 40
1.25
 49
0.625
 49
-0.125
 49
0.125
 49
-0.125
 49
0.125
 49
-0.125
  0
ENDTAB
  0
TABLE
  2
LAYER
 70
     6
  0
LAYER
  2
0
 70
     0
 62
     7
  6
CONTINUOUS
  0
LAYER
  2
1
 70
     0
 62
     1
  6
CENTER
  0
LAYER
  2
2
 70
     0
 62
     2
  6
HIDDEN
  0
LAYER
  2
DEFPOINTS
 70
     0
 62
     7
  6
CONTINUOUS
  0
LAYER
  2
4
 70
     0
 62
     4
  6
CONTINUOUS
  0
LAYER
  2
3
 70
     0
 62
     3
  6
CONTINUOUS
  0
ENDTAB
  0
TABLE
  2
STYLE
 70
     2
  0
STYLE
  2
STANDARD
 70
     0
 40
0.0
 41
1.0
 50
0.0
 71
     0
 42
0.2
  3
TXT
  4
BIGFONT
  0
STYLE
  2
STANDARD1
 70
     0
 40
0.0
 41
1.0
 50
0.0
 71
     0
 42
3.0
  3
txt
  4

  0
ENDTAB
  0
TABLE
  2
VIEW
 70
     1
  0
VIEW
  2
ALL
 70
     0
 40
270.0
 10
220.99159663865549
 20
135.0
 41
0.0
 11
0.0
 21
0.0
 31
1.0
 12
0.0
 22
0.0
 32
0.0
 42
0.0
 43
0.0
 44
0.0
 50
0.0
 71
     0
  0
ENDTAB
  0
TABLE
  2
UCS
 70
     0
  0
ENDTAB
  0
TABLE
  2
APPID
 70
     9
  0
APPID
  2
ACAD
 70
     0
  0
APPID
  2
ACAD_MLEADERVER
 70
     0
  0
APPID
  2
ACAD_NAV_VCDISPLAY
 70
     0
  0
APPID
  2
ACAD_EXEMPT_FROM_CAD_STANDARDS
 70
     0
  0
APPID
  2
ACAD_DSTYLE_DIMJAG
 70
     0
  0
APPID
  2
ACAD_DSTYLE_DIMTALN
 70
     0
  0
APPID
  2
ACAECLAYERSTANDARD
 70
     0
  0
APPID
  2
ACCMTRANSPARENCY
 70
     0
  0
APPID
  2
DCO15
 70
     0
  0
ENDTAB
  0
TABLE
  2
DIMSTYLE
 70
     1
  0
DIMSTYLE
  2
STANDARD
 70
     0
  3

  4

  5

  6

  7

 40
1.0
 41
0.18
 42
0.0625
 43
0.38
 44
0.18
 45
0.0
 46
0.0
 47
0.0
 48
0.0
140
0.18
141
0.09
142
0.0
143
25.399999999999999
144
1.0
145
0.0
146
1.0
147
0.09
 71
     0
 72
     0
 73
     1
 74
     1
 75
     0
 76
     0
 77
     0
 78
     0
170
     0
171
     2
172
     0
173
     0
174
     0
175
     0
176
     0
177
     0
178
     0
  0
ENDTAB
  0
ENDSEC
  0
SECTION
  2
BLOCKS
  0
BLOCK
  8
0
  2
$MODEL_SPACE
 70
     0
 10
0.0
 20
0.0
 30
0.0
  3
$MODEL_SPACE
  1

  0
ENDBLK
  5
10E
  8
0
  0
BLOCK
 67
     1
  8
0
  2
$PAPER_SPACE
 70
     0
 10
0.0
 20
0.0
 30
0.0
  3
$PAPER_SPACE
  1

  0
ENDBLK
  5
10C
 67
     1
  8
0
  0
ENDSEC
  0
SECTION
  2
ENTITIES
  0
TEXT
  5
4DC
  8
0
 62
     3
 10
0.0
 20
0.0
 30
0.0
 40
5.0
  1
HD-HBNS04X8
  7
STANDARD1
  0
LINE
  5
1020
  8
0
 10
59.199999999999989
 20
57.64999999999997
 30
0.0
 11
61.599999999999959
 21
57.64999999999997
 31
0.0
  0
LINE
  5
1021
  8
0
 10
61.599999999999959
 20
60.75
 30
0.0
 11
59.199999999999989
 21
60.75
 31
0.0
  0
LINE
  5
1022
  8
0
 10
61.599999999999959
 20
57.64999999999997
 30
0.0
 11
62.049999999999983
 21
57.199999999999982
 31
0.0
  0
LINE
  5
1023
  8
0
 10
62.049999999999983
 20
61.199999999999989
 30
0.0
 11
61.599999999999959
 21
60.75
 31
0.0
  0
LINE
  5
1024
  8
0
 10
61.599999999999959
 20
60.75
 30
0.0
 11
61.599999999999959
 21
57.64999999999997
 31
0.0
  0
LINE
  5
1025
  8
0
 10
66.599999999999966
 20
60.770499999999991
 30
0.0
 11
66.170499999999976
 21
61.199999999999989
 31
0.0
  0
LINE
  5
1026
  8
0
 10
66.170499999999976
 20
57.199999999999982
 30
0.0
 11
66.599999999999966
 21
57.629499999999979
 31
0.0
  0
LINE
  5
1027
  8
0
 10
66.599999999999966
 20
60.770499999999991
 30
0.0
 11
66.599999999999966
 21
57.629499999999979
 31
0.0
  0
LINE
  5
1028
  8
0
 10
62.049999999999983
 20
57.199999999999982
 30
0.0
 11
66.170499999999976
 21
57.199999999999982
 31
0.0
  0
LINE
  5
1029
  8
0
 10
66.170499999999976
 20
61.199999999999989
 30
0.0
 11
62.049999999999983
 21
61.199999999999989
 31
0.0
  0
LINE
  5
102A
  8
0
 10
66.170499999999976
 20
61.199999999999989
 30
0.0
 11
66.170499999999976
 21
57.199999999999982
 31
0.0
  0
LINE
  5
102B
  8
0
 10
62.049999999999983
 20
61.199999999999989
 30
0.0
 11
62.049999999999983
 21
57.199999999999982
 31
0.0
  0
ARC
  5
102C
  8
0
 10
59.199999999999989
 20
57.049999999999983
 30
0.0
 40
0.5999999999999992
 50
90.0
 51
180.0
  0
ARC
  5
102D
  8
0
 10
59.199999999999989
 20
61.349999999999987
 30
0.0
 40
0.5999999999999992
 50
180.0
 51
270.0
  0
LINE
  5
102F
  8
0
 10
57.599999999999973
 20
62.699999999999989
 30
0.0
 11
54.987505004003992
 21
62.699999999999989
 31
0.0
  0
ARC
  5
1030
  8
0
 10
70.599999999999909
 20
59.199999999999989
 30
0.0
 40
15.99999999999994
 50
167.3643749069787
 51
192.63562509302119
  0
LINE
  5
1031
  8
0
 10
54.987505004003992
 20
55.699999999999989
 30
0.0
 11
57.599999999999973
 21
55.699999999999989
 31
0.0
  0
POLYLINE
  5
1032
  8
0
 10
55.118828640355829
 20
59.200000000000017
 30
0.0
 66
     1
 70
     8
  0
VERTEX
  8
0
  5
11CD
 10
55.1188
 20
59.2000
 30
0.000000
  70
    32
  0
VERTEX
  8
0
  5
11CE
 10
55.1148
 20
59.1728
 30
0.000000
  70
    32
  0
VERTEX
  8
0
  5
11CF
 10
55.1108
 20
59.1456
 30
0.000000
  70
    32
  0
VERTEX
  8
0
  5
11D0
 10
55.1068
 20
59.1184
 30
0.000000
  70
    32
  0
VERTEX
  8
0
  5
11D1
 10
55.1029
 20
59.0912
 30
0.000000
  70
    32
  0
VERTEX
  8
0
  5
11D2
 10
55.0991
 20
59.0640
 30
0.000000
  70
    32
  0
VERTEX
  8
0
  5
11D3
 10
55.0954
 20
59.0367
 30
0.000000
  70
    32
  0
VERTEX
  8
0
  5
11D4
 10
55.0917
 20
59.0095
 30
0.000000
  70
    32
  0
VERTEX
  8
0
  5
11D5
 10
55.0881
 20
58.9823
 30
0.000000
  70
    32
  0
VERTEX
  8
0
  5
11D6
 10
55.0845
 20
58.9550
 30
0.000000
  70
    32
  0
VERTEX
  8
0
  5
11D7
 10
55.0810
 20
58.9278
 30
0.000000
  70
    32
  0
VERTEX
  8
0
  5
11D8
 10
55.0776
 20
58.9005
 30
0.000000
  70
    32
  0
VERTEX
  8
0
  5
11D9
 10
55.0742
 20
58.8732
 30
0.000000
  70
    32
  0
VERTEX
  8
0
  5
11DA
 10
55.0709
 20
58.8460
 30
0.000000
  70
    32
  0
VERTEX
  8
0
  5
11DB
 10
55.0677
 20
58.8187
 30
0.000000
  70
    32
  0
VERTEX
  8
0
  5
11DC
 10
55.0645
 20
58.7914
 30
0.000000
  70
    32
  0
VERTEX
  8
0
  5
11DD
 10
55.0614
 20
58.7641
 30
0.000000
  70
    32
  0
VERTEX
  8
0
  5
11DE
 10
55.0584
 20
58.7368
 30
0.000000
  70
    32
  0
VERTEX
  8
0
  5
11DF
 10
55.0554
 20
58.7095
 30
0.000000
  70
    32
  0
VERTEX
  8
0
  5
11E0
 10
55.0525
 20
58.6822
 30
0.000000
  70
    32
  0
VERTEX
  8
0
  5
11E1
 10
55.0496
 20
58.6549
 30
0.000000
  70
    32
  0
VERTEX
  8
0
  5
11E2
 10
55.0468
 20
58.6276
 30
0.000000
  70
    32
  0
VERTEX
  8
0
  5
11E3
 10
55.0441
 20
58.6003
 30
0.000000
  70
    32
  0
VERTEX
  8
0
  5
11E4
 10
55.0414
 20
58.5730
 30
0.000000
  70
    32
  0
VERTEX
  8
0
  5
11E5
 10
55.0388
 20
58.5456
 30
0.000000
  70
    32
  0
VERTEX
  8
0
  5
11E6
 10
55.0363
 20
58.5183
 30
0.000000
  70
    32
  0
VERTEX
  8
0
  5
11E7
 10
55.0338
 20
58.4910
 30
0.000000
  70
    32
  0
VERTEX
  8
0
  5
11E8
 10
55.0314
 20
58.4636
 30
0.000000
  70
    32
  0
VERTEX
  8
0
  5
11E9
 10
55.0291
 20
58.4363
 30
0.000000
  70
    32
  0
VERTEX
  8
0
  5
11EA
 10
55.0268
 20
58.4089
 30
0.000000
  70
    32
  0
VERTEX
  8
0
  5
11EB
 10
55.0246
 20
58.3816
 30
0.000000
  70
    32
  0
VERTEX
  8
0
  5
11EC
 10
55.0225
 20
58.3542
 30
0.000000
  70
    32
  0
VERTEX
  8
0
  5
11ED
 10
55.0204
 20
58.3268
 30
0.000000
  70
    32
  0
VERTEX
  8
0
  5
11EE
 10
55.0183
 20
58.2995
 30
0.000000
  70
    32
  0
VERTEX
  8
0
  5
11EF
 10
55.0164
 20
58.2721
 30
0.000000
  70
    32
  0
VERTEX
  8
0
  5
11F0
 10
55.0145
 20
58.2447
 30
0.000000
  70
    32
  0
VERTEX
  8
0
  5
11F1
 10
55.0127
 20
58.2174
 30
0.000000
  70
    32
  0
VERTEX
  8
0
  5
11F2
 10
55.0109
 20
58.1900
 30
0.000000
  70
    32
  0
VERTEX
  8
0
  5
11F3
 10
55.0092
 20
58.1626
 30
0.000000
  70
    32
  0
VERTEX
  8
0
  5
11F4
 10
55.0076
 20
58.1352
 30
0.000000
  70
    32
  0
VERTEX
  8
0
  5
11F5
 10
55.0060
 20
58.1078
 30
0.000000
  70
    32
  0
VERTEX
  8
0
  5
11F6
 10
55.0045
 20
58.0804
 30
0.000000
  70
    32
  0
VERTEX
  8
0
  5
11F7
 10
55.0030
 20
58.0531
 30
0.000000
  70
    32
  0
VERTEX
  8
0
  5
11F8
 10
55.0017
 20
58.0257
 30
0.000000
  70
    32
  0
VERTEX
  8
0
  5
11F9
 10
55.0003
 20
57.9983
 30
0.000000
  70
    32
  0
VERTEX
  8
0
  5
11FA
 10
54.9991
 20
57.9709
 30
0.000000
  70
    32
  0
VERTEX
  8
0
  5
11FB
 10
54.9979
 20
57.9435
 30
0.000000
  70
    32
  0
VERTEX
  8
0
  5
11FC
 10
54.9968
 20
57.9161
 30
0.000000
  70
    32
  0
VERTEX
  8
0
  5
11FD
 10
54.9957
 20
57.8887
 30
0.000000
  70
    32
  0
VERTEX
  8
0
  5
11FE
 10
54.9947
 20
57.8612
 30
0.000000
  70
    32
  0
VERTEX
  8
0
  5
11FF
 10
54.9938
 20
57.8338
 30
0.000000
  70
    32
  0
VERTEX
  8
0
  5
1200
 10
54.9929
 20
57.8064
 30
0.000000
  70
    32
  0
VERTEX
  8
0
  5
1201
 10
54.9921
 20
57.7790
 30
0.000000
  70
    32
  0
VERTEX
  8
0
  5
1202
 10
54.9914
 20
57.7516
 30
0.000000
  70
    32
  0
VERTEX
  8
0
  5
1203
 10
54.9907
 20
57.7242
 30
0.000000
  70
    32
  0
VERTEX
  8
0
  5
1204
 10
54.9901
 20
57.6968
 30
0.000000
  70
    32
  0
VERTEX
  8
0
  5
1205
 10
54.9896
 20
57.6694
 30
0.000000
  70
    32
  0
VERTEX
  8
0
  5
1206
 10
54.9891
 20
57.6419
 30
0.000000
  70
    32
  0
VERTEX
  8
0
  5
1207
 10
54.9887
 20
57.6145
 30
0.000000
  70
    32
  0
VERTEX
  8
0
  5
1208
 10
54.9883
 20
57.5871
 30
0.000000
  70
    32
  0
VERTEX
  8
0
  5
1209
 10
54.9880
 20
57.5597
 30
0.000000
  70
    32
  0
VERTEX
  8
0
  5
120A
 10
54.9878
 20
57.5323
 30
0.000000
  70
    32
  0
VERTEX
  8
0
  5
120B
 10
54.9876
 20
57.5048
 30
0.000000
  70
    32
  0
VERTEX
  8
0
  5
120C
 10
54.9875
 20
57.4774
 30
0.000000
  70
    32
  0
VERTEX
  8
0
  5
120D
 10
54.9875
 20
57.4500
 30
0.000000
  70
    32
  0
VERTEX
  8
0
  5
120E
 10
54.9875
 20
57.4226
 30
0.000000
  70
    32
  0
VERTEX
  8
0
  5
120F
 10
54.9876
 20
57.3952
 30
0.000000
  70
    32
  0
VERTEX
  8
0
  5
1210
 10
54.9878
 20
57.3677
 30
0.000000
  70
    32
  0
VERTEX
  8
0
  5
1211
 10
54.9880
 20
57.3403
 30
0.000000
  70
    32
  0
VERTEX
  8
0
  5
1212
 10
54.9883
 20
57.3129
 30
0.000000
  70
    32
  0
VERTEX
  8
0
  5
1213
 10
54.9887
 20
57.2855
 30
0.000000
  70
    32
  0
VERTEX
  8
0
  5
1214
 10
54.9891
 20
57.2581
 30
0.000000
  70
    32
  0
VERTEX
  8
0
  5
1215
 10
54.9896
 20
57.2306
 30
0.000000
  70
    32
  0
VERTEX
  8
0
  5
1216
 10
54.9901
 20
57.2032
 30
0.000000
  70
    32
  0
VERTEX
  8
0
  5
1217
 10
54.9907
 20
57.1758
 30
0.000000
  70
    32
  0
VERTEX
  8
0
  5
1218
 10
54.9914
 20
57.1484
 30
0.000000
  70
    32
  0
VERTEX
  8
0
  5
1219
 10
54.9921
 20
57.1210
 30
0.000000
  70
    32
  0
VERTEX
  8
0
  5
121A
 10
54.9929
 20
57.0936
 30
0.000000
  70
    32
  0
VERTEX
  8
0
  5
121B
 10
54.9938
 20
57.0662
 30
0.000000
  70
    32
  0
VERTEX
  8
0
  5
121C
 10
54.9947
 20
57.0388
 30
0.000000
  70
    32
  0
VERTEX
  8
0
  5
121D
 10
54.9957
 20
57.0113
 30
0.000000
  70
    32
  0
VERTEX
  8
0
  5
121E
 10
54.9968
 20
56.9839
 30
0.000000
  70
    32
  0
VERTEX
  8
0
  5
121F
 10
54.9979
 20
56.9565
 30
0.000000
  70
    32
  0
VERTEX
  8
0
  5
1220
 10
54.9991
 20
56.9291
 30
0.000000
  70
    32
  0
VERTEX
  8
0
  5
1221
 10
55.0003
 20
56.9017
 30
0.000000
  70
    32
  0
VERTEX
  8
0
  5
1222
 10
55.0017
 20
56.8743
 30
0.000000
  70
    32
  0
VERTEX
  8
0
  5
1223
 10
55.0030
 20
56.8469
 30
0.000000
  70
    32
  0
VERTEX
  8
0
  5
1224
 10
55.0045
 20
56.8196
 30
0.000000
  70
    32
  0
VERTEX
  8
0
  5
1225
 10
55.0060
 20
56.7922
 30
0.000000
  70
    32
  0
VERTEX
  8
0
  5
1226
 10
55.0076
 20
56.7648
 30
0.000000
  70
    32
  0
VERTEX
  8
0
  5
1227
 10
55.0092
 20
56.7374
 30
0.000000
  70
    32
  0
VERTEX
  8
0
  5
1228
 10
55.0109
 20
56.7100
 30
0.000000
  70
    32
  0
VERTEX
  8
0
  5
1229
 10
55.0127
 20
56.6826
 30
0.000000
  70
    32
  0
VERTEX
  8
0
  5
122A
 10
55.0145
 20
56.6553
 30
0.000000
  70
    32
  0
VERTEX
  8
0
  5
122B
 10
55.0164
 20
56.6279
 30
0.000000
  70
    32
  0
VERTEX
  8
0
  5
122C
 10
55.0183
 20
56.6005
 30
0.000000
  70
    32
  0
VERTEX
  8
0
  5
122D
 10
55.0204
 20
56.5732
 30
0.000000
  70
    32
  0
VERTEX
  8
0
  5
122E
 10
55.0225
 20
56.5458
 30
0.000000
  70
    32
  0
VERTEX
  8
0
  5
122F
 10
55.0246
 20
56.5184
 30
0.000000
  70
    32
  0
VERTEX
  8
0
  5
1230
 10
55.0268
 20
56.4911
 30
0.000000
  70
    32
  0
VERTEX
  8
0
  5
1231
 10
55.0291
 20
56.4637
 30
0.000000
  70
    32
  0
VERTEX
  8
0
  5
1232
 10
55.0314
 20
56.4364
 30
0.000000
  70
    32
  0
VERTEX
  8
0
  5
1233
 10
55.0338
 20
56.4090
 30
0.000000
  70
    32
  0
VERTEX
  8
0
  5
1234
 10
55.0363
 20
56.3817
 30
0.000000
  70
    32
  0
VERTEX
  8
0
  5
1235
 10
55.0388
 20
56.3544
 30
0.000000
  70
    32
  0
VERTEX
  8
0
  5
1236
 10
55.0414
 20
56.3270
 30
0.000000
  70
    32
  0
VERTEX
  8
0
  5
1237
 10
55.0441
 20
56.2997
 30
0.000000
  70
    32
  0
VERTEX
  8
0
  5
1238
 10
55.0468
 20
56.2724
 30
0.000000
  70
    32
  0
VERTEX
  8
0
  5
1239
 10
55.0496
 20
56.2451
 30
0.000000
  70
    32
  0
VERTEX
  8
0
  5
123A
 10
55.0525
 20
56.2178
 30
0.000000
  70
    32
  0
VERTEX
  8
0
  5
123B
 10
55.0554
 20
56.1905
 30
0.000000
  70
    32
  0
VERTEX
  8
0
  5
123C
 10
55.0584
 20
56.1632
 30
0.000000
  70
    32
  0
VERTEX
  8
0
  5
123D
 10
55.0614
 20
56.1359
 30
0.000000
  70
    32
  0
VERTEX
  8
0
  5
123E
 10
55.0645
 20
56.1086
 30
0.000000
  70
    32
  0
VERTEX
  8
0
  5
123F
 10
55.0677
 20
56.0813
 30
0.000000
  70
    32
  0
VERTEX
  8
0
  5
1240
 10
55.0709
 20
56.0540
 30
0.000000
  70
    32
  0
VERTEX
  8
0
  5
1241
 10
55.0742
 20
56.0268
 30
0.000000
  70
    32
  0
VERTEX
  8
0
  5
1242
 10
55.0776
 20
55.9995
 30
0.000000
  70
    32
  0
VERTEX
  8
0
  5
1243
 10
55.0810
 20
55.9722
 30
0.000000
  70
    32
  0
VERTEX
  8
0
  5
1244
 10
55.0845
 20
55.9450
 30
0.000000
  70
    32
  0
VERTEX
  8
0
  5
1245
 10
55.0881
 20
55.9177
 30
0.000000
  70
    32
  0
VERTEX
  8
0
  5
1246
 10
55.0917
 20
55.8905
 30
0.000000
  70
    32
  0
VERTEX
  8
0
  5
1247
 10
55.0954
 20
55.8633
 30
0.000000
  70
    32
  0
VERTEX
  8
0
  5
1248
 10
55.0991
 20
55.8360
 30
0.000000
  70
    32
  0
VERTEX
  8
0
  5
1249
 10
55.1029
 20
55.8088
 30
0.000000
  70
    32
  0
VERTEX
  8
0
  5
124A
 10
55.1068
 20
55.7816
 30
0.000000
  70
    32
  0
VERTEX
  8
0
  5
124B
 10
55.1108
 20
55.7544
 30
0.000000
  70
    32
  0
VERTEX
  8
0
  5
124C
 10
55.1148
 20
55.7272
 30
0.000000
  70
    32
  0
VERTEX
  8
0
  5
124D
 10
55.1188
 20
55.7000
 30
0.000000
  70
    32
  0
SEQEND
  8
0
  5
124E
  0
LINE
  5
1033
  8
0
 10
57.599999999999973
 20
59.199999999999989
 30
0.0
 11
55.118828640355808
 21
59.199999999999989
 31
0.0
  0
POLYLINE
  5
1034
  8
0
 10
55.118828640355815
 20
62.699999999999989
 30
0.0
 66
     1
 70
     8
  0
VERTEX
  8
0
  5
124F
 10
55.1188
 20
62.7000
 30
0.000000
  70
    32
  0
VERTEX
  8
0
  5
1250
 10
55.1148
 20
62.6728
 30
0.000000
  70
    32
  0
VERTEX
  8
0
  5
1251
 10
55.1108
 20
62.6456
 30
0.000000
  70
    32
  0
VERTEX
  8
0
  5
1252
 10
55.1068
 20
62.6184
 30
0.000000
  70
    32
  0
VERTEX
  8
0
  5
1253
 10
55.1029
 20
62.5912
 30
0.000000
  70
    32
  0
VERTEX
  8
0
  5
1254
 10
55.0991
 20
62.5640
 30
0.000000
  70
    32
  0
VERTEX
  8
0
  5
1255
 10
55.0954
 20
62.5367
 30
0.000000
  70
    32
  0
VERTEX
  8
0
  5
1256
 10
55.0917
 20
62.5095
 30
0.000000
  70
    32
  0
VERTEX
  8
0
  5
1257
 10
55.0881
 20
62.4823
 30
0.000000
  70
    32
  0
VERTEX
  8
0
  5
1258
 10
55.0845
 20
62.4550
 30
0.000000
  70
    32
  0
VERTEX
  8
0
  5
1259
 10
55.0810
 20
62.4278
 30
0.000000
  70
    32
  0
VERTEX
  8
0
  5
125A
 10
55.0776
 20
62.4005
 30
0.000000
  70
    32
  0
VERTEX
  8
0
  5
125B
 10
55.0742
 20
62.3732
 30
0.000000
  70
    32
  0
VERTEX
  8
0
  5
125C
 10
55.0709
 20
62.3460
 30
0.000000
  70
    32
  0
VERTEX
  8
0
  5
125D
 10
55.0677
 20
62.3187
 30
0.000000
  70
    32
  0
VERTEX
  8
0
  5
125E
 10
55.0645
 20
62.2914
 30
0.000000
  70
    32
  0
VERTEX
  8
0
  5
125F
 10
55.0614
 20
62.2641
 30
0.000000
  70
    32
  0
VERTEX
  8
0
  5
1260
 10
55.0584
 20
62.2368
 30
0.000000
  70
    32
  0
VERTEX
  8
0
  5
1261
 10
55.0554
 20
62.2095
 30
0.000000
  70
    32
  0
VERTEX
  8
0
  5
1262
 10
55.0525
 20
62.1822
 30
0.000000
  70
    32
  0
VERTEX
  8
0
  5
1263
 10
55.0496
 20
62.1549
 30
0.000000
  70
    32
  0
VERTEX
  8
0
  5
1264
 10
55.0468
 20
62.1276
 30
0.000000
  70
    32
  0
VERTEX
  8
0
  5
1265
 10
55.0441
 20
62.1003
 30
0.000000
  70
    32
  0
VERTEX
  8
0
  5
1266
 10
55.0414
 20
62.0730
 30
0.000000
  70
    32
  0
VERTEX
  8
0
  5
1267
 10
55.0388
 20
62.0456
 30
0.000000
  70
    32
  0
VERTEX
  8
0
  5
1268
 10
55.0363
 20
62.0183
 30
0.000000
  70
    32
  0
VERTEX
  8
0
  5
1269
 10
55.0338
 20
61.9910
 30
0.000000
  70
    32
  0
VERTEX
  8
0
  5
126A
 10
55.0314
 20
61.9636
 30
0.000000
  70
    32
  0
VERTEX
  8
0
  5
126B
 10
55.0291
 20
61.9363
 30
0.000000
  70
    32
  0
VERTEX
  8
0
  5
126C
 10
55.0268
 20
61.9089
 30
0.000000
  70
    32
  0
VERTEX
  8
0
  5
126D
 10
55.0246
 20
61.8816
 30
0.000000
  70
    32
  0
VERTEX
  8
0
  5
126E
 10
55.0225
 20
61.8542
 30
0.000000
  70
    32
  0
VERTEX
  8
0
  5
126F
 10
55.0204
 20
61.8268
 30
0.000000
  70
    32
  0
VERTEX
  8
0
  5
1270
 10
55.0183
 20
61.7995
 30
0.000000
  70
    32
  0
VERTEX
  8
0
  5
1271
 10
55.0164
 20
61.7721
 30
0.000000
  70
    32
  0
VERTEX
  8
0
  5
1272
 10
55.0145
 20
61.7447
 30
0.000000
  70
    32
  0
VERTEX
  8
0
  5
1273
 10
55.0127
 20
61.7174
 30
0.000000
  70
    32
  0
VERTEX
  8
0
  5
1274
 10
55.0109
 20
61.6900
 30
0.000000
  70
    32
  0
VERTEX
  8
0
  5
1275
 10
55.0092
 20
61.6626
 30
0.000000
  70
    32
  0
VERTEX
  8
0
  5
1276
 10
55.0076
 20
61.6352
 30
0.000000
  70
    32
  0
VERTEX
  8
0
  5
1277
 10
55.0060
 20
61.6078
 30
0.000000
  70
    32
  0
VERTEX
  8
0
  5
1278
 10
55.0045
 20
61.5804
 30
0.000000
  70
    32
  0
VERTEX
  8
0
  5
1279
 10
55.0030
 20
61.5531
 30
0.000000
  70
    32
  0
VERTEX
  8
0
  5
127A
 10
55.0017
 20
61.5257
 30
0.000000
  70
    32
  0
VERTEX
  8
0
  5
127B
 10
55.0003
 20
61.4983
 30
0.000000
  70
    32
  0
VERTEX
  8
0
  5
127C
 10
54.9991
 20
61.4709
 30
0.000000
  70
    32
  0
VERTEX
  8
0
  5
127D
 10
54.9979
 20
61.4435
 30
0.000000
  70
    32
  0
VERTEX
  8
0
  5
127E
 10
54.9968
 20
61.4161
 30
0.000000
  70
    32
  0
VERTEX
  8
0
  5
127F
 10
54.9957
 20
61.3887
 30
0.000000
  70
    32
  0
VERTEX
  8
0
  5
1280
 10
54.9947
 20
61.3612
 30
0.000000
  70
    32
  0
VERTEX
  8
0
  5
1281
 10
54.9938
 20
61.3338
 30
0.000000
  70
    32
  0
VERTEX
  8
0
  5
1282
 10
54.9929
 20
61.3064
 30
0.000000
  70
    32
  0
VERTEX
  8
0
  5
1283
 10
54.9921
 20
61.2790
 30
0.000000
  70
    32
  0
VERTEX
  8
0
  5
1284
 10
54.9914
 20
61.2516
 30
0.000000
  70
    32
  0
VERTEX
  8
0
  5
1285
 10
54.9907
 20
61.2242
 30
0.000000
  70
    32
  0
VERTEX
  8
0
  5
1286
 10
54.9901
 20
61.1968
 30
0.000000
  70
    32
  0
VERTEX
  8
0
  5
1287
 10
54.9896
 20
61.1694
 30
0.000000
  70
    32
  0
VERTEX
  8
0
  5
1288
 10
54.9891
 20
61.1419
 30
0.000000
  70
    32
  0
VERTEX
  8
0
  5
1289
 10
54.9887
 20
61.1145
 30
0.000000
  70
    32
  0
VERTEX
  8
0
  5
128A
 10
54.9883
 20
61.0871
 30
0.000000
  70
    32
  0
VERTEX
  8
0
  5
128B
 10
54.9880
 20
61.0597
 30
0.000000
  70
    32
  0
VERTEX
  8
0
  5
128C
 10
54.9878
 20
61.0323
 30
0.000000
  70
    32
  0
VERTEX
  8
0
  5
128D
 10
54.9876
 20
61.0048
 30
0.000000
  70
    32
  0
VERTEX
  8
0
  5
128E
 10
54.9875
 20
60.9774
 30
0.000000
  70
    32
  0
VERTEX
  8
0
  5
128F
 10
54.9875
 20
60.9500
 30
0.000000
  70
    32
  0
VERTEX
  8
0
  5
1290
 10
54.9875
 20
60.9226
 30
0.000000
  70
    32
  0
VERTEX
  8
0
  5
1291
 10
54.9876
 20
60.8952
 30
0.000000
  70
    32
  0
VERTEX
  8
0
  5
1292
 10
54.9878
 20
60.8677
 30
0.000000
  70
    32
  0
VERTEX
  8
0
  5
1293
 10
54.9880
 20
60.8403
 30
0.000000
  70
    32
  0
VERTEX
  8
0
  5
1294
 10
54.9883
 20
60.8129
 30
0.000000
  70
    32
  0
VERTEX
  8
0
  5
1295
 10
54.9887
 20
60.7855
 30
0.000000
  70
    32
  0
VERTEX
  8
0
  5
1296
 10
54.9891
 20
60.7581
 30
0.000000
  70
    32
  0
VERTEX
  8
0
  5
1297
 10
54.9896
 20
60.7306
 30
0.000000
  70
    32
  0
VERTEX
  8
0
  5
1298
 10
54.9901
 20
60.7032
 30
0.000000
  70
    32
  0
VERTEX
  8
0
  5
1299
 10
54.9907
 20
60.6758
 30
0.000000
  70
    32
  0
VERTEX
  8
0
  5
129A
 10
54.9914
 20
60.6484
 30
0.000000
  70
    32
  0
VERTEX
  8
0
  5
129B
 10
54.9921
 20
60.6210
 30
0.000000
  70
    32
  0
VERTEX
  8
0
  5
129C
 10
54.9929
 20
60.5936
 30
0.000000
  70
    32
  0
VERTEX
  8
0
  5
129D
 10
54.9938
 20
60.5662
 30
0.000000
  70
    32
  0
VERTEX
  8
0
  5
129E
 10
54.9947
 20
60.5388
 30
0.000000
  70
    32
  0
VERTEX
  8
0
  5
129F
 10
54.9957
 20
60.5113
 30
0.000000
  70
    32
  0
VERTEX
  8
0
  5
12A0
 10
54.9968
 20
60.4839
 30
0.000000
  70
    32
  0
VERTEX
  8
0
  5
12A1
 10
54.9979
 20
60.4565
 30
0.000000
  70
    32
  0
VERTEX
  8
0
  5
12A2
 10
54.9991
 20
60.4291
 30
0.000000
  70
    32
  0
VERTEX
  8
0
  5
12A3
 10
55.0003
 20
60.4017
 30
0.000000
  70
    32
  0
VERTEX
  8
0
  5
12A4
 10
55.0017
 20
60.3743
 30
0.000000
  70
    32
  0
VERTEX
  8
0
  5
12A5
 10
55.0030
 20
60.3469
 30
0.000000
  70
    32
  0
VERTEX
  8
0
  5
12A6
 10
55.0045
 20
60.3196
 30
0.000000
  70
    32
  0
VERTEX
  8
0
  5
12A7
 10
55.0060
 20
60.2922
 30
0.000000
  70
    32
  0
VERTEX
  8
0
  5
12A8
 10
55.0076
 20
60.2648
 30
0.000000
  70
    32
  0
VERTEX
  8
0
  5
12A9
 10
55.0092
 20
60.2374
 30
0.000000
  70
    32
  0
VERTEX
  8
0
  5
12AA
 10
55.0109
 20
60.2100
 30
0.000000
  70
    32
  0
VERTEX
  8
0
  5
12AB
 10
55.0127
 20
60.1826
 30
0.000000
  70
    32
  0
VERTEX
  8
0
  5
12AC
 10
55.0145
 20
60.1553
 30
0.000000
  70
    32
  0
VERTEX
  8
0
  5
12AD
 10
55.0164
 20
60.1279
 30
0.000000
  70
    32
  0
VERTEX
  8
0
  5
12AE
 10
55.0183
 20
60.1005
 30
0.000000
  70
    32
  0
VERTEX
  8
0
  5
12AF
 10
55.0204
 20
60.0732
 30
0.000000
  70
    32
  0
VERTEX
  8
0
  5
12B0
 10
55.0225
 20
60.0458
 30
0.000000
  70
    32
  0
VERTEX
  8
0
  5
12B1
 10
55.0246
 20
60.0184
 30
0.000000
  70
    32
  0
VERTEX
  8
0
  5
12B2
 10
55.0268
 20
59.9911
 30
0.000000
  70
    32
  0
VERTEX
  8
0
  5
12B3
 10
55.0291
 20
59.9637
 30
0.000000
  70
    32
  0
VERTEX
  8
0
  5
12B4
 10
55.0314
 20
59.9364
 30
0.000000
  70
    32
  0
VERTEX
  8
0
  5
12B5
 10
55.0338
 20
59.9090
 30
0.000000
  70
    32
  0
VERTEX
  8
0
  5
12B6
 10
55.0363
 20
59.8817
 30
0.000000
  70
    32
  0
VERTEX
  8
0
  5
12B7
 10
55.0388
 20
59.8544
 30
0.000000
  70
    32
  0
VERTEX
  8
0
  5
12B8
 10
55.0414
 20
59.8270
 30
0.000000
  70
    32
  0
VERTEX
  8
0
  5
12B9
 10
55.0441
 20
59.7997
 30
0.000000
  70
    32
  0
VERTEX
  8
0
  5
12BA
 10
55.0468
 20
59.7724
 30
0.000000
  70
    32
  0
VERTEX
  8
0
  5
12BB
 10
55.0496
 20
59.7451
 30
0.000000
  70
    32
  0
VERTEX
  8
0
  5
12BC
 10
55.0525
 20
59.7178
 30
0.000000
  70
    32
  0
VERTEX
  8
0
  5
12BD
 10
55.0554
 20
59.6905
 30
0.000000
  70
    32
  0
VERTEX
  8
0
  5
12BE
 10
55.0584
 20
59.6632
 30
0.000000
  70
    32
  0
VERTEX
  8
0
  5
12BF
 10
55.0614
 20
59.6359
 30
0.000000
  70
    32
  0
VERTEX
  8
0
  5
12C0
 10
55.0645
 20
59.6086
 30
0.000000
  70
    32
  0
VERTEX
  8
0
  5
12C1
 10
55.0677
 20
59.5813
 30
0.000000
  70
    32
  0
VERTEX
  8
0
  5
12C2
 10
55.0709
 20
59.5540
 30
0.000000
  70
    32
  0
VERTEX
  8
0
  5
12C3
 10
55.0742
 20
59.5268
 30
0.000000
  70
    32
  0
VERTEX
  8
0
  5
12C4
 10
55.0776
 20
59.4995
 30
0.000000
  70
    32
  0
VERTEX
  8
0
  5
12C5
 10
55.0810
 20
59.4722
 30
0.000000
  70
    32
  0
VERTEX
  8
0
  5
12C6
 10
55.0845
 20
59.4450
 30
0.000000
  70
    32
  0
VERTEX
  8
0
  5
12C7
 10
55.0881
 20
59.4177
 30
0.000000
  70
    32
  0
VERTEX
  8
0
  5
12C8
 10
55.0917
 20
59.3905
 30
0.000000
  70
    32
  0
VERTEX
  8
0
  5
12C9
 10
55.0954
 20
59.3633
 30
0.000000
  70
    32
  0
VERTEX
  8
0
  5
12CA
 10
55.0991
 20
59.3360
 30
0.000000
  70
    32
  0
VERTEX
  8
0
  5
12CB
 10
55.1029
 20
59.3088
 30
0.000000
  70
    32
  0
VERTEX
  8
0
  5
12CC
 10
55.1068
 20
59.2816
 30
0.000000
  70
    32
  0
VERTEX
  8
0
  5
12CD
 10
55.1108
 20
59.2544
 30
0.000000
  70
    32
  0
VERTEX
  8
0
  5
12CE
 10
55.1148
 20
59.2272
 30
0.000000
  70
    32
  0
VERTEX
  8
0
  5
12CF
 10
55.1188
 20
59.2000
 30
0.000000
  70
    32
  0
SEQEND
  8
0
  5
12D0
  0
LINE
  5
1035
  8
0
 10
58.399999999999977
 20
54.599999999999987
 30
0.0
 11
58.599999999999959
 21
54.599999999999987
 31
0.0
  0
LINE
  5
1036
  8
0
 10
58.599999999999959
 20
63.79999999999999
 30
0.0
 11
58.399999999999977
 21
63.79999999999999
 31
0.0
  0
LINE
  5
1037
  8
0
 10
58.599999999999959
 20
63.79999999999999
 30
0.0
 11
58.599999999999959
 21
54.599999999999987
 31
0.0
  0
LINE
  5
1038
  8
0
 10
57.599999999999973
 20
55.061880215351692
 30
0.0
 11
57.599999999999973
 21
63.338119784648292
 31
0.0
  0
LINE
  5
1039
  8
0
 10
57.599999999999973
 20
55.061880215351692
 30
0.0
 11
58.399999999999977
 21
54.599999999999987
 31
0.0
  0
LINE
  5
103A
  8
0
 10
58.399999999999977
 20
63.79999999999999
 30
0.0
 11
57.599999999999973
 21
63.338119784648292
 31
0.0
  0
LINE
  5
103B
  8
0
 10
58.399999999999977
 20
63.79999999999999
 30
0.0
 11
58.399999999999977
 21
54.599999999999987
 31
0.0
  0
LINE
  5
103C
  8
3
 10
66.599999999999966
 20
60.770499999999991
 30
0.0
 11
61.620499999999971
 21
60.770499999999991
 31
0.0
  0
LINE
  5
103E
  8
3
 10
66.599999999999966
 20
57.629499999999979
 30
0.0
 11
61.620499999999971
 21
57.629499999999979
 31
0.0
  0
CIRCLE
  5
104C
  8
0
 10
30.0
 20
30.0
 30
0.0
 40
4.5999999999999988
  0
CIRCLE
  5
104D
  8
0
 10
30.0
 20
30.0
 30
0.0
 40
4.1381197846482989
  0
LINE
  5
104E
  8
0
 10
26.5
 20
27.97927405783631
 30
0.0
 11
30.0
 21
25.95854811567261
 31
0.0
  0
LINE
  5
104F
  8
0
 10
30.0
 20
25.95854811567261
 30
0.0
 11
33.5
 21
27.97927405783631
 31
0.0
  0
LINE
  5
1050
  8
0
 10
33.5
 20
27.97927405783631
 30
0.0
 11
33.5
 21
32.020725942163679
 31
0.0
  0
LINE
  5
1051
  8
0
 10
33.5
 20
32.020725942163679
 30
0.0
 11
30.0
 21
34.04145188432738
 31
0.0
  0
LINE
  5
1052
  8
0
 10
30.0
 20
34.04145188432738
 30
0.0
 11
26.5
 21
32.020725942163679
 31
0.0
  0
LINE
  5
1053
  8
0
 10
26.5
 20
32.020725942163679
 30
0.0
 11
26.5
 21
27.97927405783631
 31
0.0
  0
LINE
  5
1058
  8
0
 10
59.199999999999989
 20
28.449999999999989
 30
0.0
 11
61.600000000000001
 21
28.449999999999989
 31
0.0
  0
LINE
  5
1059
  8
0
 10
61.600000000000001
 20
31.550000000000011
 30
0.0
 11
59.199999999999989
 21
31.550000000000011
 31
0.0
  0
LINE
  5
105A
  8
0
 10
61.600000000000001
 20
31.550000000000011
 30
0.0
 11
61.600000000000001
 21
28.449999999999989
 31
0.0
  0
LINE
  5
105B
  8
0
 10
61.600000000000001
 20
28.449999999999989
 30
0.0
 11
62.049999999999983
 21
28.0
 31
0.0
  0
LINE
  5
105C
  8
0
 10
62.049999999999983
 20
32.0
 30
0.0
 11
61.600000000000001
 21
31.550000000000011
 31
0.0
  0
LINE
  5
105D
  8
0
 10
62.049999999999983
 20
32.0
 30
0.0
 11
62.049999999999983
 21
28.0
 31
0.0
  0
LINE
  5
105E
  8
0
 10
62.049999999999983
 20
28.0
 30
0.0
 11
66.170499999999976
 21
28.0
 31
0.0
  0
LINE
  5
105F
  8
0
 10
66.170499999999976
 20
32.0
 30
0.0
 11
62.049999999999983
 21
32.0
 31
0.0
  0
LINE
  5
1060
  8
0
 10
66.599999999999994
 20
31.57050000000001
 30
0.0
 11
66.599999999999994
 21
28.429500000000019
 31
0.0
  0
LINE
  5
1061
  8
0
 10
66.170499999999976
 20
32.0
 30
0.0
 11
66.170499999999976
 21
28.0
 31
0.0
  0
LINE
  5
1062
  8
0
 10
66.599999999999994
 20
31.57050000000001
 30
0.0
 11
66.170499999999976
 21
32.0
 31
0.0
  0
LINE
  5
1063
  8
0
 10
66.170499999999976
 20
28.0
 30
0.0
 11
66.599999999999994
 21
28.429500000000019
 31
0.0
  0
ARC
  5
1065
  8
0
 10
59.199999999999989
 20
27.849999999999991
 30
0.0
 40
0.5999999999999992
 50
90.0
 51
180.0
  0
ARC
  5
1066
  8
0
 10
59.199999999999989
 20
32.150000000000013
 30
0.0
 40
0.5999999999999992
 50
180.0
 51
270.0
  0
LINE
  5
1067
  8
0
 10
57.599999999999987
 20
34.041451884327387
 30
0.0
 11
55.118828640355808
 21
34.041451884327387
 31
0.0
  0
LINE
  5
1068
  8
0
 10
57.599999999999987
 20
32.0207259421637
 30
0.0
 11
55.118828640355808
 21
32.0207259421637
 31
0.0
  0
LINE
  5
1069
  8
0
 10
57.599999999999987
 20
25.95854811567261
 30
0.0
 11
55.118828640355808
 21
25.95854811567261
 31
0.0
  0
LINE
  5
106A
  8
0
 10
57.599999999999987
 20
27.9792740578363
 30
0.0
 11
55.118828640355808
 21
27.9792740578363
 31
0.0
  0
POLYLINE
  5
106B
  8
0
 10
55.118828640355815
 20
34.041451884327394
 30
0.0
 66
     1
 70
     8
  0
VERTEX
  8
0
  5
12D1
 10
55.1188
 20
34.0415
 30
0.000000
  70
    32
  0
VERTEX
  8
0
  5
12D2
 10
55.1148
 20
34.0258
 30
0.000000
  70
    32
  0
VERTEX
  8
0
  5
12D3
 10
55.1108
 20
34.0100
 30
0.000000
  70
    32
  0
VERTEX
  8
0
  5
12D4
 10
55.1068
 20
33.9943
 30
0.000000
  70
    32
  0
VERTEX
  8
0
  5
12D5
 10
55.1029
 20
33.9786
 30
0.000000
  70
    32
  0
VERTEX
  8
0
  5
12D6
 10
55.0991
 20
33.9629
 30
0.000000
  70
    32
  0
VERTEX
  8
0
  5
12D7
 10
55.0954
 20
33.9472
 30
0.000000
  70
    32
  0
VERTEX
  8
0
  5
12D8
 10
55.0917
 20
33.9315
 30
0.000000
  70
    32
  0
VERTEX
  8
0
  5
12D9
 10
55.0881
 20
33.9157
 30
0.000000
  70
    32
  0
VERTEX
  8
0
  5
12DA
 10
55.0845
 20
33.9000
 30
0.000000
  70
    32
  0
VERTEX
  8
0
  5
12DB
 10
55.0810
 20
33.8843
 30
0.000000
  70
    32
  0
VERTEX
  8
0
  5
12DC
 10
55.0776
 20
33.8685
 30
0.000000
  70
    32
  0
VERTEX
  8
0
  5
12DD
 10
55.0742
 20
33.8528
 30
0.000000
  70
    32
  0
VERTEX
  8
0
  5
12DE
 10
55.0709
 20
33.8370
 30
0.000000
  70
    32
  0
VERTEX
  8
0
  5
12DF
 10
55.0677
 20
33.8213
 30
0.000000
  70
    32
  0
VERTEX
  8
0
  5
12E0
 10
55.0645
 20
33.8055
 30
0.000000
  70
    32
  0
VERTEX
  8
0
  5
12E1
 10
55.0614
 20
33.7898
 30
0.000000
  70
    32
  0
VERTEX
  8
0
  5
12E2
 10
55.0584
 20
33.7740
 30
0.000000
  70
    32
  0
VERTEX
  8
0
  5
12E3
 10
55.0554
 20
33.7583
 30
0.000000
  70
    32
  0
VERTEX
  8
0
  5
12E4
 10
55.0525
 20
33.7425
 30
0.000000
  70
    32
  0
VERTEX
  8
0
  5
12E5
 10
55.0496
 20
33.7267
 30
0.000000
  70
    32
  0
VERTEX
  8
0
  5
12E6
 10
55.0468
 20
33.7110
 30
0.000000
  70
    32
  0
VERTEX
  8
0
  5
12E7
 10
55.0441
 20
33.6952
 30
0.000000
  70
    32
  0
VERTEX
  8
0
  5
12E8
 10
55.0414
 20
33.6794
 30
0.000000
  70
    32
  0
VERTEX
  8
0
  5
12E9
 10
55.0388
 20
33.6636
 30
0.000000
  70
    32
  0
VERTEX
  8
0
  5
12EA
 10
55.0363
 20
33.6479
 30
0.000000
  70
    32
  0
VERTEX
  8
0
  5
12EB
 10
55.0338
 20
33.6321
 30
0.000000
  70
    32
  0
VERTEX
  8
0
  5
12EC
 10
55.0314
 20
33.6163
 30
0.000000
  70
    32
  0
VERTEX
  8
0
  5
12ED
 10
55.0291
 20
33.6005
 30
0.000000
  70
    32
  0
VERTEX
  8
0
  5
12EE
 10
55.0268
 20
33.5847
 30
0.000000
  70
    32
  0
VERTEX
  8
0
  5
12EF
 10
55.0246
 20
33.5689
 30
0.000000
  70
    32
  0
VERTEX
  8
0
  5
12F0
 10
55.0225
 20
33.5531
 30
0.000000
  70
    32
  0
VERTEX
  8
0
  5
12F1
 10
55.0204
 20
33.5373
 30
0.000000
  70
    32
  0
VERTEX
  8
0
  5
12F2
 10
55.0183
 20
33.5215
 30
0.000000
  70
    32
  0
VERTEX
  8
0
  5
12F3
 10
55.0164
 20
33.5057
 30
0.000000
  70
    32
  0
VERTEX
  8
0
  5
12F4
 10
55.0145
 20
33.4899
 30
0.000000
  70
    32
  0
VERTEX
  8
0
  5
12F5
 10
55.0127
 20
33.4741
 30
0.000000
  70
    32
  0
VERTEX
  8
0
  5
12F6
 10
55.0109
 20
33.4583
 30
0.000000
  70
    32
  0
VERTEX
  8
0
  5
12F7
 10
55.0092
 20
33.4425
 30
0.000000
  70
    32
  0
VERTEX
  8
0
  5
12F8
 10
55.0076
 20
33.4267
 30
0.000000
  70
    32
  0
VERTEX
  8
0
  5
12F9
 10
55.0060
 20
33.4109
 30
0.000000
  70
    32
  0
VERTEX
  8
0
  5
12FA
 10
55.0045
 20
33.3951
 30
0.000000
  70
    32
  0
VERTEX
  8
0
  5
12FB
 10
55.0030
 20
33.3793
 30
0.000000
  70
    32
  0
VERTEX
  8
0
  5
12FC
 10
55.0017
 20
33.3634
 30
0.000000
  70
    32
  0
VERTEX
  8
0
  5
12FD
 10
55.0003
 20
33.3476
 30
0.000000
  70
    32
  0
VERTEX
  8
0
  5
12FE
 10
54.9991
 20
33.3318
 30
0.000000
  70
    32
  0
VERTEX
  8
0
  5
12FF
 10
54.9979
 20
33.3160
 30
0.000000
  70
    32
  0
VERTEX
  8
0
  5
1300
 10
54.9968
 20
33.3002
 30
0.000000
  70
    32
  0
VERTEX
  8
0
  5
1301
 10
54.9957
 20
33.2843
 30
0.000000
  70
    32
  0
VERTEX
  8
0
  5
1302
 10
54.9947
 20
33.2685
 30
0.000000
  70
    32
  0
VERTEX
  8
0
  5
1303
 10
54.9938
 20
33.2527
 30
0.000000
  70
    32
  0
VERTEX
  8
0
  5
1304
 10
54.9929
 20
33.2369
 30
0.000000
  70
    32
  0
VERTEX
  8
0
  5
1305
 10
54.9921
 20
33.2210
 30
0.000000
  70
    32
  0
VERTEX
  8
0
  5
1306
 10
54.9914
 20
33.2052
 30
0.000000
  70
    32
  0
VERTEX
  8
0
  5
1307
 10
54.9907
 20
33.1894
 30
0.000000
  70
    32
  0
VERTEX
  8
0
  5
1308
 10
54.9901
 20
33.1736
 30
0.000000
  70
    32
  0
VERTEX
  8
0
  5
1309
 10
54.9896
 20
33.1577
 30
0.000000
  70
    32
  0
VERTEX
  8
0
  5
130A
 10
54.9891
 20
33.1419
 30
0.000000
  70
    32
  0
VERTEX
  8
0
  5
130B
 10
54.9887
 20
33.1261
 30
0.000000
  70
    32
  0
VERTEX
  8
0
  5
130C
 10
54.9883
 20
33.1102
 30
0.000000
  70
    32
  0
VERTEX
  8
0
  5
130D
 10
54.9880
 20
33.0944
 30
0.000000
  70
    32
  0
VERTEX
  8
0
  5
130E
 10
54.9878
 20
33.0786
 30
0.000000
  70
    32
  0
VERTEX
  8
0
  5
130F
 10
54.9876
 20
33.0628
 30
0.000000
  70
    32
  0
VERTEX
  8
0
  5
1310
 10
54.9875
 20
33.0469
 30
0.000000
  70
    32
  0
VERTEX
  8
0
  5
1311
 10
54.9875
 20
33.0311
 30
0.000000
  70
    32
  0
VERTEX
  8
0
  5
1312
 10
54.9875
 20
33.0153
 30
0.000000
  70
    32
  0
VERTEX
  8
0
  5
1313
 10
54.9876
 20
32.9994
 30
0.000000
  70
    32
  0
VERTEX
  8
0
  5
1314
 10
54.9878
 20
32.9836
 30
0.000000
  70
    32
  0
VERTEX
  8
0
  5
1315
 10
54.9880
 20
32.9678
 30
0.000000
  70
    32
  0
VERTEX
  8
0
  5
1316
 10
54.9883
 20
32.9519
 30
0.000000
  70
    32
  0
VERTEX
  8
0
  5
1317
 10
54.9887
 20
32.9361
 30
0.000000
  70
    32
  0
VERTEX
  8
0
  5
1318
 10
54.9891
 20
32.9203
 30
0.000000
  70
    32
  0
VERTEX
  8
0
  5
1319
 10
54.9896
 20
32.9044
 30
0.000000
  70
    32
  0
VERTEX
  8
0
  5
131A
 10
54.9901
 20
32.8886
 30
0.000000
  70
    32
  0
VERTEX
  8
0
  5
131B
 10
54.9907
 20
32.8728
 30
0.000000
  70
    32
  0
VERTEX
  8
0
  5
131C
 10
54.9914
 20
32.8570
 30
0.000000
  70
    32
  0
VERTEX
  8
0
  5
131D
 10
54.9921
 20
32.8411
 30
0.000000
  70
    32
  0
VERTEX
  8
0
  5
131E
 10
54.9929
 20
32.8253
 30
0.000000
  70
    32
  0
VERTEX
  8
0
  5
131F
 10
54.9938
 20
32.8095
 30
0.000000
  70
    32
  0
VERTEX
  8
0
  5
1320
 10
54.9947
 20
32.7937
 30
0.000000
  70
    32
  0
VERTEX
  8
0
  5
1321
 10
54.9957
 20
32.7778
 30
0.000000
  70
    32
  0
VERTEX
  8
0
  5
1322
 10
54.9968
 20
32.7620
 30
0.000000
  70
    32
  0
VERTEX
  8
0
  5
1323
 10
54.9979
 20
32.7462
 30
0.000000
  70
    32
  0
VERTEX
  8
0
  5
1324
 10
54.9991
 20
32.7304
 30
0.000000
  70
    32
  0
VERTEX
  8
0
  5
1325
 10
55.0003
 20
32.7145
 30
0.000000
  70
    32
  0
VERTEX
  8
0
  5
1326
 10
55.0017
 20
32.6987
 30
0.000000
  70
    32
  0
VERTEX
  8
0
  5
1327
 10
55.0030
 20
32.6829
 30
0.000000
  70
    32
  0
VERTEX
  8
0
  5
1328
 10
55.0045
 20
32.6671
 30
0.000000
  70
    32
  0
VERTEX
  8
0
  5
1329
 10
55.0060
 20
32.6513
 30
0.000000
  70
    32
  0
VERTEX
  8
0
  5
132A
 10
55.0076
 20
32.6355
 30
0.000000
  70
    32
  0
VERTEX
  8
0
  5
132B
 10
55.0092
 20
32.6197
 30
0.000000
  70
    32
  0
VERTEX
  8
0
  5
132C
 10
55.0109
 20
32.6039
 30
0.000000
  70
    32
  0
VERTEX
  8
0
  5
132D
 10
55.0127
 20
32.5880
 30
0.000000
  70
    32
  0
VERTEX
  8
0
  5
132E
 10
55.0145
 20
32.5722
 30
0.000000
  70
    32
  0
VERTEX
  8
0
  5
132F
 10
55.0164
 20
32.5564
 30
0.000000
  70
    32
  0
VERTEX
  8
0
  5
1330
 10
55.0183
 20
32.5406
 30
0.000000
  70
    32
  0
VERTEX
  8
0
  5
1331
 10
55.0204
 20
32.5248
 30
0.000000
  70
    32
  0
VERTEX
  8
0
  5
1332
 10
55.0225
 20
32.5090
 30
0.000000
  70
    32
  0
VERTEX
  8
0
  5
1333
 10
55.0246
 20
32.4932
 30
0.000000
  70
    32
  0
VERTEX
  8
0
  5
1334
 10
55.0268
 20
32.4775
 30
0.000000
  70
    32
  0
VERTEX
  8
0
  5
1335
 10
55.0291
 20
32.4617
 30
0.000000
  70
    32
  0
VERTEX
  8
0
  5
1336
 10
55.0314
 20
32.4459
 30
0.000000
  70
    32
  0
VERTEX
  8
0
  5
1337
 10
55.0338
 20
32.4301
 30
0.000000
  70
    32
  0
VERTEX
  8
0
  5
1338
 10
55.0363
 20
32.4143
 30
0.000000
  70
    32
  0
VERTEX
  8
0
  5
1339
 10
55.0388
 20
32.3985
 30
0.000000
  70
    32
  0
VERTEX
  8
0
  5
133A
 10
55.0414
 20
32.3828
 30
0.000000
  70
    32
  0
VERTEX
  8
0
  5
133B
 10
55.0441
 20
32.3670
 30
0.000000
  70
    32
  0
VERTEX
  8
0
  5
133C
 10
55.0468
 20
32.3512
 30
0.000000
  70
    32
  0
VERTEX
  8
0
  5
133D
 10
55.0496
 20
32.3354
 30
0.000000
  70
    32
  0
VERTEX
  8
0
  5
133E
 10
55.0525
 20
32.3197
 30
0.000000
  70
    32
  0
VERTEX
  8
0
  5
133F
 10
55.0554
 20
32.3039
 30
0.000000
  70
    32
  0
VERTEX
  8
0
  5
1340
 10
55.0584
 20
32.2881
 30
0.000000
  70
    32
  0
VERTEX
  8
0
  5
1341
 10
55.0614
 20
32.2724
 30
0.000000
  70
    32
  0
VERTEX
  8
0
  5
1342
 10
55.0645
 20
32.2566
 30
0.000000
  70
    32
  0
VERTEX
  8
0
  5
1343
 10
55.0677
 20
32.2409
 30
0.000000
  70
    32
  0
VERTEX
  8
0
  5
1344
 10
55.0709
 20
32.2251
 30
0.000000
  70
    32
  0
VERTEX
  8
0
  5
1345
 10
55.0742
 20
32.2094
 30
0.000000
  70
    32
  0
VERTEX
  8
0
  5
1346
 10
55.0776
 20
32.1936
 30
0.000000
  70
    32
  0
VERTEX
  8
0
  5
1347
 10
55.0810
 20
32.1779
 30
0.000000
  70
    32
  0
VERTEX
  8
0
  5
1348
 10
55.0845
 20
32.1622
 30
0.000000
  70
    32
  0
VERTEX
  8
0
  5
1349
 10
55.0881
 20
32.1464
 30
0.000000
  70
    32
  0
VERTEX
  8
0
  5
134A
 10
55.0917
 20
32.1307
 30
0.000000
  70
    32
  0
VERTEX
  8
0
  5
134B
 10
55.0954
 20
32.1150
 30
0.000000
  70
    32
  0
VERTEX
  8
0
  5
134C
 10
55.0991
 20
32.0993
 30
0.000000
  70
    32
  0
VERTEX
  8
0
  5
134D
 10
55.1029
 20
32.0836
 30
0.000000
  70
    32
  0
VERTEX
  8
0
  5
134E
 10
55.1068
 20
32.0678
 30
0.000000
  70
    32
  0
VERTEX
  8
0
  5
134F
 10
55.1108
 20
32.0521
 30
0.000000
  70
    32
  0
VERTEX
  8
0
  5
1350
 10
55.1148
 20
32.0364
 30
0.000000
  70
    32
  0
VERTEX
  8
0
  5
1351
 10
55.1188
 20
32.0207
 30
0.000000
  70
    32
  0
SEQEND
  8
0
  5
1352
  0
POLYLINE
  5
106C
  8
0
 10
55.118828640355808
 20
27.979274057836307
 30
0.0
 66
     1
 70
     8
  0
VERTEX
  8
0
  5
1353
 10
55.1188
 20
27.9793
 30
0.000000
  70
    32
  0
VERTEX
  8
0
  5
1354
 10
55.1148
 20
27.9636
 30
0.000000
  70
    32
  0
VERTEX
  8
0
  5
1355
 10
55.1108
 20
27.9479
 30
0.000000
  70
    32
  0
VERTEX
  8
0
  5
1356
 10
55.1068
 20
27.9322
 30
0.000000
  70
    32
  0
VERTEX
  8
0
  5
1357
 10
55.1029
 20
27.9164
 30
0.000000
  70
    32
  0
VERTEX
  8
0
  5
1358
 10
55.0991
 20
27.9007
 30
0.000000
  70
    32
  0
VERTEX
  8
0
  5
1359
 10
55.0954
 20
27.8850
 30
0.000000
  70
    32
  0
VERTEX
  8
0
  5
135A
 10
55.0917
 20
27.8693
 30
0.000000
  70
    32
  0
VERTEX
  8
0
  5
135B
 10
55.0881
 20
27.8536
 30
0.000000
  70
    32
  0
VERTEX
  8
0
  5
135C
 10
55.0845
 20
27.8378
 30
0.000000
  70
    32
  0
VERTEX
  8
0
  5
135D
 10
55.0810
 20
27.8221
 30
0.000000
  70
    32
  0
VERTEX
  8
0
  5
135E
 10
55.0776
 20
27.8064
 30
0.000000
  70
    32
  0
VERTEX
  8
0
  5
135F
 10
55.0742
 20
27.7906
 30
0.000000
  70
    32
  0
VERTEX
  8
0
  5
1360
 10
55.0709
 20
27.7749
 30
0.000000
  70
    32
  0
VERTEX
  8
0
  5
1361
 10
55.0677
 20
27.7591
 30
0.000000
  70
    32
  0
VERTEX
  8
0
  5
1362
 10
55.0645
 20
27.7434
 30
0.000000
  70
    32
  0
VERTEX
  8
0
  5
1363
 10
55.0614
 20
27.7276
 30
0.000000
  70
    32
  0
VERTEX
  8
0
  5
1364
 10
55.0584
 20
27.7119
 30
0.000000
  70
    32
  0
VERTEX
  8
0
  5
1365
 10
55.0554
 20
27.6961
 30
0.000000
  70
    32
  0
VERTEX
  8
0
  5
1366
 10
55.0525
 20
27.6803
 30
0.000000
  70
    32
  0
VERTEX
  8
0
  5
1367
 10
55.0496
 20
27.6646
 30
0.000000
  70
    32
  0
VERTEX
  8
0
  5
1368
 10
55.0468
 20
27.6488
 30
0.000000
  70
    32
  0
VERTEX
  8
0
  5
1369
 10
55.0441
 20
27.6330
 30
0.000000
  70
    32
  0
VERTEX
  8
0
  5
136A
 10
55.0414
 20
27.6172
 30
0.000000
  70
    32
  0
VERTEX
  8
0
  5
136B
 10
55.0388
 20
27.6015
 30
0.000000
  70
    32
  0
VERTEX
  8
0
  5
136C
 10
55.0363
 20
27.5857
 30
0.000000
  70
    32
  0
VERTEX
  8
0
  5
136D
 10
55.0338
 20
27.5699
 30
0.000000
  70
    32
  0
VERTEX
  8
0
  5
136E
 10
55.0314
 20
27.5541
 30
0.000000
  70
    32
  0
VERTEX
  8
0
  5
136F
 10
55.0291
 20
27.5383
 30
0.000000
  70
    32
  0
VERTEX
  8
0
  5
1370
 10
55.0268
 20
27.5225
 30
0.000000
  70
    32
  0
VERTEX
  8
0
  5
1371
 10
55.0246
 20
27.5068
 30
0.000000
  70
    32
  0
VERTEX
  8
0
  5
1372
 10
55.0225
 20
27.4910
 30
0.000000
  70
    32
  0
VERTEX
  8
0
  5
1373
 10
55.0204
 20
27.4752
 30
0.000000
  70
    32
  0
VERTEX
  8
0
  5
1374
 10
55.0183
 20
27.4594
 30
0.000000
  70
    32
  0
VERTEX
  8
0
  5
1375
 10
55.0164
 20
27.4436
 30
0.000000
  70
    32
  0
VERTEX
  8
0
  5
1376
 10
55.0145
 20
27.4278
 30
0.000000
  70
    32
  0
VERTEX
  8
0
  5
1377
 10
55.0127
 20
27.4120
 30
0.000000
  70
    32
  0
VERTEX
  8
0
  5
1378
 10
55.0109
 20
27.3961
 30
0.000000
  70
    32
  0
VERTEX
  8
0
  5
1379
 10
55.0092
 20
27.3803
 30
0.000000
  70
    32
  0
VERTEX
  8
0
  5
137A
 10
55.0076
 20
27.3645
 30
0.000000
  70
    32
  0
VERTEX
  8
0
  5
137B
 10
55.0060
 20
27.3487
 30
0.000000
  70
    32
  0
VERTEX
  8
0
  5
137C
 10
55.0045
 20
27.3329
 30
0.000000
  70
    32
  0
VERTEX
  8
0
  5
137D
 10
55.0030
 20
27.3171
 30
0.000000
  70
    32
  0
VERTEX
  8
0
  5
137E
 10
55.0017
 20
27.3013
 30
0.000000
  70
    32
  0
VERTEX
  8
0
  5
137F
 10
55.0003
 20
27.2855
 30
0.000000
  70
    32
  0
VERTEX
  8
0
  5
1380
 10
54.9991
 20
27.2696
 30
0.000000
  70
    32
  0
VERTEX
  8
0
  5
1381
 10
54.9979
 20
27.2538
 30
0.000000
  70
    32
  0
VERTEX
  8
0
  5
1382
 10
54.9968
 20
27.2380
 30
0.000000
  70
    32
  0
VERTEX
  8
0
  5
1383
 10
54.9957
 20
27.2222
 30
0.000000
  70
    32
  0
VERTEX
  8
0
  5
1384
 10
54.9947
 20
27.2063
 30
0.000000
  70
    32
  0
VERTEX
  8
0
  5
1385
 10
54.9938
 20
27.1905
 30
0.000000
  70
    32
  0
VERTEX
  8
0
  5
1386
 10
54.9929
 20
27.1747
 30
0.000000
  70
    32
  0
VERTEX
  8
0
  5
1387
 10
54.9921
 20
27.1589
 30
0.000000
  70
    32
  0
VERTEX
  8
0
  5
1388
 10
54.9914
 20
27.1430
 30
0.000000
  70
    32
  0
VERTEX
  8
0
  5
1389
 10
54.9907
 20
27.1272
 30
0.000000
  70
    32
  0
VERTEX
  8
0
  5
138A
 10
54.9901
 20
27.1114
 30
0.000000
  70
    32
  0
VERTEX
  8
0
  5
138B
 10
54.9896
 20
27.0956
 30
0.000000
  70
    32
  0
VERTEX
  8
0
  5
138C
 10
54.9891
 20
27.0797
 30
0.000000
  70
    32
  0
VERTEX
  8
0
  5
138D
 10
54.9887
 20
27.0639
 30
0.000000
  70
    32
  0
VERTEX
  8
0
  5
138E
 10
54.9883
 20
27.0481
 30
0.000000
  70
    32
  0
VERTEX
  8
0
  5
138F
 10
54.9880
 20
27.0322
 30
0.000000
  70
    32
  0
VERTEX
  8
0
  5
1390
 10
54.9878
 20
27.0164
 30
0.000000
  70
    32
  0
VERTEX
  8
0
  5
1391
 10
54.9876
 20
27.0006
 30
0.000000
  70
    32
  0
VERTEX
  8
0
  5
1392
 10
54.9875
 20
26.9847
 30
0.000000
  70
    32
  0
VERTEX
  8
0
  5
1393
 10
54.9875
 20
26.9689
 30
0.000000
  70
    32
  0
VERTEX
  8
0
  5
1394
 10
54.9875
 20
26.9531
 30
0.000000
  70
    32
  0
VERTEX
  8
0
  5
1395
 10
54.9876
 20
26.9372
 30
0.000000
  70
    32
  0
VERTEX
  8
0
  5
1396
 10
54.9878
 20
26.9214
 30
0.000000
  70
    32
  0
VERTEX
  8
0
  5
1397
 10
54.9880
 20
26.9056
 30
0.000000
  70
    32
  0
VERTEX
  8
0
  5
1398
 10
54.9883
 20
26.8898
 30
0.000000
  70
    32
  0
VERTEX
  8
0
  5
1399
 10
54.9887
 20
26.8739
 30
0.000000
  70
    32
  0
VERTEX
  8
0
  5
139A
 10
54.9891
 20
26.8581
 30
0.000000
  70
    32
  0
VERTEX
  8
0
  5
139B
 10
54.9896
 20
26.8423
 30
0.000000
  70
    32
  0
VERTEX
  8
0
  5
139C
 10
54.9901
 20
26.8264
 30
0.000000
  70
    32
  0
VERTEX
  8
0
  5
139D
 10
54.9907
 20
26.8106
 30
0.000000
  70
    32
  0
VERTEX
  8
0
  5
139E
 10
54.9914
 20
26.7948
 30
0.000000
  70
    32
  0
VERTEX
  8
0
  5
139F
 10
54.9921
 20
26.7790
 30
0.000000
  70
    32
  0
VERTEX
  8
0
  5
13A0
 10
54.9929
 20
26.7631
 30
0.000000
  70
    32
  0
VERTEX
  8
0
  5
13A1
 10
54.9938
 20
26.7473
 30
0.000000
  70
    32
  0
VERTEX
  8
0
  5
13A2
 10
54.9947
 20
26.7315
 30
0.000000
  70
    32
  0
VERTEX
  8
0
  5
13A3
 10
54.9957
 20
26.7157
 30
0.000000
  70
    32
  0
VERTEX
  8
0
  5
13A4
 10
54.9968
 20
26.6998
 30
0.000000
  70
    32
  0
VERTEX
  8
0
  5
13A5
 10
54.9979
 20
26.6840
 30
0.000000
  70
    32
  0
VERTEX
  8
0
  5
13A6
 10
54.9991
 20
26.6682
 30
0.000000
  70
    32
  0
VERTEX
  8
0
  5
13A7
 10
55.0003
 20
26.6524
 30
0.000000
  70
    32
  0
VERTEX
  8
0
  5
13A8
 10
55.0017
 20
26.6366
 30
0.000000
  70
    32
  0
VERTEX
  8
0
  5
13A9
 10
55.0030
 20
26.6207
 30
0.000000
  70
    32
  0
VERTEX
  8
0
  5
13AA
 10
55.0045
 20
26.6049
 30
0.000000
  70
    32
  0
VERTEX
  8
0
  5
13AB
 10
55.0060
 20
26.5891
 30
0.000000
  70
    32
  0
VERTEX
  8
0
  5
13AC
 10
55.0076
 20
26.5733
 30
0.000000
  70
    32
  0
VERTEX
  8
0
  5
13AD
 10
55.0092
 20
26.5575
 30
0.000000
  70
    32
  0
VERTEX
  8
0
  5
13AE
 10
55.0109
 20
26.5417
 30
0.000000
  70
    32
  0
VERTEX
  8
0
  5
13AF
 10
55.0127
 20
26.5259
 30
0.000000
  70
    32
  0
VERTEX
  8
0
  5
13B0
 10
55.0145
 20
26.5101
 30
0.000000
  70
    32
  0
VERTEX
  8
0
  5
13B1
 10
55.0164
 20
26.4943
 30
0.000000
  70
    32
  0
VERTEX
  8
0
  5
13B2
 10
55.0183
 20
26.4785
 30
0.000000
  70
    32
  0
VERTEX
  8
0
  5
13B3
 10
55.0204
 20
26.4627
 30
0.000000
  70
    32
  0
VERTEX
  8
0
  5
13B4
 10
55.0225
 20
26.4469
 30
0.000000
  70
    32
  0
VERTEX
  8
0
  5
13B5
 10
55.0246
 20
26.4311
 30
0.000000
  70
    32
  0
VERTEX
  8
0
  5
13B6
 10
55.0268
 20
26.4153
 30
0.000000
  70
    32
  0
VERTEX
  8
0
  5
13B7
 10
55.0291
 20
26.3995
 30
0.000000
  70
    32
  0
VERTEX
  8
0
  5
13B8
 10
55.0314
 20
26.3837
 30
0.000000
  70
    32
  0
VERTEX
  8
0
  5
13B9
 10
55.0338
 20
26.3679
 30
0.000000
  70
    32
  0
VERTEX
  8
0
  5
13BA
 10
55.0363
 20
26.3521
 30
0.000000
  70
    32
  0
VERTEX
  8
0
  5
13BB
 10
55.0388
 20
26.3364
 30
0.000000
  70
    32
  0
VERTEX
  8
0
  5
13BC
 10
55.0414
 20
26.3206
 30
0.000000
  70
    32
  0
VERTEX
  8
0
  5
13BD
 10
55.0441
 20
26.3048
 30
0.000000
  70
    32
  0
VERTEX
  8
0
  5
13BE
 10
55.0468
 20
26.2890
 30
0.000000
  70
    32
  0
VERTEX
  8
0
  5
13BF
 10
55.0496
 20
26.2733
 30
0.000000
  70
    32
  0
VERTEX
  8
0
  5
13C0
 10
55.0525
 20
26.2575
 30
0.000000
  70
    32
  0
VERTEX
  8
0
  5
13C1
 10
55.0554
 20
26.2417
 30
0.000000
  70
    32
  0
VERTEX
  8
0
  5
13C2
 10
55.0584
 20
26.2260
 30
0.000000
  70
    32
  0
VERTEX
  8
0
  5
13C3
 10
55.0614
 20
26.2102
 30
0.000000
  70
    32
  0
VERTEX
  8
0
  5
13C4
 10
55.0645
 20
26.1945
 30
0.000000
  70
    32
  0
VERTEX
  8
0
  5
13C5
 10
55.0677
 20
26.1787
 30
0.000000
  70
    32
  0
VERTEX
  8
0
  5
13C6
 10
55.0709
 20
26.1630
 30
0.000000
  70
    32
  0
VERTEX
  8
0
  5
13C7
 10
55.0742
 20
26.1472
 30
0.000000
  70
    32
  0
VERTEX
  8
0
  5
13C8
 10
55.0776
 20
26.1315
 30
0.000000
  70
    32
  0
VERTEX
  8
0
  5
13C9
 10
55.0810
 20
26.1157
 30
0.000000
  70
    32
  0
VERTEX
  8
0
  5
13CA
 10
55.0845
 20
26.1000
 30
0.000000
  70
    32
  0
VERTEX
  8
0
  5
13CB
 10
55.0881
 20
26.0843
 30
0.000000
  70
    32
  0
VERTEX
  8
0
  5
13CC
 10
55.0917
 20
26.0685
 30
0.000000
  70
    32
  0
VERTEX
  8
0
  5
13CD
 10
55.0954
 20
26.0528
 30
0.000000
  70
    32
  0
VERTEX
  8
0
  5
13CE
 10
55.0991
 20
26.0371
 30
0.000000
  70
    32
  0
VERTEX
  8
0
  5
13CF
 10
55.1029
 20
26.0214
 30
0.000000
  70
    32
  0
VERTEX
  8
0
  5
13D0
 10
55.1068
 20
26.0057
 30
0.000000
  70
    32
  0
VERTEX
  8
0
  5
13D1
 10
55.1108
 20
25.9900
 30
0.000000
  70
    32
  0
VERTEX
  8
0
  5
13D2
 10
55.1148
 20
25.9742
 30
0.000000
  70
    32
  0
VERTEX
  8
0
  5
13D3
 10
55.1188
 20
25.9585
 30
0.000000
  70
    32
  0
SEQEND
  8
0
  5
13D4
  0
ARC
  5
106D
  8
0
 10
70.599999999999852
 20
30.0
 30
0.0
 40
15.61249499599586
 50
172.5633419058677
 51
187.43665809413221
  0
ARC
  5
106E
  8
0
 10
70.599999999999966
 20
30.0
 30
0.0
 40
15.99999999999997
 50
165.3691278828363
 51
194.6308721171637
  0
LINE
  5
106F
  8
0
 10
58.599999999999987
 20
34.599999999999987
 30
0.0
 11
58.599999999999987
 21
25.399999999999999
 31
0.0
  0
LINE
  5
1070
  8
0
 10
58.399999999999977
 20
25.399999999999999
 30
0.0
 11
58.599999999999987
 21
25.399999999999999
 31
0.0
  0
LINE
  5
1071
  8
0
 10
58.599999999999987
 20
34.599999999999987
 30
0.0
 11
58.399999999999977
 21
34.599999999999987
 31
0.0
  0
LINE
  5
1072
  8
0
 10
58.399999999999977
 20
34.599999999999987
 30
0.0
 11
58.399999999999977
 21
25.399999999999999
 31
0.0
  0
LINE
  5
1073
  8
0
 10
57.599999999999987
 20
25.8618802153517
 30
0.0
 11
57.599999999999987
 21
34.138119784648303
 31
0.0
  0
LINE
  5
1074
  8
0
 10
57.599999999999987
 20
25.8618802153517
 30
0.0
 11
58.399999999999977
 21
25.399999999999999
 31
0.0
  0
LINE
  5
1075
  8
0
 10
58.399999999999977
 20
34.599999999999987
 30
0.0
 11
57.599999999999987
 21
34.138119784648303
 31
0.0
  0
LINE
  5
1076
  8
3
 10
66.599999999999994
 20
28.429500000000019
 30
0.0
 11
61.620499999999993
 21
28.429500000000019
 31
0.0
  0
LINE
  5
1078
  8
3
 10
66.599999999999994
 20
31.57050000000001
 30
0.0
 11
61.620499999999993
 21
31.57050000000001
 31
0.0
  0
LINE
  5
113D
  8
1
 10
52.599999999999973
 20
59.199999999999989
 30
0.0
 11
68.599999999999966
 21
59.199999999999989
 31
0.0
  0
LINE
  5
1147
  8
1
 10
68.599999999999994
 20
30.000000000000011
 30
0.0
 11
52.599999999999987
 21
30.000000000000011
 31
0.0
  0
LINE
  5
1151
  8
1
 10
30.0
 20
36.600000000000001
 30
0.0
 11
30.0
 21
23.399999999999999
 31
0.0
  0
LINE
  5
1152
  8
1
 10
36.600000000000001
 20
30.0
 30
0.0
 11
23.400000000000009
 21
30.0
 31
0.0
  0
ENDSEC
  0
EOF
