  0
SECTION
  2
HEADER
  9
$ACADVER
  1
AC1009
  9
$INSBASE
 10
0.0
 20
0.0
 30
0.0
  9
$EXTMIN
 10
0.0
 20
-1.4802182810368341
 30
0.0
  9
$EXTMAX
 10
99.500000000000014
 20
89.500000000000014
 30
0.0
  9
$LIMMIN
 10
0.0
 20
0.0
  9
$LIMMAX
 10
375.0
 20
270.0
  9
$ORTHOMODE
 70
     1
  9
$REGENMODE
 70
     1
  9
$FILLMODE
 70
     1
  9
$QTEXTMODE
 70
     0
  9
$MIRRTEXT
 70
     0
  9
$DRAGMODE
 70
     2
  9
$LTSCALE
 40
5.0
  9
$OSMODE
 70
    37
  9
$ATTMODE
 70
     1
  9
$TEXTSIZE
 40
0.2
  9
$TRACEWID
 40
0.05
  9
$TEXTSTYLE
  7
STANDARD
  9
$CLAYER
  8
4
  9
$CELTYPE
  6
BYLAYER
  9
$CECOLOR
 62
   256
  9
$DIMSCALE
 40
1.0
  9
$DIMASZ
 40
3.0
  9
$DIMEXO
 40
2.0
  9
$DIMDLI
 40
0.38
  9
$DIMRND
 40
0.0
  9
$DIMDLE
 40
0.0
  9
$DIMEXE
 40
2.0
  9
$DIMTP
 40
0.0
  9
$DIMTM
 40
0.0
  9
$DIMTXT
 40
3.2000000000000002
  9
$DIMCEN
 40
0.09
  9
$DIMTSZ
 40
0.0
  9
$DIMTOL
 70
     0
  9
$DIMLIM
 70
     0
  9
$DIMTIH
 70
     0
  9
$DIMTOH
 70
     0
  9
$DIMSE1
 70
     0
  9
$DIMSE2
 70
     0
  9
$DIMTAD
 70
     1
  9
$DIMZIN
 70
     8
  9
$DIMBLK
  1

  9
$DIMASO
 70
     1
  9
$DIMSHO
 70
     0
  9
$DIMPOST
  1

  9
$DIMAPOST
  1

  9
$DIMALT
 70
     0
  9
$DIMALTD
 70
     2
  9
$DIMALTF
 40
25.399999999999999
  9
$DIMLFAC
 40
1.0
  9
$DIMTOFL
 70
     1
  9
$DIMTVP
 40
1.6000000000000001
  9
$DIMTIX
 70
     1
  9
$DIMSOXD
 70
     0
  9
$DIMSAH
 70
     0
  9
$DIMBLK1
  1

  9
$DIMBLK2
  1

  9
$DIMSTYLE
  2
STANDARD
  9
$DIMCLRD
 70
   256
  9
$DIMCLRE
 70
   256
  9
$DIMCLRT
 70
   256
  9
$DIMTFAC
 40
1.0
  9
$DIMGAP
 40
1.0
  9
$LUNITS
 70
     2
  9
$LUPREC
 70
     1
  9
$SKETCHINC
 40
0.1
  9
$FILLETRAD
 40
0.0
  9
$AUNITS
 70
     0
  9
$AUPREC
 70
     0
  9
$MENU
  1
E:\r13\win\SUPPORT\ACAD
  9
$ELEVATION
 40
0.0
  9
$PELEVATION
 40
0.0
  9
$THICKNESS
 40
0.0
  9
$LIMCHECK
 70
     0
  9
$BLIPMODE
 70
     0
  9
$CHAMFERA
 40
0.0
  9
$CHAMFERB
 40
0.0
  9
$SKPOLY
 70
     0
  9
$TDCREATE
 40
2449839.8447916671
  9
$TDUPDATE
 40
2459207.6378602432
  9
$TDINDWG
 40
0.2391073843
  9
$TDUSRTIMER
 40
0.2391073843
  9
$USRTIMER
 70
     1
  9
$ANGBASE
 50
0.0
  9
$ANGDIR
 70
     0
  9
$PDMODE
 70
     0
  9
$PDSIZE
 40
0.0
  9
$PLINEWID
 40
0.0
  9
$COORDS
 70
     1
  9
$SPLFRAME
 70
     0
  9
$SPLINETYPE
 70
     6
  9
$SPLINESEGS
 70
     8
  9
$ATTDIA
 70
     0
  9
$ATTREQ
 70
     1
  9
$HANDLING
 70
     1
  9
$HANDSEED
  5
198B
  9
$SURFTAB1
 70
     6
  9
$SURFTAB2
 70
     6
  9
$SURFTYPE
 70
     6
  9
$SURFU
 70
     6
  9
$SURFV
 70
     6
  9
$UCSNAME
  2

  9
$UCSORG
 10
0.0
 20
0.0
 30
0.0
  9
$UCSXDIR
 10
1.0
 20
0.0
 30
0.0
  9
$UCSYDIR
 10
0.0
 20
1.0
 30
0.0
  9
$PUCSNAME
  2

  9
$PUCSORG
 10
0.0
 20
0.0
 30
0.0
  9
$PUCSXDIR
 10
1.0
 20
0.0
 30
0.0
  9
$PUCSYDIR
 10
0.0
 20
1.0
 30
0.0
  9
$USERI1
 70
     0
  9
$USERI2
 70
     1
  9
$USERI3
 70
     1
  9
$USERI4
 70
     0
  9
$USERI5
 70
     0
  9
$USERR1
 40
0.0
  9
$USERR2
 40
0.0
  9
$USERR3
 40
0.0
  9
$USERR4
 40
0.0
  9
$USERR5
 40
0.0
  9
$WORLDVIEW
 70
     1
  9
$SHADEDGE
 70
     3
  9
$SHADEDIF
 70
    70
  9
$TILEMODE
 70
     1
  9
$MAXACTVP
 70
    16
  9
$PLIMCHECK
 70
     0
  9
$PEXTMIN
 10
1.0000000000000000E+020
 20
1.0000000000000000E+020
 30
1.0000000000000000E+020
  9
$PEXTMAX
 10
-1.0000000000000000E+020
 20
-1.0000000000000000E+020
 30
-1.0000000000000000E+020
  9
$PLIMMIN
 10
0.0
 20
0.0
  9
$PLIMMAX
 10
12.0
 20
9.0
  9
$UNITMODE
 70
     0
  9
$VISRETAIN
 70
     0
  9
$PLINEGEN
 70
     0
  9
$PSLTSCALE
 70
     0
  0
ENDSEC
  0
SECTION
  2
TABLES
  0
TABLE
  2
VPORT
 70
     1
  0
VPORT
  2
*ACTIVE
 70
     0
 10
0.0
 20
0.0
 11
1.0
 21
1.0
 12
132.35294117647061
 22
50.0
 13
0.0
 23
0.0
 14
10.0
 24
10.0
 15
10.0
 25
10.0
 16
0.0
 26
0.0
 36
1.0
 17
0.0
 27
0.0
 37
0.0
 40
100.0
 41
2.6470588235294108
 42
50.0
 43
0.0
 44
0.0
 50
0.0
 51
0.0
 71
     0
 72
   500
 73
     1
 74
     0
 75
     0
 76
     0
 77
     0
 78
     2
  0
ENDTAB
  0
TABLE
  2
LTYPE
 70
     4
  0
LTYPE
  2
CONTINUOUS
 70
     0
  3
Solid Line
 72
    65
 73
     0
 40
0.0
  0
LTYPE
  2
CENTER
 70
     0
  3
____ _ ____ _ ____ _ ____ _ ____ _ ____ _ ____
 72
    65
 73
     4
 40
2.0
 49
1.25
 49
-0.25
 49
0.25
 49
-0.25
  0
LTYPE
  2
HIDDEN
 70
     0
  3
_ _ _ _ _ _ _ _ _ _ _ _ _ _ _ _ _ _ _ _ _ _ _
 72
    65
 73
     2
 40
0.375
 49
0.25
 49
-0.125
  0
LTYPE
  2
PHANTOM2
 70
     0
  3
___ _ _ ___ _ _ ___ _ _ ___ _ _
 72
    65
 73
     6
 40
1.25
 49
0.625
 49
-0.125
 49
0.125
 49
-0.125
 49
0.125
 49
-0.125
  0
ENDTAB
  0
TABLE
  2
LAYER
 70
     6
  0
LAYER
  2
0
 70
     0
 62
     7
  6
CONTINUOUS
  0
LAYER
  2
1
 70
     0
 62
     1
  6
CENTER
  0
LAYER
  2
2
 70
     0
 62
     2
  6
HIDDEN
  0
LAYER
  2
DEFPOINTS
 70
     0
 62
     7
  6
CONTINUOUS
  0
LAYER
  2
4
 70
     0
 62
     4
  6
CONTINUOUS
  0
LAYER
  2
3
 70
     0
 62
     3
  6
CONTINUOUS
  0
ENDTAB
  0
TABLE
  2
STYLE
 70
     2
  0
STYLE
  2
STANDARD
 70
     0
 40
0.0
 41
1.0
 50
0.0
 71
     0
 42
0.2
  3
TXT
  4
BIGFONT
  0
STYLE
  2
STANDARD1
 70
     0
 40
0.0
 41
1.0
 50
0.0
 71
     0
 42
3.0
  3
txt
  4

  0
ENDTAB
  0
TABLE
  2
VIEW
 70
     1
  0
VIEW
  2
ALL
 70
     0
 40
270.0
 10
220.99159663865549
 20
135.0
 41
0.0
 11
0.0
 21
0.0
 31
1.0
 12
0.0
 22
0.0
 32
0.0
 42
0.0
 43
0.0
 44
0.0
 50
0.0
 71
     0
  0
ENDTAB
  0
TABLE
  2
UCS
 70
     0
  0
ENDTAB
  0
TABLE
  2
APPID
 70
     9
  0
APPID
  2
ACAD
 70
     0
  0
APPID
  2
ACAD_MLEADERVER
 70
     0
  0
APPID
  2
ACAD_NAV_VCDISPLAY
 70
     0
  0
APPID
  2
ACAD_EXEMPT_FROM_CAD_STANDARDS
 70
     0
  0
APPID
  2
ACAD_DSTYLE_DIMJAG
 70
     0
  0
APPID
  2
ACAD_DSTYLE_DIMTALN
 70
     0
  0
APPID
  2
ACAECLAYERSTANDARD
 70
     0
  0
APPID
  2
ACCMTRANSPARENCY
 70
     0
  0
APPID
  2
DCO15
 70
     0
  0
ENDTAB
  0
TABLE
  2
DIMSTYLE
 70
     1
  0
DIMSTYLE
  2
STANDARD
 70
     0
  3

  4

  5

  6

  7

 40
1.0
 41
0.18
 42
0.0625
 43
0.38
 44
0.18
 45
0.0
 46
0.0
 47
0.0
 48
0.0
140
0.18
141
0.09
142
0.0
143
25.399999999999999
144
1.0
145
0.0
146
1.0
147
0.09
 71
     0
 72
     0
 73
     1
 74
     1
 75
     0
 76
     0
 77
     0
 78
     0
170
     0
171
     2
172
     0
173
     0
174
     0
175
     0
176
     0
177
     0
178
     0
  0
ENDTAB
  0
ENDSEC
  0
SECTION
  2
BLOCKS
  0
BLOCK
  8
0
  2
$MODEL_SPACE
 70
     0
 10
0.0
 20
0.0
 30
0.0
  3
$MODEL_SPACE
  1

  0
ENDBLK
  5
10E
  8
0
  0
BLOCK
 67
     1
  8
0
  2
$PAPER_SPACE
 70
     0
 10
0.0
 20
0.0
 30
0.0
  3
$PAPER_SPACE
  1

  0
ENDBLK
  5
10C
 67
     1
  8
0
  0
ENDSEC
  0
SECTION
  2
ENTITIES
  0
TEXT
  5
4DC
  8
0
 62
     3
 10
0.0
 20
0.0
 30
0.0
 40
5.0
  1
HD-HBNS06X16
  7
STANDARD1
  0
LINE
  5
15BE
  8
0
 10
82.099999999999994
 20
80.900000000000006
 30
0.0
 11
90.5
 21
80.900000000000006
 31
0.0
  0
LINE
  5
15BF
  8
0
 10
90.5
 20
85.099999999999994
 30
0.0
 11
82.100000000000023
 21
85.099999999999994
 31
0.0
  0
ARC
  5
15C0
  8
0
 10
82.099999999999994
 20
80.300000000000011
 30
0.0
 40
0.6000000000000001
 50
90.0
 51
180.0
  0
ARC
  5
15C1
  8
0
 10
82.099999999999994
 20
85.699999999999974
 30
0.0
 40
0.5999999999999995
 50
180.0
 51
270.0
  0
LINE
  5
15C3
  8
0
 10
90.5
 20
80.900000000000006
 30
0.0
 11
91.400000000000006
 21
80.0
 31
0.0
  0
LINE
  5
15C4
  8
0
 10
91.400000000000006
 20
86.0
 30
0.0
 11
90.5
 21
85.099999999999994
 31
0.0
  0
LINE
  5
15C5
  8
0
 10
90.5
 20
85.099999999999994
 30
0.0
 11
90.5
 21
80.900000000000006
 31
0.0
  0
LINE
  5
15C6
  8
0
 10
91.400000000000006
 20
80.0
 30
0.0
 11
96.886500000000026
 21
80.0
 31
0.0
  0
LINE
  5
15C7
  8
0
 10
96.886500000000026
 20
86.0
 30
0.0
 11
91.400000000000006
 21
86.0
 31
0.0
  0
LINE
  5
15C8
  8
0
 10
91.400000000000006
 20
86.0
 30
0.0
 11
91.400000000000006
 21
80.0
 31
0.0
  0
LINE
  5
15C9
  8
0
 10
97.5
 20
85.386500000000026
 30
0.0
 11
96.886500000000026
 21
86.0
 31
0.0
  0
LINE
  5
15CA
  8
0
 10
96.886500000000026
 20
80.0
 30
0.0
 11
97.5
 21
80.613499999999988
 31
0.0
  0
LINE
  5
15CB
  8
0
 10
97.5
 20
85.386500000000026
 30
0.0
 11
97.5
 21
80.613499999999988
 31
0.0
  0
LINE
  5
15CC
  8
0
 10
96.886500000000026
 20
86.0
 30
0.0
 11
96.886500000000026
 21
80.0
 31
0.0
  0
LINE
  5
15CD
  8
0
 10
80.5
 20
88.0
 30
0.0
 11
77.301315846429333
 21
88.0
 31
0.0
  0
LINE
  5
15CE
  8
0
 10
80.5
 20
78.0
 30
0.0
 11
77.301315846429333
 21
78.0
 31
0.0
  0
LINE
  5
15CF
  8
0
 10
80.5
 20
83.0
 30
0.0
 11
77.577980476267072
 21
83.0
 31
0.0
  0
POLYLINE
  5
15D0
  8
0
 10
77.577980476267072
 20
83.000000000000014
 30
0.0
 66
     1
 70
     8
  0
VERTEX
  8
0
  5
1783
 10
77.5780
 20
83.0000
 30
0.000000
  70
    32
  0
VERTEX
  8
0
  5
1784
 10
77.5694
 20
82.9614
 30
0.000000
  70
    32
  0
VERTEX
  8
0
  5
1785
 10
77.5610
 20
82.9228
 30
0.000000
  70
    32
  0
VERTEX
  8
0
  5
1786
 10
77.5527
 20
82.8841
 30
0.000000
  70
    32
  0
VERTEX
  8
0
  5
1787
 10
77.5446
 20
82.8455
 30
0.000000
  70
    32
  0
VERTEX
  8
0
  5
1788
 10
77.5365
 20
82.8068
 30
0.000000
  70
    32
  0
VERTEX
  8
0
  5
1789
 10
77.5287
 20
82.7681
 30
0.000000
  70
    32
  0
VERTEX
  8
0
  5
178A
 10
77.5209
 20
82.7294
 30
0.000000
  70
    32
  0
VERTEX
  8
0
  5
178B
 10
77.5133
 20
82.6906
 30
0.000000
  70
    32
  0
VERTEX
  8
0
  5
178C
 10
77.5058
 20
82.6519
 30
0.000000
  70
    32
  0
VERTEX
  8
0
  5
178D
 10
77.4985
 20
82.6131
 30
0.000000
  70
    32
  0
VERTEX
  8
0
  5
178E
 10
77.4912
 20
82.5743
 30
0.000000
  70
    32
  0
VERTEX
  8
0
  5
178F
 10
77.4841
 20
82.5355
 30
0.000000
  70
    32
  0
VERTEX
  8
0
  5
1790
 10
77.4772
 20
82.4966
 30
0.000000
  70
    32
  0
VERTEX
  8
0
  5
1791
 10
77.4704
 20
82.4578
 30
0.000000
  70
    32
  0
VERTEX
  8
0
  5
1792
 10
77.4637
 20
82.4189
 30
0.000000
  70
    32
  0
VERTEX
  8
0
  5
1793
 10
77.4571
 20
82.3800
 30
0.000000
  70
    32
  0
VERTEX
  8
0
  5
1794
 10
77.4507
 20
82.3411
 30
0.000000
  70
    32
  0
VERTEX
  8
0
  5
1795
 10
77.4445
 20
82.3022
 30
0.000000
  70
    32
  0
VERTEX
  8
0
  5
1796
 10
77.4383
 20
82.2632
 30
0.000000
  70
    32
  0
VERTEX
  8
0
  5
1797
 10
77.4323
 20
82.2243
 30
0.000000
  70
    32
  0
VERTEX
  8
0
  5
1798
 10
77.4264
 20
82.1853
 30
0.000000
  70
    32
  0
VERTEX
  8
0
  5
1799
 10
77.4207
 20
82.1463
 30
0.000000
  70
    32
  0
VERTEX
  8
0
  5
179A
 10
77.4151
 20
82.1073
 30
0.000000
  70
    32
  0
VERTEX
  8
0
  5
179B
 10
77.4096
 20
82.0683
 30
0.000000
  70
    32
  0
VERTEX
  8
0
  5
179C
 10
77.4042
 20
82.0293
 30
0.000000
  70
    32
  0
VERTEX
  8
0
  5
179D
 10
77.3990
 20
81.9902
 30
0.000000
  70
    32
  0
VERTEX
  8
0
  5
179E
 10
77.3940
 20
81.9512
 30
0.000000
  70
    32
  0
VERTEX
  8
0
  5
179F
 10
77.3890
 20
81.9121
 30
0.000000
  70
    32
  0
VERTEX
  8
0
  5
17A0
 10
77.3842
 20
81.8730
 30
0.000000
  70
    32
  0
VERTEX
  8
0
  5
17A1
 10
77.3796
 20
81.8339
 30
0.000000
  70
    32
  0
VERTEX
  8
0
  5
17A2
 10
77.3750
 20
81.7948
 30
0.000000
  70
    32
  0
VERTEX
  8
0
  5
17A3
 10
77.3706
 20
81.7557
 30
0.000000
  70
    32
  0
VERTEX
  8
0
  5
17A4
 10
77.3664
 20
81.7166
 30
0.000000
  70
    32
  0
VERTEX
  8
0
  5
17A5
 10
77.3623
 20
81.6775
 30
0.000000
  70
    32
  0
VERTEX
  8
0
  5
17A6
 10
77.3583
 20
81.6383
 30
0.000000
  70
    32
  0
VERTEX
  8
0
  5
17A7
 10
77.3544
 20
81.5992
 30
0.000000
  70
    32
  0
VERTEX
  8
0
  5
17A8
 10
77.3507
 20
81.5600
 30
0.000000
  70
    32
  0
VERTEX
  8
0
  5
17A9
 10
77.3471
 20
81.5208
 30
0.000000
  70
    32
  0
VERTEX
  8
0
  5
17AA
 10
77.3436
 20
81.4816
 30
0.000000
  70
    32
  0
VERTEX
  8
0
  5
17AB
 10
77.3403
 20
81.4424
 30
0.000000
  70
    32
  0
VERTEX
  8
0
  5
17AC
 10
77.3371
 20
81.4032
 30
0.000000
  70
    32
  0
VERTEX
  8
0
  5
17AD
 10
77.3341
 20
81.3640
 30
0.000000
  70
    32
  0
VERTEX
  8
0
  5
17AE
 10
77.3312
 20
81.3248
 30
0.000000
  70
    32
  0
VERTEX
  8
0
  5
17AF
 10
77.3284
 20
81.2856
 30
0.000000
  70
    32
  0
VERTEX
  8
0
  5
17B0
 10
77.3258
 20
81.2463
 30
0.000000
  70
    32
  0
VERTEX
  8
0
  5
17B1
 10
77.3233
 20
81.2071
 30
0.000000
  70
    32
  0
VERTEX
  8
0
  5
17B2
 10
77.3209
 20
81.1678
 30
0.000000
  70
    32
  0
VERTEX
  8
0
  5
17B3
 10
77.3187
 20
81.1286
 30
0.000000
  70
    32
  0
VERTEX
  8
0
  5
17B4
 10
77.3166
 20
81.0893
 30
0.000000
  70
    32
  0
VERTEX
  8
0
  5
17B5
 10
77.3146
 20
81.0501
 30
0.000000
  70
    32
  0
VERTEX
  8
0
  5
17B6
 10
77.3128
 20
81.0108
 30
0.000000
  70
    32
  0
VERTEX
  8
0
  5
17B7
 10
77.3111
 20
80.9715
 30
0.000000
  70
    32
  0
VERTEX
  8
0
  5
17B8
 10
77.3095
 20
80.9322
 30
0.000000
  70
    32
  0
VERTEX
  8
0
  5
17B9
 10
77.3081
 20
80.8930
 30
0.000000
  70
    32
  0
VERTEX
  8
0
  5
17BA
 10
77.3068
 20
80.8537
 30
0.000000
  70
    32
  0
VERTEX
  8
0
  5
17BB
 10
77.3057
 20
80.8144
 30
0.000000
  70
    32
  0
VERTEX
  8
0
  5
17BC
 10
77.3046
 20
80.7751
 30
0.000000
  70
    32
  0
VERTEX
  8
0
  5
17BD
 10
77.3038
 20
80.7358
 30
0.000000
  70
    32
  0
VERTEX
  8
0
  5
17BE
 10
77.3030
 20
80.6965
 30
0.000000
  70
    32
  0
VERTEX
  8
0
  5
17BF
 10
77.3024
 20
80.6572
 30
0.000000
  70
    32
  0
VERTEX
  8
0
  5
17C0
 10
77.3019
 20
80.6179
 30
0.000000
  70
    32
  0
VERTEX
  8
0
  5
17C1
 10
77.3016
 20
80.5786
 30
0.000000
  70
    32
  0
VERTEX
  8
0
  5
17C2
 10
77.3014
 20
80.5393
 30
0.000000
  70
    32
  0
VERTEX
  8
0
  5
17C3
 10
77.3013
 20
80.5000
 30
0.000000
  70
    32
  0
VERTEX
  8
0
  5
17C4
 10
77.3014
 20
80.4607
 30
0.000000
  70
    32
  0
VERTEX
  8
0
  5
17C5
 10
77.3016
 20
80.4214
 30
0.000000
  70
    32
  0
VERTEX
  8
0
  5
17C6
 10
77.3019
 20
80.3821
 30
0.000000
  70
    32
  0
VERTEX
  8
0
  5
17C7
 10
77.3024
 20
80.3428
 30
0.000000
  70
    32
  0
VERTEX
  8
0
  5
17C8
 10
77.3030
 20
80.3035
 30
0.000000
  70
    32
  0
VERTEX
  8
0
  5
17C9
 10
77.3038
 20
80.2642
 30
0.000000
  70
    32
  0
VERTEX
  8
0
  5
17CA
 10
77.3046
 20
80.2249
 30
0.000000
  70
    32
  0
VERTEX
  8
0
  5
17CB
 10
77.3057
 20
80.1856
 30
0.000000
  70
    32
  0
VERTEX
  8
0
  5
17CC
 10
77.3068
 20
80.1463
 30
0.000000
  70
    32
  0
VERTEX
  8
0
  5
17CD
 10
77.3081
 20
80.1070
 30
0.000000
  70
    32
  0
VERTEX
  8
0
  5
17CE
 10
77.3095
 20
80.0678
 30
0.000000
  70
    32
  0
VERTEX
  8
0
  5
17CF
 10
77.3111
 20
80.0285
 30
0.000000
  70
    32
  0
VERTEX
  8
0
  5
17D0
 10
77.3128
 20
79.9892
 30
0.000000
  70
    32
  0
VERTEX
  8
0
  5
17D1
 10
77.3146
 20
79.9499
 30
0.000000
  70
    32
  0
VERTEX
  8
0
  5
17D2
 10
77.3166
 20
79.9107
 30
0.000000
  70
    32
  0
VERTEX
  8
0
  5
17D3
 10
77.3187
 20
79.8714
 30
0.000000
  70
    32
  0
VERTEX
  8
0
  5
17D4
 10
77.3209
 20
79.8322
 30
0.000000
  70
    32
  0
VERTEX
  8
0
  5
17D5
 10
77.3233
 20
79.7929
 30
0.000000
  70
    32
  0
VERTEX
  8
0
  5
17D6
 10
77.3258
 20
79.7537
 30
0.000000
  70
    32
  0
VERTEX
  8
0
  5
17D7
 10
77.3284
 20
79.7144
 30
0.000000
  70
    32
  0
VERTEX
  8
0
  5
17D8
 10
77.3312
 20
79.6752
 30
0.000000
  70
    32
  0
VERTEX
  8
0
  5
17D9
 10
77.3341
 20
79.6360
 30
0.000000
  70
    32
  0
VERTEX
  8
0
  5
17DA
 10
77.3371
 20
79.5968
 30
0.000000
  70
    32
  0
VERTEX
  8
0
  5
17DB
 10
77.3403
 20
79.5576
 30
0.000000
  70
    32
  0
VERTEX
  8
0
  5
17DC
 10
77.3436
 20
79.5184
 30
0.000000
  70
    32
  0
VERTEX
  8
0
  5
17DD
 10
77.3471
 20
79.4792
 30
0.000000
  70
    32
  0
VERTEX
  8
0
  5
17DE
 10
77.3507
 20
79.4400
 30
0.000000
  70
    32
  0
VERTEX
  8
0
  5
17DF
 10
77.3544
 20
79.4008
 30
0.000000
  70
    32
  0
VERTEX
  8
0
  5
17E0
 10
77.3583
 20
79.3617
 30
0.000000
  70
    32
  0
VERTEX
  8
0
  5
17E1
 10
77.3623
 20
79.3225
 30
0.000000
  70
    32
  0
VERTEX
  8
0
  5
17E2
 10
77.3664
 20
79.2834
 30
0.000000
  70
    32
  0
VERTEX
  8
0
  5
17E3
 10
77.3706
 20
79.2443
 30
0.000000
  70
    32
  0
VERTEX
  8
0
  5
17E4
 10
77.3750
 20
79.2052
 30
0.000000
  70
    32
  0
VERTEX
  8
0
  5
17E5
 10
77.3796
 20
79.1661
 30
0.000000
  70
    32
  0
VERTEX
  8
0
  5
17E6
 10
77.3842
 20
79.1270
 30
0.000000
  70
    32
  0
VERTEX
  8
0
  5
17E7
 10
77.3890
 20
79.0879
 30
0.000000
  70
    32
  0
VERTEX
  8
0
  5
17E8
 10
77.3940
 20
79.0488
 30
0.000000
  70
    32
  0
VERTEX
  8
0
  5
17E9
 10
77.3990
 20
79.0098
 30
0.000000
  70
    32
  0
VERTEX
  8
0
  5
17EA
 10
77.4042
 20
78.9707
 30
0.000000
  70
    32
  0
VERTEX
  8
0
  5
17EB
 10
77.4096
 20
78.9317
 30
0.000000
  70
    32
  0
VERTEX
  8
0
  5
17EC
 10
77.4151
 20
78.8927
 30
0.000000
  70
    32
  0
VERTEX
  8
0
  5
17ED
 10
77.4207
 20
78.8537
 30
0.000000
  70
    32
  0
VERTEX
  8
0
  5
17EE
 10
77.4264
 20
78.8147
 30
0.000000
  70
    32
  0
VERTEX
  8
0
  5
17EF
 10
77.4323
 20
78.7757
 30
0.000000
  70
    32
  0
VERTEX
  8
0
  5
17F0
 10
77.4383
 20
78.7368
 30
0.000000
  70
    32
  0
VERTEX
  8
0
  5
17F1
 10
77.4445
 20
78.6978
 30
0.000000
  70
    32
  0
VERTEX
  8
0
  5
17F2
 10
77.4507
 20
78.6589
 30
0.000000
  70
    32
  0
VERTEX
  8
0
  5
17F3
 10
77.4571
 20
78.6200
 30
0.000000
  70
    32
  0
VERTEX
  8
0
  5
17F4
 10
77.4637
 20
78.5811
 30
0.000000
  70
    32
  0
VERTEX
  8
0
  5
17F5
 10
77.4704
 20
78.5422
 30
0.000000
  70
    32
  0
VERTEX
  8
0
  5
17F6
 10
77.4772
 20
78.5034
 30
0.000000
  70
    32
  0
VERTEX
  8
0
  5
17F7
 10
77.4841
 20
78.4645
 30
0.000000
  70
    32
  0
VERTEX
  8
0
  5
17F8
 10
77.4912
 20
78.4257
 30
0.000000
  70
    32
  0
VERTEX
  8
0
  5
17F9
 10
77.4985
 20
78.3869
 30
0.000000
  70
    32
  0
VERTEX
  8
0
  5
17FA
 10
77.5058
 20
78.3481
 30
0.000000
  70
    32
  0
VERTEX
  8
0
  5
17FB
 10
77.5133
 20
78.3094
 30
0.000000
  70
    32
  0
VERTEX
  8
0
  5
17FC
 10
77.5209
 20
78.2706
 30
0.000000
  70
    32
  0
VERTEX
  8
0
  5
17FD
 10
77.5287
 20
78.2319
 30
0.000000
  70
    32
  0
VERTEX
  8
0
  5
17FE
 10
77.5365
 20
78.1932
 30
0.000000
  70
    32
  0
VERTEX
  8
0
  5
17FF
 10
77.5446
 20
78.1545
 30
0.000000
  70
    32
  0
VERTEX
  8
0
  5
1800
 10
77.5527
 20
78.1159
 30
0.000000
  70
    32
  0
VERTEX
  8
0
  5
1801
 10
77.5610
 20
78.0772
 30
0.000000
  70
    32
  0
VERTEX
  8
0
  5
1802
 10
77.5694
 20
78.0386
 30
0.000000
  70
    32
  0
VERTEX
  8
0
  5
1803
 10
77.5780
 20
78.0000
 30
0.000000
  70
    32
  0
SEQEND
  8
0
  5
1804
  0
POLYLINE
  5
15D1
  8
0
 10
77.577980476267101
 20
88.000000000000028
 30
0.0
 66
     1
 70
     8
  0
VERTEX
  8
0
  5
1805
 10
77.5780
 20
88.0000
 30
0.000000
  70
    32
  0
VERTEX
  8
0
  5
1806
 10
77.5694
 20
87.9614
 30
0.000000
  70
    32
  0
VERTEX
  8
0
  5
1807
 10
77.5610
 20
87.9228
 30
0.000000
  70
    32
  0
VERTEX
  8
0
  5
1808
 10
77.5527
 20
87.8841
 30
0.000000
  70
    32
  0
VERTEX
  8
0
  5
1809
 10
77.5446
 20
87.8455
 30
0.000000
  70
    32
  0
VERTEX
  8
0
  5
180A
 10
77.5365
 20
87.8068
 30
0.000000
  70
    32
  0
VERTEX
  8
0
  5
180B
 10
77.5287
 20
87.7681
 30
0.000000
  70
    32
  0
VERTEX
  8
0
  5
180C
 10
77.5209
 20
87.7294
 30
0.000000
  70
    32
  0
VERTEX
  8
0
  5
180D
 10
77.5133
 20
87.6906
 30
0.000000
  70
    32
  0
VERTEX
  8
0
  5
180E
 10
77.5058
 20
87.6519
 30
0.000000
  70
    32
  0
VERTEX
  8
0
  5
180F
 10
77.4985
 20
87.6131
 30
0.000000
  70
    32
  0
VERTEX
  8
0
  5
1810
 10
77.4912
 20
87.5743
 30
0.000000
  70
    32
  0
VERTEX
  8
0
  5
1811
 10
77.4841
 20
87.5355
 30
0.000000
  70
    32
  0
VERTEX
  8
0
  5
1812
 10
77.4772
 20
87.4966
 30
0.000000
  70
    32
  0
VERTEX
  8
0
  5
1813
 10
77.4704
 20
87.4578
 30
0.000000
  70
    32
  0
VERTEX
  8
0
  5
1814
 10
77.4637
 20
87.4189
 30
0.000000
  70
    32
  0
VERTEX
  8
0
  5
1815
 10
77.4571
 20
87.3800
 30
0.000000
  70
    32
  0
VERTEX
  8
0
  5
1816
 10
77.4507
 20
87.3411
 30
0.000000
  70
    32
  0
VERTEX
  8
0
  5
1817
 10
77.4445
 20
87.3022
 30
0.000000
  70
    32
  0
VERTEX
  8
0
  5
1818
 10
77.4383
 20
87.2632
 30
0.000000
  70
    32
  0
VERTEX
  8
0
  5
1819
 10
77.4323
 20
87.2243
 30
0.000000
  70
    32
  0
VERTEX
  8
0
  5
181A
 10
77.4264
 20
87.1853
 30
0.000000
  70
    32
  0
VERTEX
  8
0
  5
181B
 10
77.4207
 20
87.1463
 30
0.000000
  70
    32
  0
VERTEX
  8
0
  5
181C
 10
77.4151
 20
87.1073
 30
0.000000
  70
    32
  0
VERTEX
  8
0
  5
181D
 10
77.4096
 20
87.0683
 30
0.000000
  70
    32
  0
VERTEX
  8
0
  5
181E
 10
77.4042
 20
87.0293
 30
0.000000
  70
    32
  0
VERTEX
  8
0
  5
181F
 10
77.3990
 20
86.9902
 30
0.000000
  70
    32
  0
VERTEX
  8
0
  5
1820
 10
77.3940
 20
86.9512
 30
0.000000
  70
    32
  0
VERTEX
  8
0
  5
1821
 10
77.3890
 20
86.9121
 30
0.000000
  70
    32
  0
VERTEX
  8
0
  5
1822
 10
77.3842
 20
86.8730
 30
0.000000
  70
    32
  0
VERTEX
  8
0
  5
1823
 10
77.3796
 20
86.8339
 30
0.000000
  70
    32
  0
VERTEX
  8
0
  5
1824
 10
77.3750
 20
86.7948
 30
0.000000
  70
    32
  0
VERTEX
  8
0
  5
1825
 10
77.3706
 20
86.7557
 30
0.000000
  70
    32
  0
VERTEX
  8
0
  5
1826
 10
77.3664
 20
86.7166
 30
0.000000
  70
    32
  0
VERTEX
  8
0
  5
1827
 10
77.3623
 20
86.6775
 30
0.000000
  70
    32
  0
VERTEX
  8
0
  5
1828
 10
77.3583
 20
86.6383
 30
0.000000
  70
    32
  0
VERTEX
  8
0
  5
1829
 10
77.3544
 20
86.5992
 30
0.000000
  70
    32
  0
VERTEX
  8
0
  5
182A
 10
77.3507
 20
86.5600
 30
0.000000
  70
    32
  0
VERTEX
  8
0
  5
182B
 10
77.3471
 20
86.5208
 30
0.000000
  70
    32
  0
VERTEX
  8
0
  5
182C
 10
77.3436
 20
86.4816
 30
0.000000
  70
    32
  0
VERTEX
  8
0
  5
182D
 10
77.3403
 20
86.4424
 30
0.000000
  70
    32
  0
VERTEX
  8
0
  5
182E
 10
77.3371
 20
86.4032
 30
0.000000
  70
    32
  0
VERTEX
  8
0
  5
182F
 10
77.3341
 20
86.3640
 30
0.000000
  70
    32
  0
VERTEX
  8
0
  5
1830
 10
77.3312
 20
86.3248
 30
0.000000
  70
    32
  0
VERTEX
  8
0
  5
1831
 10
77.3284
 20
86.2856
 30
0.000000
  70
    32
  0
VERTEX
  8
0
  5
1832
 10
77.3258
 20
86.2463
 30
0.000000
  70
    32
  0
VERTEX
  8
0
  5
1833
 10
77.3233
 20
86.2071
 30
0.000000
  70
    32
  0
VERTEX
  8
0
  5
1834
 10
77.3209
 20
86.1678
 30
0.000000
  70
    32
  0
VERTEX
  8
0
  5
1835
 10
77.3187
 20
86.1286
 30
0.000000
  70
    32
  0
VERTEX
  8
0
  5
1836
 10
77.3166
 20
86.0893
 30
0.000000
  70
    32
  0
VERTEX
  8
0
  5
1837
 10
77.3146
 20
86.0501
 30
0.000000
  70
    32
  0
VERTEX
  8
0
  5
1838
 10
77.3128
 20
86.0108
 30
0.000000
  70
    32
  0
VERTEX
  8
0
  5
1839
 10
77.3111
 20
85.9715
 30
0.000000
  70
    32
  0
VERTEX
  8
0
  5
183A
 10
77.3095
 20
85.9322
 30
0.000000
  70
    32
  0
VERTEX
  8
0
  5
183B
 10
77.3081
 20
85.8930
 30
0.000000
  70
    32
  0
VERTEX
  8
0
  5
183C
 10
77.3068
 20
85.8537
 30
0.000000
  70
    32
  0
VERTEX
  8
0
  5
183D
 10
77.3057
 20
85.8144
 30
0.000000
  70
    32
  0
VERTEX
  8
0
  5
183E
 10
77.3046
 20
85.7751
 30
0.000000
  70
    32
  0
VERTEX
  8
0
  5
183F
 10
77.3038
 20
85.7358
 30
0.000000
  70
    32
  0
VERTEX
  8
0
  5
1840
 10
77.3030
 20
85.6965
 30
0.000000
  70
    32
  0
VERTEX
  8
0
  5
1841
 10
77.3024
 20
85.6572
 30
0.000000
  70
    32
  0
VERTEX
  8
0
  5
1842
 10
77.3019
 20
85.6179
 30
0.000000
  70
    32
  0
VERTEX
  8
0
  5
1843
 10
77.3016
 20
85.5786
 30
0.000000
  70
    32
  0
VERTEX
  8
0
  5
1844
 10
77.3014
 20
85.5393
 30
0.000000
  70
    32
  0
VERTEX
  8
0
  5
1845
 10
77.3013
 20
85.5000
 30
0.000000
  70
    32
  0
VERTEX
  8
0
  5
1846
 10
77.3014
 20
85.4607
 30
0.000000
  70
    32
  0
VERTEX
  8
0
  5
1847
 10
77.3016
 20
85.4214
 30
0.000000
  70
    32
  0
VERTEX
  8
0
  5
1848
 10
77.3019
 20
85.3821
 30
0.000000
  70
    32
  0
VERTEX
  8
0
  5
1849
 10
77.3024
 20
85.3428
 30
0.000000
  70
    32
  0
VERTEX
  8
0
  5
184A
 10
77.3030
 20
85.3035
 30
0.000000
  70
    32
  0
VERTEX
  8
0
  5
184B
 10
77.3038
 20
85.2642
 30
0.000000
  70
    32
  0
VERTEX
  8
0
  5
184C
 10
77.3046
 20
85.2249
 30
0.000000
  70
    32
  0
VERTEX
  8
0
  5
184D
 10
77.3057
 20
85.1856
 30
0.000000
  70
    32
  0
VERTEX
  8
0
  5
184E
 10
77.3068
 20
85.1463
 30
0.000000
  70
    32
  0
VERTEX
  8
0
  5
184F
 10
77.3081
 20
85.1070
 30
0.000000
  70
    32
  0
VERTEX
  8
0
  5
1850
 10
77.3095
 20
85.0678
 30
0.000000
  70
    32
  0
VERTEX
  8
0
  5
1851
 10
77.3111
 20
85.0285
 30
0.000000
  70
    32
  0
VERTEX
  8
0
  5
1852
 10
77.3128
 20
84.9892
 30
0.000000
  70
    32
  0
VERTEX
  8
0
  5
1853
 10
77.3146
 20
84.9499
 30
0.000000
  70
    32
  0
VERTEX
  8
0
  5
1854
 10
77.3166
 20
84.9107
 30
0.000000
  70
    32
  0
VERTEX
  8
0
  5
1855
 10
77.3187
 20
84.8714
 30
0.000000
  70
    32
  0
VERTEX
  8
0
  5
1856
 10
77.3209
 20
84.8322
 30
0.000000
  70
    32
  0
VERTEX
  8
0
  5
1857
 10
77.3233
 20
84.7929
 30
0.000000
  70
    32
  0
VERTEX
  8
0
  5
1858
 10
77.3258
 20
84.7537
 30
0.000000
  70
    32
  0
VERTEX
  8
0
  5
1859
 10
77.3284
 20
84.7144
 30
0.000000
  70
    32
  0
VERTEX
  8
0
  5
185A
 10
77.3312
 20
84.6752
 30
0.000000
  70
    32
  0
VERTEX
  8
0
  5
185B
 10
77.3341
 20
84.6360
 30
0.000000
  70
    32
  0
VERTEX
  8
0
  5
185C
 10
77.3371
 20
84.5968
 30
0.000000
  70
    32
  0
VERTEX
  8
0
  5
185D
 10
77.3403
 20
84.5576
 30
0.000000
  70
    32
  0
VERTEX
  8
0
  5
185E
 10
77.3436
 20
84.5184
 30
0.000000
  70
    32
  0
VERTEX
  8
0
  5
185F
 10
77.3471
 20
84.4792
 30
0.000000
  70
    32
  0
VERTEX
  8
0
  5
1860
 10
77.3507
 20
84.4400
 30
0.000000
  70
    32
  0
VERTEX
  8
0
  5
1861
 10
77.3544
 20
84.4008
 30
0.000000
  70
    32
  0
VERTEX
  8
0
  5
1862
 10
77.3583
 20
84.3617
 30
0.000000
  70
    32
  0
VERTEX
  8
0
  5
1863
 10
77.3623
 20
84.3225
 30
0.000000
  70
    32
  0
VERTEX
  8
0
  5
1864
 10
77.3664
 20
84.2834
 30
0.000000
  70
    32
  0
VERTEX
  8
0
  5
1865
 10
77.3706
 20
84.2443
 30
0.000000
  70
    32
  0
VERTEX
  8
0
  5
1866
 10
77.3750
 20
84.2052
 30
0.000000
  70
    32
  0
VERTEX
  8
0
  5
1867
 10
77.3796
 20
84.1661
 30
0.000000
  70
    32
  0
VERTEX
  8
0
  5
1868
 10
77.3842
 20
84.1270
 30
0.000000
  70
    32
  0
VERTEX
  8
0
  5
1869
 10
77.3890
 20
84.0879
 30
0.000000
  70
    32
  0
VERTEX
  8
0
  5
186A
 10
77.3940
 20
84.0488
 30
0.000000
  70
    32
  0
VERTEX
  8
0
  5
186B
 10
77.3990
 20
84.0098
 30
0.000000
  70
    32
  0
VERTEX
  8
0
  5
186C
 10
77.4042
 20
83.9707
 30
0.000000
  70
    32
  0
VERTEX
  8
0
  5
186D
 10
77.4096
 20
83.9317
 30
0.000000
  70
    32
  0
VERTEX
  8
0
  5
186E
 10
77.4151
 20
83.8927
 30
0.000000
  70
    32
  0
VERTEX
  8
0
  5
186F
 10
77.4207
 20
83.8537
 30
0.000000
  70
    32
  0
VERTEX
  8
0
  5
1870
 10
77.4264
 20
83.8147
 30
0.000000
  70
    32
  0
VERTEX
  8
0
  5
1871
 10
77.4323
 20
83.7757
 30
0.000000
  70
    32
  0
VERTEX
  8
0
  5
1872
 10
77.4383
 20
83.7368
 30
0.000000
  70
    32
  0
VERTEX
  8
0
  5
1873
 10
77.4445
 20
83.6978
 30
0.000000
  70
    32
  0
VERTEX
  8
0
  5
1874
 10
77.4507
 20
83.6589
 30
0.000000
  70
    32
  0
VERTEX
  8
0
  5
1875
 10
77.4571
 20
83.6200
 30
0.000000
  70
    32
  0
VERTEX
  8
0
  5
1876
 10
77.4637
 20
83.5811
 30
0.000000
  70
    32
  0
VERTEX
  8
0
  5
1877
 10
77.4704
 20
83.5422
 30
0.000000
  70
    32
  0
VERTEX
  8
0
  5
1878
 10
77.4772
 20
83.5034
 30
0.000000
  70
    32
  0
VERTEX
  8
0
  5
1879
 10
77.4841
 20
83.4645
 30
0.000000
  70
    32
  0
VERTEX
  8
0
  5
187A
 10
77.4912
 20
83.4257
 30
0.000000
  70
    32
  0
VERTEX
  8
0
  5
187B
 10
77.4985
 20
83.3869
 30
0.000000
  70
    32
  0
VERTEX
  8
0
  5
187C
 10
77.5058
 20
83.3481
 30
0.000000
  70
    32
  0
VERTEX
  8
0
  5
187D
 10
77.5133
 20
83.3094
 30
0.000000
  70
    32
  0
VERTEX
  8
0
  5
187E
 10
77.5209
 20
83.2706
 30
0.000000
  70
    32
  0
VERTEX
  8
0
  5
187F
 10
77.5287
 20
83.2319
 30
0.000000
  70
    32
  0
VERTEX
  8
0
  5
1880
 10
77.5365
 20
83.1932
 30
0.000000
  70
    32
  0
VERTEX
  8
0
  5
1881
 10
77.5446
 20
83.1545
 30
0.000000
  70
    32
  0
VERTEX
  8
0
  5
1882
 10
77.5527
 20
83.1159
 30
0.000000
  70
    32
  0
VERTEX
  8
0
  5
1883
 10
77.5610
 20
83.0772
 30
0.000000
  70
    32
  0
VERTEX
  8
0
  5
1884
 10
77.5694
 20
83.0386
 30
0.000000
  70
    32
  0
VERTEX
  8
0
  5
1885
 10
77.5780
 20
83.0000
 30
0.000000
  70
    32
  0
SEQEND
  8
0
  5
1886
  0
ARC
  5
15D2
  8
0
 10
92.499999999999986
 20
83.0
 30
0.0
 40
15.999999999999959
 50
161.7900431357169
 51
198.20995686428299
  0
LINE
  5
15D3
  8
0
 10
81.299999999999997
 20
76.5
 30
0.0
 11
81.5
 21
76.5
 31
0.0
  0
LINE
  5
15D4
  8
0
 10
81.5
 20
89.500000000000014
 30
0.0
 11
81.299999999999997
 21
89.500000000000014
 31
0.0
  0
LINE
  5
15D5
  8
0
 10
81.5
 20
89.500000000000014
 30
0.0
 11
81.5
 21
76.5
 31
0.0
  0
LINE
  5
15D6
  8
0
 10
80.5
 20
76.961880215351698
 30
0.0
 11
80.5
 21
89.038119784648302
 31
0.0
  0
LINE
  5
15D7
  8
0
 10
80.5
 20
76.961880215351698
 30
0.0
 11
81.299999999999997
 21
76.5
 31
0.0
  0
LINE
  5
15D8
  8
0
 10
81.299999999999997
 20
89.500000000000014
 30
0.0
 11
80.5
 21
89.038119784648302
 31
0.0
  0
LINE
  5
15D9
  8
0
 10
81.299999999999997
 20
89.500000000000014
 30
0.0
 11
81.299999999999997
 21
76.5
 31
0.0
  0
LINE
  5
15DA
  8
3
 10
97.5
 20
85.386500000000026
 30
0.0
 11
90.786500000000004
 21
85.386500000000026
 31
0.0
  0
LINE
  5
15DC
  8
3
 10
97.5
 20
80.613499999999988
 30
0.0
 11
90.786500000000004
 21
80.613499999999988
 31
0.0
  0
CIRCLE
  5
15EA
  8
0
 10
40.0
 20
40.0
 30
0.0
 40
6.5
  0
CIRCLE
  5
15EB
  8
0
 10
40.0
 20
40.0
 30
0.0
 40
6.0381197846482992
  0
LINE
  5
15EC
  8
0
 10
45.0
 20
42.886751345948113
 30
0.0
 11
40.0
 21
45.773502691896248
 31
0.0
  0
LINE
  5
15ED
  8
0
 10
40.0
 20
45.773502691896248
 30
0.0
 11
35.0
 21
42.886751345948113
 31
0.0
  0
LINE
  5
15EE
  8
0
 10
35.0
 20
42.886751345948113
 30
0.0
 11
35.0
 21
37.113248654051873
 31
0.0
  0
LINE
  5
15EF
  8
0
 10
35.0
 20
37.113248654051873
 30
0.0
 11
40.0
 21
34.226497308103731
 31
0.0
  0
LINE
  5
15F0
  8
0
 10
40.0
 20
34.226497308103731
 30
0.0
 11
45.0
 21
37.113248654051873
 31
0.0
  0
LINE
  5
15F1
  8
0
 10
45.0
 20
37.113248654051873
 30
0.0
 11
45.0
 21
42.886751345948113
 31
0.0
  0
LINE
  5
15F6
  8
0
 10
82.100000000000023
 20
37.900000000000013
 30
0.0
 11
90.500000000000014
 21
37.900000000000013
 31
0.0
  0
LINE
  5
15F7
  8
0
 10
90.500000000000014
 20
42.099999999999987
 30
0.0
 11
82.100000000000023
 21
42.099999999999987
 31
0.0
  0
ARC
  5
15F9
  8
0
 10
82.100000000000023
 20
37.300000000000011
 30
0.0
 40
0.6000000000000001
 50
90.0
 51
180.0
  0
ARC
  5
15FA
  8
0
 10
82.100000000000023
 20
42.699999999999982
 30
0.0
 40
0.5999999999999995
 50
180.0
 51
270.0
  0
LINE
  5
15FB
  8
0
 10
91.400000000000006
 20
37.0
 30
0.0
 11
96.886500000000026
 21
37.0
 31
0.0
  0
LINE
  5
15FC
  8
0
 10
96.886500000000026
 20
43.0
 30
0.0
 11
91.400000000000006
 21
43.0
 31
0.0
  0
LINE
  5
15FD
  8
0
 10
91.400000000000006
 20
43.0
 30
0.0
 11
91.400000000000006
 21
37.0
 31
0.0
  0
LINE
  5
15FE
  8
0
 10
90.500000000000014
 20
42.099999999999987
 30
0.0
 11
90.500000000000014
 21
37.900000000000013
 31
0.0
  0
LINE
  5
15FF
  8
0
 10
90.500000000000014
 20
37.900000000000013
 30
0.0
 11
91.400000000000006
 21
37.0
 31
0.0
  0
LINE
  5
1600
  8
0
 10
91.400000000000006
 20
43.0
 30
0.0
 11
90.500000000000014
 21
42.099999999999987
 31
0.0
  0
LINE
  5
1601
  8
0
 10
97.500000000000028
 20
42.386500000000012
 30
0.0
 11
97.500000000000028
 21
37.613499999999988
 31
0.0
  0
LINE
  5
1602
  8
0
 10
96.886500000000026
 20
43.0
 30
0.0
 11
96.886500000000026
 21
37.0
 31
0.0
  0
LINE
  5
1603
  8
0
 10
97.500000000000028
 20
42.386500000000012
 30
0.0
 11
96.886500000000026
 21
43.0
 31
0.0
  0
LINE
  5
1604
  8
0
 10
96.886500000000026
 20
37.0
 30
0.0
 11
97.500000000000028
 21
37.613499999999988
 31
0.0
  0
LINE
  5
1605
  8
0
 10
80.500000000000014
 20
45.773502691896248
 30
0.0
 11
77.577980476267072
 21
45.773502691896248
 31
0.0
  0
LINE
  5
1606
  8
0
 10
80.500000000000014
 20
34.226497308103752
 30
0.0
 11
77.577980476267072
 21
34.226497308103752
 31
0.0
  0
LINE
  5
1607
  8
0
 10
80.500000000000014
 20
37.113248654051858
 30
0.0
 11
77.577980476267072
 21
37.113248654051858
 31
0.0
  0
LINE
  5
1608
  8
0
 10
80.500000000000014
 20
42.886751345948127
 30
0.0
 11
77.577980476267072
 21
42.886751345948127
 31
0.0
  0
POLYLINE
  5
1609
  8
0
 10
77.577980476267115
 20
45.773502691896248
 30
0.0
 66
     1
 70
     8
  0
VERTEX
  8
0
  5
1887
 10
77.5780
 20
45.7735
 30
0.000000
  70
    32
  0
VERTEX
  8
0
  5
1888
 10
77.5694
 20
45.7512
 30
0.000000
  70
    32
  0
VERTEX
  8
0
  5
1889
 10
77.5610
 20
45.7289
 30
0.000000
  70
    32
  0
VERTEX
  8
0
  5
188A
 10
77.5527
 20
45.7066
 30
0.000000
  70
    32
  0
VERTEX
  8
0
  5
188B
 10
77.5446
 20
45.6843
 30
0.000000
  70
    32
  0
VERTEX
  8
0
  5
188C
 10
77.5365
 20
45.6620
 30
0.000000
  70
    32
  0
VERTEX
  8
0
  5
188D
 10
77.5287
 20
45.6396
 30
0.000000
  70
    32
  0
VERTEX
  8
0
  5
188E
 10
77.5209
 20
45.6173
 30
0.000000
  70
    32
  0
VERTEX
  8
0
  5
188F
 10
77.5133
 20
45.5949
 30
0.000000
  70
    32
  0
VERTEX
  8
0
  5
1890
 10
77.5058
 20
45.5725
 30
0.000000
  70
    32
  0
VERTEX
  8
0
  5
1891
 10
77.4985
 20
45.5501
 30
0.000000
  70
    32
  0
VERTEX
  8
0
  5
1892
 10
77.4912
 20
45.5277
 30
0.000000
  70
    32
  0
VERTEX
  8
0
  5
1893
 10
77.4841
 20
45.5053
 30
0.000000
  70
    32
  0
VERTEX
  8
0
  5
1894
 10
77.4772
 20
45.4829
 30
0.000000
  70
    32
  0
VERTEX
  8
0
  5
1895
 10
77.4704
 20
45.4604
 30
0.000000
  70
    32
  0
VERTEX
  8
0
  5
1896
 10
77.4637
 20
45.4380
 30
0.000000
  70
    32
  0
VERTEX
  8
0
  5
1897
 10
77.4571
 20
45.4156
 30
0.000000
  70
    32
  0
VERTEX
  8
0
  5
1898
 10
77.4507
 20
45.3931
 30
0.000000
  70
    32
  0
VERTEX
  8
0
  5
1899
 10
77.4445
 20
45.3706
 30
0.000000
  70
    32
  0
VERTEX
  8
0
  5
189A
 10
77.4383
 20
45.3481
 30
0.000000
  70
    32
  0
VERTEX
  8
0
  5
189B
 10
77.4323
 20
45.3256
 30
0.000000
  70
    32
  0
VERTEX
  8
0
  5
189C
 10
77.4264
 20
45.3031
 30
0.000000
  70
    32
  0
VERTEX
  8
0
  5
189D
 10
77.4207
 20
45.2806
 30
0.000000
  70
    32
  0
VERTEX
  8
0
  5
189E
 10
77.4151
 20
45.2581
 30
0.000000
  70
    32
  0
VERTEX
  8
0
  5
189F
 10
77.4096
 20
45.2356
 30
0.000000
  70
    32
  0
VERTEX
  8
0
  5
18A0
 10
77.4042
 20
45.2131
 30
0.000000
  70
    32
  0
VERTEX
  8
0
  5
18A1
 10
77.3990
 20
45.1905
 30
0.000000
  70
    32
  0
VERTEX
  8
0
  5
18A2
 10
77.3940
 20
45.1680
 30
0.000000
  70
    32
  0
VERTEX
  8
0
  5
18A3
 10
77.3890
 20
45.1454
 30
0.000000
  70
    32
  0
VERTEX
  8
0
  5
18A4
 10
77.3842
 20
45.1229
 30
0.000000
  70
    32
  0
VERTEX
  8
0
  5
18A5
 10
77.3796
 20
45.1003
 30
0.000000
  70
    32
  0
VERTEX
  8
0
  5
18A6
 10
77.3750
 20
45.0777
 30
0.000000
  70
    32
  0
VERTEX
  8
0
  5
18A7
 10
77.3706
 20
45.0551
 30
0.000000
  70
    32
  0
VERTEX
  8
0
  5
18A8
 10
77.3664
 20
45.0325
 30
0.000000
  70
    32
  0
VERTEX
  8
0
  5
18A9
 10
77.3623
 20
45.0099
 30
0.000000
  70
    32
  0
VERTEX
  8
0
  5
18AA
 10
77.3583
 20
44.9873
 30
0.000000
  70
    32
  0
VERTEX
  8
0
  5
18AB
 10
77.3544
 20
44.9647
 30
0.000000
  70
    32
  0
VERTEX
  8
0
  5
18AC
 10
77.3507
 20
44.9421
 30
0.000000
  70
    32
  0
VERTEX
  8
0
  5
18AD
 10
77.3471
 20
44.9195
 30
0.000000
  70
    32
  0
VERTEX
  8
0
  5
18AE
 10
77.3436
 20
44.8969
 30
0.000000
  70
    32
  0
VERTEX
  8
0
  5
18AF
 10
77.3403
 20
44.8742
 30
0.000000
  70
    32
  0
VERTEX
  8
0
  5
18B0
 10
77.3371
 20
44.8516
 30
0.000000
  70
    32
  0
VERTEX
  8
0
  5
18B1
 10
77.3341
 20
44.8290
 30
0.000000
  70
    32
  0
VERTEX
  8
0
  5
18B2
 10
77.3312
 20
44.8063
 30
0.000000
  70
    32
  0
VERTEX
  8
0
  5
18B3
 10
77.3284
 20
44.7837
 30
0.000000
  70
    32
  0
VERTEX
  8
0
  5
18B4
 10
77.3258
 20
44.7610
 30
0.000000
  70
    32
  0
VERTEX
  8
0
  5
18B5
 10
77.3233
 20
44.7384
 30
0.000000
  70
    32
  0
VERTEX
  8
0
  5
18B6
 10
77.3209
 20
44.7157
 30
0.000000
  70
    32
  0
VERTEX
  8
0
  5
18B7
 10
77.3187
 20
44.6930
 30
0.000000
  70
    32
  0
VERTEX
  8
0
  5
18B8
 10
77.3166
 20
44.6704
 30
0.000000
  70
    32
  0
VERTEX
  8
0
  5
18B9
 10
77.3146
 20
44.6477
 30
0.000000
  70
    32
  0
VERTEX
  8
0
  5
18BA
 10
77.3128
 20
44.6250
 30
0.000000
  70
    32
  0
VERTEX
  8
0
  5
18BB
 10
77.3111
 20
44.6024
 30
0.000000
  70
    32
  0
VERTEX
  8
0
  5
18BC
 10
77.3095
 20
44.5797
 30
0.000000
  70
    32
  0
VERTEX
  8
0
  5
18BD
 10
77.3081
 20
44.5570
 30
0.000000
  70
    32
  0
VERTEX
  8
0
  5
18BE
 10
77.3068
 20
44.5343
 30
0.000000
  70
    32
  0
VERTEX
  8
0
  5
18BF
 10
77.3057
 20
44.5116
 30
0.000000
  70
    32
  0
VERTEX
  8
0
  5
18C0
 10
77.3046
 20
44.4889
 30
0.000000
  70
    32
  0
VERTEX
  8
0
  5
18C1
 10
77.3038
 20
44.4663
 30
0.000000
  70
    32
  0
VERTEX
  8
0
  5
18C2
 10
77.3030
 20
44.4436
 30
0.000000
  70
    32
  0
VERTEX
  8
0
  5
18C3
 10
77.3024
 20
44.4209
 30
0.000000
  70
    32
  0
VERTEX
  8
0
  5
18C4
 10
77.3019
 20
44.3982
 30
0.000000
  70
    32
  0
VERTEX
  8
0
  5
18C5
 10
77.3016
 20
44.3755
 30
0.000000
  70
    32
  0
VERTEX
  8
0
  5
18C6
 10
77.3014
 20
44.3528
 30
0.000000
  70
    32
  0
VERTEX
  8
0
  5
18C7
 10
77.3013
 20
44.3301
 30
0.000000
  70
    32
  0
VERTEX
  8
0
  5
18C8
 10
77.3014
 20
44.3074
 30
0.000000
  70
    32
  0
VERTEX
  8
0
  5
18C9
 10
77.3016
 20
44.2847
 30
0.000000
  70
    32
  0
VERTEX
  8
0
  5
18CA
 10
77.3019
 20
44.2621
 30
0.000000
  70
    32
  0
VERTEX
  8
0
  5
18CB
 10
77.3024
 20
44.2394
 30
0.000000
  70
    32
  0
VERTEX
  8
0
  5
18CC
 10
77.3030
 20
44.2167
 30
0.000000
  70
    32
  0
VERTEX
  8
0
  5
18CD
 10
77.3038
 20
44.1940
 30
0.000000
  70
    32
  0
VERTEX
  8
0
  5
18CE
 10
77.3046
 20
44.1713
 30
0.000000
  70
    32
  0
VERTEX
  8
0
  5
18CF
 10
77.3057
 20
44.1486
 30
0.000000
  70
    32
  0
VERTEX
  8
0
  5
18D0
 10
77.3068
 20
44.1259
 30
0.000000
  70
    32
  0
VERTEX
  8
0
  5
18D1
 10
77.3081
 20
44.1033
 30
0.000000
  70
    32
  0
VERTEX
  8
0
  5
18D2
 10
77.3095
 20
44.0806
 30
0.000000
  70
    32
  0
VERTEX
  8
0
  5
18D3
 10
77.3111
 20
44.0579
 30
0.000000
  70
    32
  0
VERTEX
  8
0
  5
18D4
 10
77.3128
 20
44.0352
 30
0.000000
  70
    32
  0
VERTEX
  8
0
  5
18D5
 10
77.3146
 20
44.0126
 30
0.000000
  70
    32
  0
VERTEX
  8
0
  5
18D6
 10
77.3166
 20
43.9899
 30
0.000000
  70
    32
  0
VERTEX
  8
0
  5
18D7
 10
77.3187
 20
43.9672
 30
0.000000
  70
    32
  0
VERTEX
  8
0
  5
18D8
 10
77.3209
 20
43.9446
 30
0.000000
  70
    32
  0
VERTEX
  8
0
  5
18D9
 10
77.3233
 20
43.9219
 30
0.000000
  70
    32
  0
VERTEX
  8
0
  5
18DA
 10
77.3258
 20
43.8992
 30
0.000000
  70
    32
  0
VERTEX
  8
0
  5
18DB
 10
77.3284
 20
43.8766
 30
0.000000
  70
    32
  0
VERTEX
  8
0
  5
18DC
 10
77.3312
 20
43.8539
 30
0.000000
  70
    32
  0
VERTEX
  8
0
  5
18DD
 10
77.3341
 20
43.8313
 30
0.000000
  70
    32
  0
VERTEX
  8
0
  5
18DE
 10
77.3371
 20
43.8087
 30
0.000000
  70
    32
  0
VERTEX
  8
0
  5
18DF
 10
77.3403
 20
43.7860
 30
0.000000
  70
    32
  0
VERTEX
  8
0
  5
18E0
 10
77.3436
 20
43.7634
 30
0.000000
  70
    32
  0
VERTEX
  8
0
  5
18E1
 10
77.3471
 20
43.7408
 30
0.000000
  70
    32
  0
VERTEX
  8
0
  5
18E2
 10
77.3507
 20
43.7181
 30
0.000000
  70
    32
  0
VERTEX
  8
0
  5
18E3
 10
77.3544
 20
43.6955
 30
0.000000
  70
    32
  0
VERTEX
  8
0
  5
18E4
 10
77.3583
 20
43.6729
 30
0.000000
  70
    32
  0
VERTEX
  8
0
  5
18E5
 10
77.3623
 20
43.6503
 30
0.000000
  70
    32
  0
VERTEX
  8
0
  5
18E6
 10
77.3664
 20
43.6277
 30
0.000000
  70
    32
  0
VERTEX
  8
0
  5
18E7
 10
77.3706
 20
43.6051
 30
0.000000
  70
    32
  0
VERTEX
  8
0
  5
18E8
 10
77.3750
 20
43.5825
 30
0.000000
  70
    32
  0
VERTEX
  8
0
  5
18E9
 10
77.3796
 20
43.5600
 30
0.000000
  70
    32
  0
VERTEX
  8
0
  5
18EA
 10
77.3842
 20
43.5374
 30
0.000000
  70
    32
  0
VERTEX
  8
0
  5
18EB
 10
77.3890
 20
43.5148
 30
0.000000
  70
    32
  0
VERTEX
  8
0
  5
18EC
 10
77.3940
 20
43.4923
 30
0.000000
  70
    32
  0
VERTEX
  8
0
  5
18ED
 10
77.3990
 20
43.4697
 30
0.000000
  70
    32
  0
VERTEX
  8
0
  5
18EE
 10
77.4042
 20
43.4472
 30
0.000000
  70
    32
  0
VERTEX
  8
0
  5
18EF
 10
77.4096
 20
43.4247
 30
0.000000
  70
    32
  0
VERTEX
  8
0
  5
18F0
 10
77.4151
 20
43.4021
 30
0.000000
  70
    32
  0
VERTEX
  8
0
  5
18F1
 10
77.4207
 20
43.3796
 30
0.000000
  70
    32
  0
VERTEX
  8
0
  5
18F2
 10
77.4264
 20
43.3571
 30
0.000000
  70
    32
  0
VERTEX
  8
0
  5
18F3
 10
77.4323
 20
43.3346
 30
0.000000
  70
    32
  0
VERTEX
  8
0
  5
18F4
 10
77.4383
 20
43.3121
 30
0.000000
  70
    32
  0
VERTEX
  8
0
  5
18F5
 10
77.4445
 20
43.2896
 30
0.000000
  70
    32
  0
VERTEX
  8
0
  5
18F6
 10
77.4507
 20
43.2672
 30
0.000000
  70
    32
  0
VERTEX
  8
0
  5
18F7
 10
77.4571
 20
43.2447
 30
0.000000
  70
    32
  0
VERTEX
  8
0
  5
18F8
 10
77.4637
 20
43.2223
 30
0.000000
  70
    32
  0
VERTEX
  8
0
  5
18F9
 10
77.4704
 20
43.1998
 30
0.000000
  70
    32
  0
VERTEX
  8
0
  5
18FA
 10
77.4772
 20
43.1774
 30
0.000000
  70
    32
  0
VERTEX
  8
0
  5
18FB
 10
77.4841
 20
43.1550
 30
0.000000
  70
    32
  0
VERTEX
  8
0
  5
18FC
 10
77.4912
 20
43.1325
 30
0.000000
  70
    32
  0
VERTEX
  8
0
  5
18FD
 10
77.4985
 20
43.1101
 30
0.000000
  70
    32
  0
VERTEX
  8
0
  5
18FE
 10
77.5058
 20
43.0877
 30
0.000000
  70
    32
  0
VERTEX
  8
0
  5
18FF
 10
77.5133
 20
43.0654
 30
0.000000
  70
    32
  0
VERTEX
  8
0
  5
1900
 10
77.5209
 20
43.0430
 30
0.000000
  70
    32
  0
VERTEX
  8
0
  5
1901
 10
77.5287
 20
43.0206
 30
0.000000
  70
    32
  0
VERTEX
  8
0
  5
1902
 10
77.5365
 20
42.9983
 30
0.000000
  70
    32
  0
VERTEX
  8
0
  5
1903
 10
77.5446
 20
42.9760
 30
0.000000
  70
    32
  0
VERTEX
  8
0
  5
1904
 10
77.5527
 20
42.9536
 30
0.000000
  70
    32
  0
VERTEX
  8
0
  5
1905
 10
77.5610
 20
42.9313
 30
0.000000
  70
    32
  0
VERTEX
  8
0
  5
1906
 10
77.5694
 20
42.9090
 30
0.000000
  70
    32
  0
VERTEX
  8
0
  5
1907
 10
77.5780
 20
42.8868
 30
0.000000
  70
    32
  0
SEQEND
  8
0
  5
1908
  0
POLYLINE
  5
160A
  8
0
 10
77.577980476267101
 20
37.113248654051858
 30
0.0
 66
     1
 70
     8
  0
VERTEX
  8
0
  5
1909
 10
77.5780
 20
37.1132
 30
0.000000
  70
    32
  0
VERTEX
  8
0
  5
190A
 10
77.5694
 20
37.0910
 30
0.000000
  70
    32
  0
VERTEX
  8
0
  5
190B
 10
77.5610
 20
37.0687
 30
0.000000
  70
    32
  0
VERTEX
  8
0
  5
190C
 10
77.5527
 20
37.0464
 30
0.000000
  70
    32
  0
VERTEX
  8
0
  5
190D
 10
77.5446
 20
37.0240
 30
0.000000
  70
    32
  0
VERTEX
  8
0
  5
190E
 10
77.5365
 20
37.0017
 30
0.000000
  70
    32
  0
VERTEX
  8
0
  5
190F
 10
77.5287
 20
36.9794
 30
0.000000
  70
    32
  0
VERTEX
  8
0
  5
1910
 10
77.5209
 20
36.9570
 30
0.000000
  70
    32
  0
VERTEX
  8
0
  5
1911
 10
77.5133
 20
36.9346
 30
0.000000
  70
    32
  0
VERTEX
  8
0
  5
1912
 10
77.5058
 20
36.9123
 30
0.000000
  70
    32
  0
VERTEX
  8
0
  5
1913
 10
77.4985
 20
36.8899
 30
0.000000
  70
    32
  0
VERTEX
  8
0
  5
1914
 10
77.4912
 20
36.8675
 30
0.000000
  70
    32
  0
VERTEX
  8
0
  5
1915
 10
77.4841
 20
36.8450
 30
0.000000
  70
    32
  0
VERTEX
  8
0
  5
1916
 10
77.4772
 20
36.8226
 30
0.000000
  70
    32
  0
VERTEX
  8
0
  5
1917
 10
77.4704
 20
36.8002
 30
0.000000
  70
    32
  0
VERTEX
  8
0
  5
1918
 10
77.4637
 20
36.7777
 30
0.000000
  70
    32
  0
VERTEX
  8
0
  5
1919
 10
77.4571
 20
36.7553
 30
0.000000
  70
    32
  0
VERTEX
  8
0
  5
191A
 10
77.4507
 20
36.7328
 30
0.000000
  70
    32
  0
VERTEX
  8
0
  5
191B
 10
77.4445
 20
36.7104
 30
0.000000
  70
    32
  0
VERTEX
  8
0
  5
191C
 10
77.4383
 20
36.6879
 30
0.000000
  70
    32
  0
VERTEX
  8
0
  5
191D
 10
77.4323
 20
36.6654
 30
0.000000
  70
    32
  0
VERTEX
  8
0
  5
191E
 10
77.4264
 20
36.6429
 30
0.000000
  70
    32
  0
VERTEX
  8
0
  5
191F
 10
77.4207
 20
36.6204
 30
0.000000
  70
    32
  0
VERTEX
  8
0
  5
1920
 10
77.4151
 20
36.5979
 30
0.000000
  70
    32
  0
VERTEX
  8
0
  5
1921
 10
77.4096
 20
36.5753
 30
0.000000
  70
    32
  0
VERTEX
  8
0
  5
1922
 10
77.4042
 20
36.5528
 30
0.000000
  70
    32
  0
VERTEX
  8
0
  5
1923
 10
77.3990
 20
36.5303
 30
0.000000
  70
    32
  0
VERTEX
  8
0
  5
1924
 10
77.3940
 20
36.5077
 30
0.000000
  70
    32
  0
VERTEX
  8
0
  5
1925
 10
77.3890
 20
36.4852
 30
0.000000
  70
    32
  0
VERTEX
  8
0
  5
1926
 10
77.3842
 20
36.4626
 30
0.000000
  70
    32
  0
VERTEX
  8
0
  5
1927
 10
77.3796
 20
36.4400
 30
0.000000
  70
    32
  0
VERTEX
  8
0
  5
1928
 10
77.3750
 20
36.4175
 30
0.000000
  70
    32
  0
VERTEX
  8
0
  5
1929
 10
77.3706
 20
36.3949
 30
0.000000
  70
    32
  0
VERTEX
  8
0
  5
192A
 10
77.3664
 20
36.3723
 30
0.000000
  70
    32
  0
VERTEX
  8
0
  5
192B
 10
77.3623
 20
36.3497
 30
0.000000
  70
    32
  0
VERTEX
  8
0
  5
192C
 10
77.3583
 20
36.3271
 30
0.000000
  70
    32
  0
VERTEX
  8
0
  5
192D
 10
77.3544
 20
36.3045
 30
0.000000
  70
    32
  0
VERTEX
  8
0
  5
192E
 10
77.3507
 20
36.2819
 30
0.000000
  70
    32
  0
VERTEX
  8
0
  5
192F
 10
77.3471
 20
36.2592
 30
0.000000
  70
    32
  0
VERTEX
  8
0
  5
1930
 10
77.3436
 20
36.2366
 30
0.000000
  70
    32
  0
VERTEX
  8
0
  5
1931
 10
77.3403
 20
36.2140
 30
0.000000
  70
    32
  0
VERTEX
  8
0
  5
1932
 10
77.3371
 20
36.1913
 30
0.000000
  70
    32
  0
VERTEX
  8
0
  5
1933
 10
77.3341
 20
36.1687
 30
0.000000
  70
    32
  0
VERTEX
  8
0
  5
1934
 10
77.3312
 20
36.1461
 30
0.000000
  70
    32
  0
VERTEX
  8
0
  5
1935
 10
77.3284
 20
36.1234
 30
0.000000
  70
    32
  0
VERTEX
  8
0
  5
1936
 10
77.3258
 20
36.1008
 30
0.000000
  70
    32
  0
VERTEX
  8
0
  5
1937
 10
77.3233
 20
36.0781
 30
0.000000
  70
    32
  0
VERTEX
  8
0
  5
1938
 10
77.3209
 20
36.0554
 30
0.000000
  70
    32
  0
VERTEX
  8
0
  5
1939
 10
77.3187
 20
36.0328
 30
0.000000
  70
    32
  0
VERTEX
  8
0
  5
193A
 10
77.3166
 20
36.0101
 30
0.000000
  70
    32
  0
VERTEX
  8
0
  5
193B
 10
77.3146
 20
35.9874
 30
0.000000
  70
    32
  0
VERTEX
  8
0
  5
193C
 10
77.3128
 20
35.9648
 30
0.000000
  70
    32
  0
VERTEX
  8
0
  5
193D
 10
77.3111
 20
35.9421
 30
0.000000
  70
    32
  0
VERTEX
  8
0
  5
193E
 10
77.3095
 20
35.9194
 30
0.000000
  70
    32
  0
VERTEX
  8
0
  5
193F
 10
77.3081
 20
35.8967
 30
0.000000
  70
    32
  0
VERTEX
  8
0
  5
1940
 10
77.3068
 20
35.8741
 30
0.000000
  70
    32
  0
VERTEX
  8
0
  5
1941
 10
77.3057
 20
35.8514
 30
0.000000
  70
    32
  0
VERTEX
  8
0
  5
1942
 10
77.3046
 20
35.8287
 30
0.000000
  70
    32
  0
VERTEX
  8
0
  5
1943
 10
77.3038
 20
35.8060
 30
0.000000
  70
    32
  0
VERTEX
  8
0
  5
1944
 10
77.3030
 20
35.7833
 30
0.000000
  70
    32
  0
VERTEX
  8
0
  5
1945
 10
77.3024
 20
35.7606
 30
0.000000
  70
    32
  0
VERTEX
  8
0
  5
1946
 10
77.3019
 20
35.7379
 30
0.000000
  70
    32
  0
VERTEX
  8
0
  5
1947
 10
77.3016
 20
35.7153
 30
0.000000
  70
    32
  0
VERTEX
  8
0
  5
1948
 10
77.3014
 20
35.6926
 30
0.000000
  70
    32
  0
VERTEX
  8
0
  5
1949
 10
77.3013
 20
35.6699
 30
0.000000
  70
    32
  0
VERTEX
  8
0
  5
194A
 10
77.3014
 20
35.6472
 30
0.000000
  70
    32
  0
VERTEX
  8
0
  5
194B
 10
77.3016
 20
35.6245
 30
0.000000
  70
    32
  0
VERTEX
  8
0
  5
194C
 10
77.3019
 20
35.6018
 30
0.000000
  70
    32
  0
VERTEX
  8
0
  5
194D
 10
77.3024
 20
35.5791
 30
0.000000
  70
    32
  0
VERTEX
  8
0
  5
194E
 10
77.3030
 20
35.5564
 30
0.000000
  70
    32
  0
VERTEX
  8
0
  5
194F
 10
77.3038
 20
35.5337
 30
0.000000
  70
    32
  0
VERTEX
  8
0
  5
1950
 10
77.3046
 20
35.5111
 30
0.000000
  70
    32
  0
VERTEX
  8
0
  5
1951
 10
77.3057
 20
35.4884
 30
0.000000
  70
    32
  0
VERTEX
  8
0
  5
1952
 10
77.3068
 20
35.4657
 30
0.000000
  70
    32
  0
VERTEX
  8
0
  5
1953
 10
77.3081
 20
35.4430
 30
0.000000
  70
    32
  0
VERTEX
  8
0
  5
1954
 10
77.3095
 20
35.4203
 30
0.000000
  70
    32
  0
VERTEX
  8
0
  5
1955
 10
77.3111
 20
35.3976
 30
0.000000
  70
    32
  0
VERTEX
  8
0
  5
1956
 10
77.3128
 20
35.3750
 30
0.000000
  70
    32
  0
VERTEX
  8
0
  5
1957
 10
77.3146
 20
35.3523
 30
0.000000
  70
    32
  0
VERTEX
  8
0
  5
1958
 10
77.3166
 20
35.3296
 30
0.000000
  70
    32
  0
VERTEX
  8
0
  5
1959
 10
77.3187
 20
35.3070
 30
0.000000
  70
    32
  0
VERTEX
  8
0
  5
195A
 10
77.3209
 20
35.2843
 30
0.000000
  70
    32
  0
VERTEX
  8
0
  5
195B
 10
77.3233
 20
35.2616
 30
0.000000
  70
    32
  0
VERTEX
  8
0
  5
195C
 10
77.3258
 20
35.2390
 30
0.000000
  70
    32
  0
VERTEX
  8
0
  5
195D
 10
77.3284
 20
35.2163
 30
0.000000
  70
    32
  0
VERTEX
  8
0
  5
195E
 10
77.3312
 20
35.1937
 30
0.000000
  70
    32
  0
VERTEX
  8
0
  5
195F
 10
77.3341
 20
35.1710
 30
0.000000
  70
    32
  0
VERTEX
  8
0
  5
1960
 10
77.3371
 20
35.1484
 30
0.000000
  70
    32
  0
VERTEX
  8
0
  5
1961
 10
77.3403
 20
35.1258
 30
0.000000
  70
    32
  0
VERTEX
  8
0
  5
1962
 10
77.3436
 20
35.1031
 30
0.000000
  70
    32
  0
VERTEX
  8
0
  5
1963
 10
77.3471
 20
35.0805
 30
0.000000
  70
    32
  0
VERTEX
  8
0
  5
1964
 10
77.3507
 20
35.0579
 30
0.000000
  70
    32
  0
VERTEX
  8
0
  5
1965
 10
77.3544
 20
35.0353
 30
0.000000
  70
    32
  0
VERTEX
  8
0
  5
1966
 10
77.3583
 20
35.0127
 30
0.000000
  70
    32
  0
VERTEX
  8
0
  5
1967
 10
77.3623
 20
34.9901
 30
0.000000
  70
    32
  0
VERTEX
  8
0
  5
1968
 10
77.3664
 20
34.9675
 30
0.000000
  70
    32
  0
VERTEX
  8
0
  5
1969
 10
77.3706
 20
34.9449
 30
0.000000
  70
    32
  0
VERTEX
  8
0
  5
196A
 10
77.3750
 20
34.9223
 30
0.000000
  70
    32
  0
VERTEX
  8
0
  5
196B
 10
77.3796
 20
34.8997
 30
0.000000
  70
    32
  0
VERTEX
  8
0
  5
196C
 10
77.3842
 20
34.8771
 30
0.000000
  70
    32
  0
VERTEX
  8
0
  5
196D
 10
77.3890
 20
34.8546
 30
0.000000
  70
    32
  0
VERTEX
  8
0
  5
196E
 10
77.3940
 20
34.8320
 30
0.000000
  70
    32
  0
VERTEX
  8
0
  5
196F
 10
77.3990
 20
34.8095
 30
0.000000
  70
    32
  0
VERTEX
  8
0
  5
1970
 10
77.4042
 20
34.7869
 30
0.000000
  70
    32
  0
VERTEX
  8
0
  5
1971
 10
77.4096
 20
34.7644
 30
0.000000
  70
    32
  0
VERTEX
  8
0
  5
1972
 10
77.4151
 20
34.7419
 30
0.000000
  70
    32
  0
VERTEX
  8
0
  5
1973
 10
77.4207
 20
34.7194
 30
0.000000
  70
    32
  0
VERTEX
  8
0
  5
1974
 10
77.4264
 20
34.6969
 30
0.000000
  70
    32
  0
VERTEX
  8
0
  5
1975
 10
77.4323
 20
34.6744
 30
0.000000
  70
    32
  0
VERTEX
  8
0
  5
1976
 10
77.4383
 20
34.6519
 30
0.000000
  70
    32
  0
VERTEX
  8
0
  5
1977
 10
77.4445
 20
34.6294
 30
0.000000
  70
    32
  0
VERTEX
  8
0
  5
1978
 10
77.4507
 20
34.6069
 30
0.000000
  70
    32
  0
VERTEX
  8
0
  5
1979
 10
77.4571
 20
34.5844
 30
0.000000
  70
    32
  0
VERTEX
  8
0
  5
197A
 10
77.4637
 20
34.5620
 30
0.000000
  70
    32
  0
VERTEX
  8
0
  5
197B
 10
77.4704
 20
34.5396
 30
0.000000
  70
    32
  0
VERTEX
  8
0
  5
197C
 10
77.4772
 20
34.5171
 30
0.000000
  70
    32
  0
VERTEX
  8
0
  5
197D
 10
77.4841
 20
34.4947
 30
0.000000
  70
    32
  0
VERTEX
  8
0
  5
197E
 10
77.4912
 20
34.4723
 30
0.000000
  70
    32
  0
VERTEX
  8
0
  5
197F
 10
77.4985
 20
34.4499
 30
0.000000
  70
    32
  0
VERTEX
  8
0
  5
1980
 10
77.5058
 20
34.4275
 30
0.000000
  70
    32
  0
VERTEX
  8
0
  5
1981
 10
77.5133
 20
34.4051
 30
0.000000
  70
    32
  0
VERTEX
  8
0
  5
1982
 10
77.5209
 20
34.3827
 30
0.000000
  70
    32
  0
VERTEX
  8
0
  5
1983
 10
77.5287
 20
34.3604
 30
0.000000
  70
    32
  0
VERTEX
  8
0
  5
1984
 10
77.5365
 20
34.3380
 30
0.000000
  70
    32
  0
VERTEX
  8
0
  5
1985
 10
77.5446
 20
34.3157
 30
0.000000
  70
    32
  0
VERTEX
  8
0
  5
1986
 10
77.5527
 20
34.2934
 30
0.000000
  70
    32
  0
VERTEX
  8
0
  5
1987
 10
77.5610
 20
34.2711
 30
0.000000
  70
    32
  0
VERTEX
  8
0
  5
1988
 10
77.5694
 20
34.2488
 30
0.000000
  70
    32
  0
VERTEX
  8
0
  5
1989
 10
77.5780
 20
34.2265
 30
0.000000
  70
    32
  0
SEQEND
  8
0
  5
198A
  0
ARC
  5
160B
  8
0
 10
92.499999999999915
 20
40.0
 30
0.0
 40
15.19868415357055
 50
169.05105029634481
 51
190.9489497036551
  0
ARC
  5
160C
  8
0
 10
92.5
 20
40.0
 30
0.0
 40
16.0
 50
158.8479670259176
 51
201.15203297408229
  0
LINE
  5
160D
  8
0
 10
81.500000000000028
 20
46.5
 30
0.0
 11
81.500000000000028
 21
33.5
 31
0.0
  0
LINE
  5
160E
  8
0
 10
81.299999999999997
 20
33.5
 30
0.0
 11
81.500000000000028
 21
33.5
 31
0.0
  0
LINE
  5
160F
  8
0
 10
81.500000000000028
 20
46.5
 30
0.0
 11
81.299999999999997
 21
46.5
 31
0.0
  0
LINE
  5
1610
  8
0
 10
81.299999999999997
 20
46.5
 30
0.0
 11
81.299999999999997
 21
33.5
 31
0.0
  0
LINE
  5
1611
  8
0
 10
80.500000000000014
 20
33.961880215351698
 30
0.0
 11
80.500000000000014
 21
46.038119784648302
 31
0.0
  0
LINE
  5
1612
  8
0
 10
80.500000000000014
 20
33.961880215351698
 30
0.0
 11
81.299999999999997
 21
33.5
 31
0.0
  0
LINE
  5
1613
  8
0
 10
81.299999999999997
 20
46.5
 30
0.0
 11
80.500000000000014
 21
46.038119784648302
 31
0.0
  0
LINE
  5
1614
  8
3
 10
97.500000000000028
 20
37.613499999999988
 30
0.0
 11
90.786500000000004
 21
37.613499999999988
 31
0.0
  0
LINE
  5
1616
  8
3
 10
97.500000000000028
 20
42.386500000000012
 30
0.0
 11
90.786500000000004
 21
42.386500000000012
 31
0.0
  0
LINE
  5
16D7
  8
1
 10
74.5
 20
40.0
 30
0.0
 11
99.500000000000014
 21
40.0
 31
0.0
  0
LINE
  5
16E0
  8
1
 10
74.5
 20
83.0
 30
0.0
 11
99.500000000000014
 21
83.0
 31
0.0
  0
LINE
  5
16E4
  8
1
 10
40.0
 20
48.5
 30
0.0
 11
40.0
 21
31.5
 31
0.0
  0
LINE
  5
16E5
  8
1
 10
48.5
 20
40.0
 30
0.0
 11
31.5
 21
40.0
 31
0.0
  0
ENDSEC
  0
EOF
