  0
SECTION
  2
HEADER
  9
$ACADVER
  1
AC1009
  9
$INSBASE
 10
0.0
 20
0.0
 30
0.0
  9
$EXTMIN
 10
0.0
 20
-2.960436562073669
 30
0.0
  9
$EXTMAX
 10
113.3560709413369
 20
125.999709009634
 30
0.0
  9
$LIMMIN
 10
0.0
 20
0.0
  9
$LIMMAX
 10
375.0
 20
270.0
  9
$ORTHOMODE
 70
     1
  9
$REGENMODE
 70
     1
  9
$FILLMODE
 70
     1
  9
$QTEXTMODE
 70
     0
  9
$MIRRTEXT
 70
     0
  9
$DRAGMODE
 70
     2
  9
$LTSCALE
 40
10.0
  9
$OSMODE
 70
    37
  9
$ATTMODE
 70
     1
  9
$TEXTSIZE
 40
0.2
  9
$TRACEWID
 40
0.05
  9
$TEXTSTYLE
  7
STANDARD
  9
$CLAYER
  8
0
  9
$CELTYPE
  6
BYLAYER
  9
$CECOLOR
 62
   256
  9
$DIMSCALE
 40
1.0
  9
$DIMASZ
 40
3.0
  9
$DIMEXO
 40
2.0
  9
$DIMDLI
 40
0.38
  9
$DIMRND
 40
0.0
  9
$DIMDLE
 40
0.0
  9
$DIMEXE
 40
2.0
  9
$DIMTP
 40
0.0
  9
$DIMTM
 40
0.0
  9
$DIMTXT
 40
3.2000000000000002
  9
$DIMCEN
 40
0.09
  9
$DIMTSZ
 40
0.0
  9
$DIMTOL
 70
     0
  9
$DIMLIM
 70
     0
  9
$DIMTIH
 70
     0
  9
$DIMTOH
 70
     0
  9
$DIMSE1
 70
     0
  9
$DIMSE2
 70
     0
  9
$DIMTAD
 70
     1
  9
$DIMZIN
 70
     0
  9
$DIMBLK
  1

  9
$DIMASO
 70
     1
  9
$DIMSHO
 70
     0
  9
$DIMPOST
  1

  9
$DIMAPOST
  1

  9
$DIMALT
 70
     0
  9
$DIMALTD
 70
     2
  9
$DIMALTF
 40
25.399999999999999
  9
$DIMLFAC
 40
1.0
  9
$DIMTOFL
 70
     0
  9
$DIMTVP
 40
1.6000000000000001
  9
$DIMTIX
 70
     1
  9
$DIMSOXD
 70
     0
  9
$DIMSAH
 70
     0
  9
$DIMBLK1
  1

  9
$DIMBLK2
  1

  9
$DIMSTYLE
  2
STANDARD
  9
$DIMCLRD
 70
     0
  9
$DIMCLRE
 70
     0
  9
$DIMCLRT
 70
     0
  9
$DIMTFAC
 40
1.0
  9
$DIMGAP
 40
0.09
  9
$LUNITS
 70
     2
  9
$LUPREC
 70
     4
  9
$SKETCHINC
 40
0.1
  9
$FILLETRAD
 40
0.0
  9
$AUNITS
 70
     0
  9
$AUPREC
 70
     0
  9
$MENU
  1
E:\r13\win\SUPPORT\ACAD
  9
$ELEVATION
 40
0.0
  9
$PELEVATION
 40
0.0
  9
$THICKNESS
 40
0.0
  9
$LIMCHECK
 70
     0
  9
$BLIPMODE
 70
     0
  9
$CHAMFERA
 40
0.0
  9
$CHAMFERB
 40
0.0
  9
$SKPOLY
 70
     0
  9
$TDCREATE
 40
2449839.7822916671
  9
$TDUPDATE
 40
2458820.7246328699
  9
$TDINDWG
 40
0.0453969907
  9
$TDUSRTIMER
 40
0.0453969907
  9
$USRTIMER
 70
     1
  9
$ANGBASE
 50
0.0
  9
$ANGDIR
 70
     0
  9
$PDMODE
 70
     0
  9
$PDSIZE
 40
0.0
  9
$PLINEWID
 40
0.0
  9
$COORDS
 70
     1
  9
$SPLFRAME
 70
     0
  9
$SPLINETYPE
 70
     6
  9
$SPLINESEGS
 70
     8
  9
$ATTDIA
 70
     0
  9
$ATTREQ
 70
     1
  9
$HANDLING
 70
     1
  9
$HANDSEED
  5
686
  9
$SURFTAB1
 70
     6
  9
$SURFTAB2
 70
     6
  9
$SURFTYPE
 70
     6
  9
$SURFU
 70
     6
  9
$SURFV
 70
     6
  9
$UCSNAME
  2

  9
$UCSORG
 10
0.0
 20
0.0
 30
0.0
  9
$UCSXDIR
 10
1.0
 20
0.0
 30
0.0
  9
$UCSYDIR
 10
0.0
 20
1.0
 30
0.0
  9
$PUCSNAME
  2

  9
$PUCSORG
 10
0.0
 20
0.0
 30
0.0
  9
$PUCSXDIR
 10
1.0
 20
0.0
 30
0.0
  9
$PUCSYDIR
 10
0.0
 20
1.0
 30
0.0
  9
$USERI1
 70
     0
  9
$USERI2
 70
     1
  9
$USERI3
 70
     1
  9
$USERI4
 70
     0
  9
$USERI5
 70
     0
  9
$USERR1
 40
0.0
  9
$USERR2
 40
0.0
  9
$USERR3
 40
0.0
  9
$USERR4
 40
0.0
  9
$USERR5
 40
0.0
  9
$WORLDVIEW
 70
     1
  9
$SHADEDGE
 70
     3
  9
$SHADEDIF
 70
    70
  9
$TILEMODE
 70
     1
  9
$MAXACTVP
 70
    16
  9
$PLIMCHECK
 70
     0
  9
$PEXTMIN
 10
1.0000000000000000E+020
 20
1.0000000000000000E+020
 30
1.0000000000000000E+020
  9
$PEXTMAX
 10
-1.0000000000000000E+020
 20
-1.0000000000000000E+020
 30
-1.0000000000000000E+020
  9
$PLIMMIN
 10
0.0
 20
0.0
  9
$PLIMMAX
 10
12.0
 20
9.0
  9
$UNITMODE
 70
     0
  9
$VISRETAIN
 70
     0
  9
$PLINEGEN
 70
     0
  9
$PSLTSCALE
 70
     0
  0
ENDSEC
  0
SECTION
  2
TABLES
  0
TABLE
  2
VPORT
 70
     1
  0
VPORT
  2
*ACTIVE
 70
     0
 10
0.0
 20
0.0
 11
1.0
 21
1.0
 12
117.7444144497817
 22
61.517426027683882
 13
0.0
 23
0.0
 14
10.0
 24
10.0
 15
10.0
 25
10.0
 16
0.0
 26
0.0
 36
1.0
 17
0.0
 27
0.0
 37
0.0
 40
130.11746221250951
 41
2.415644171779141
 42
50.0
 43
0.0
 44
0.0
 50
0.0
 51
0.0
 71
     0
 72
   500
 73
     1
 74
     0
 75
     0
 76
     0
 77
     0
 78
     2
  0
ENDTAB
  0
TABLE
  2
LTYPE
 70
     3
  0
LTYPE
  2
CONTINUOUS
 70
     0
  3
Solid Line
 72
    65
 73
     0
 40
0.0
  0
LTYPE
  2
CENTER
 70
     0
  3
____ _ ____ _ ____ _ ____ _ ____ _ ____ _ ____
 72
    65
 73
     4
 40
2.0
 49
1.25
 49
-0.25
 49
0.25
 49
-0.25
  0
LTYPE
  2
PHANTOM2
 70
     0
  3
___ _ _ ___ _ _ ___ _ _ ___ _ _
 72
    65
 73
     6
 40
1.25
 49
0.625
 49
-0.125
 49
0.125
 49
-0.125
 49
0.125
 49
-0.125
  0
ENDTAB
  0
TABLE
  2
LAYER
 70
     3
  0
LAYER
  2
0
 70
     0
 62
     7
  6
CONTINUOUS
  0
LAYER
  2
1
 70
     0
 62
     1
  6
CENTER
  0
LAYER
  2
3
 70
     0
 62
     3
  6
CONTINUOUS
  0
ENDTAB
  0
TABLE
  2
STYLE
 70
     2
  0
STYLE
  2
STANDARD
 70
     0
 40
0.0
 41
1.0
 50
0.0
 71
     0
 42
0.2
  3
TXT
  4
BIGFONT
  0
STYLE
  2
STANDARD1
 70
     0
 40
0.0
 41
1.0
 50
0.0
 71
     0
 42
3.0
  3
txt
  4

  0
ENDTAB
  0
TABLE
  2
VIEW
 70
     1
  0
VIEW
  2
ALL
 70
     0
 40
270.0
 10
220.99159663865549
 20
135.0
 41
0.0
 11
0.0
 21
0.0
 31
1.0
 12
0.0
 22
0.0
 32
0.0
 42
0.0
 43
0.0
 44
0.0
 50
0.0
 71
     0
  0
ENDTAB
  0
TABLE
  2
UCS
 70
     0
  0
ENDTAB
  0
TABLE
  2
APPID
 70
     4
  0
APPID
  2
ACAD
 70
     0
  0
APPID
  2
ACAD_MLEADERVER
 70
     0
  0
APPID
  2
ACAD_NAV_VCDISPLAY
 70
     0
  0
APPID
  2
ACAD_EXEMPT_FROM_CAD_STANDARDS
 70
     0
  0
ENDTAB
  0
TABLE
  2
DIMSTYLE
 70
     1
  0
DIMSTYLE
  2
STANDARD
 70
     0
  3

  4

  5

  6

  7

 40
1.0
 41
0.18
 42
0.0625
 43
0.38
 44
0.18
 45
0.0
 46
0.0
 47
0.0
 48
0.0
140
0.18
141
0.09
142
0.0
143
25.399999999999999
144
1.0
145
0.0
146
1.0
147
0.09
 71
     0
 72
     0
 73
     1
 74
     1
 75
     0
 76
     0
 77
     0
 78
     0
170
     0
171
     2
172
     0
173
     0
174
     0
175
     0
176
     0
177
     0
178
     0
  0
ENDTAB
  0
ENDSEC
  0
SECTION
  2
BLOCKS
  0
BLOCK
  8
0
  2
$MODEL_SPACE
 70
     0
 10
0.0
 20
0.0
 30
0.0
  3
$MODEL_SPACE
  1

  0
ENDBLK
  5
10E
  8
0
  0
BLOCK
 67
     1
  8
0
  2
$PAPER_SPACE
 70
     0
 10
0.0
 20
0.0
 30
0.0
  3
$PAPER_SPACE
  1

  0
ENDBLK
  5
10C
 67
     1
  8
0
  0
ENDSEC
  0
SECTION
  2
ENTITIES
  0
TEXT
  5
200
  8
0
 62
     3
 10
0.0
 20
0.0
 30
0.0
 40
10.0
  1
HD-LMK21M5X10
  7
STANDARD1
  0
LINE
  5
33E
  8
1
 10
63.500000000000007
 20
112.499709009634
 30
0.0
 11
36.500000000000007
 21
112.499709009634
 31
0.0
  0
LINE
  5
33F
  8
1
 10
50.0
 20
125.999709009634
 30
0.0
 11
50.0
 21
98.999709009634032
 31
0.0
  0
LINE
  5
428
  8
0
 10
55.400000000000013
 20
65.0
 30
0.0
 11
44.599999999999987
 21
65.0
 31
0.0
  0
ARC
  5
429
  8
0
 10
44.599999999999987
 20
65.5
 30
0.0
 40
0.4999999999999992
 50
180.0
 51
270.0
  0
ARC
  5
42A
  8
0
 10
55.400000000000013
 20
65.5
 30
0.0
 40
0.4999999999999992
 50
270.0
 51
0.0
  0
LINE
  5
42B
  8
0
 10
44.100000000000001
 20
73.9080892972014
 30
0.0
 11
44.100000000000001
 21
65.5
 31
0.0
  0
LINE
  5
42C
  8
0
 10
55.900000000000013
 20
65.5
 30
0.0
 11
55.900000000000013
 21
73.9080892972014
 31
0.0
  0
ARC
  5
42D
  8
0
 10
41.09999999999998
 20
73.908089297201386
 30
0.0
 40
3.0000000000000129
 50
0.0
 51
39.999999999999481
  0
ARC
  5
42E
  8
0
 10
58.900000000000013
 20
73.9080892972014
 30
0.0
 40
3.0000000000000009
 50
139.99999999999989
 51
180.0
  0
ARC
  5
42F
  8
0
 10
49.999999999999673
 20
-4.0000000000089244
 30
0.0
 40
90.000000000008924
 50
85.054570282117183
 51
94.945429717882789
  0
LINE
  5
430
  8
0
 10
56.601866670643069
 20
75.836452126261008
 30
0.0
 11
59.798133329356943
 21
79.645614399672354
 31
0.0
  0
LINE
  5
431
  8
0
 10
40.201866670643071
 20
79.645614399672354
 30
0.0
 11
43.398133329356938
 21
75.836452126261008
 31
0.0
  0
ARC
  5
432
  8
0
 10
42.499999999999993
 20
81.573977228731977
 30
0.0
 40
2.999999999999992
 50
180.0
 51
220.0
  0
ARC
  5
433
  8
0
 10
57.5
 20
81.573977228731977
 30
0.0
 40
3.0000000000000062
 50
319.99999999999989
 51
0.0
  0
LINE
  5
434
  8
0
 10
39.500000000000007
 20
82.676121279162004
 30
0.0
 11
39.500000000000007
 21
81.573977228731977
 31
0.0
  0
LINE
  5
435
  8
0
 10
60.5
 20
81.573977228731977
 30
0.0
 11
60.5
 21
82.676121279162004
 31
0.0
  0
ARC
  5
436
  8
0
 10
42.499999999999993
 20
82.676121279162004
 30
0.0
 40
2.9999999999999929
 50
94.945429717882789
 51
180.0
  0
ARC
  5
437
  8
0
 10
57.5
 20
82.676121279162004
 30
0.0
 40
2.9999999999999938
 50
0.0
 51
85.054570282117183
  0
POINT
  5
43D
  8
0
 10
59.798133329356951
 20
79.645614399672354
 30
0.0
  0
POINT
  5
43E
  8
0
 10
56.601866670643069
 20
75.836452126261008
 30
0.0
  0
POINT
  5
43F
  8
0
 10
43.919077862357732
 20
74.934149727178394
 30
0.0
  0
POINT
  5
440
  8
0
 10
39.500000000000007
 20
82.676121279162004
 30
0.0
  0
POINT
  5
441
  8
0
 10
60.5
 20
82.676121279162004
 30
0.0
  0
POINT
  5
442
  8
0
 10
55.900000000000013
 20
65.5
 30
0.0
  0
POINT
  5
443
  8
0
 10
44.100000000000001
 20
65.5
 30
0.0
  0
POINT
  5
444
  8
0
 10
55.400000000000013
 20
65.0
 30
0.0
  0
CIRCLE
  5
44D
  8
0
 10
50.0
 20
112.499709009634
 30
0.0
 40
10.5
  0
LINE
  5
49A
  8
1
 10
50.0
 20
89.0
 30
0.0
 11
50.0
 21
52.0
 31
0.0
  0
LINE
  5
594
  8
0
 10
48.150000000000013
 20
63.75
 30
0.0
 11
48.150000000000013
 21
63.275833024919763
 31
0.0
  0
LINE
  5
595
  8
0
 10
51.850000000000009
 20
63.275833024919763
 30
0.0
 11
51.850000000000009
 21
63.75
 31
0.0
  0
ARC
  5
596
  8
0
 10
47.750000000000007
 20
63.75
 30
0.0
 40
0.4000000000000008
 50
0.0
 51
90.000000000000398
  0
ARC
  5
597
  8
0
 10
52.250000000000007
 20
63.75
 30
0.0
 40
0.4000000000000011
 50
89.999999999999588
 51
180.0
  0
LINE
  5
598
  8
0
 10
47.549999999999997
 20
64.799999999999997
 30
0.0
 11
47.549999999999997
 21
64.150000000000006
 31
0.0
  0
LINE
  5
599
  8
0
 10
52.450000000000003
 20
64.150000000000006
 30
0.0
 11
52.450000000000003
 21
64.799999999999997
 31
0.0
  0
LINE
  5
59A
  8
0
 10
52.450000000000003
 20
64.150000000000006
 30
0.0
 11
47.549999999999997
 21
64.150000000000006
 31
0.0
  0
LINE
  5
59B
  8
0
 10
52.00950000000001
 20
55.0
 30
0.0
 11
52.5
 21
55.490500000000011
 31
0.0
  0
LINE
  5
59C
  8
0
 10
47.5
 20
55.490500000000011
 30
0.0
 11
47.990499999999997
 21
55.0
 31
0.0
  0
LINE
  5
59D
  8
0
 10
52.00950000000001
 20
55.0
 30
0.0
 11
47.990499999999997
 21
55.0
 31
0.0
  0
LINE
  5
59E
  8
0
 10
47.5
 20
62.149999999999991
 30
0.0
 11
47.5
 21
55.490500000000011
 31
0.0
  0
LINE
  5
59F
  8
0
 10
52.5
 20
55.490500000000011
 30
0.0
 11
52.5
 21
62.149999999999991
 31
0.0
  0
LINE
  5
5A0
  8
0
 10
52.5
 20
55.490500000000011
 30
0.0
 11
47.5
 21
55.490500000000011
 31
0.0
  0
LINE
  5
5A1
  8
0
 10
48.150000000000013
 20
63.275833024919763
 30
0.0
 11
47.5
 21
62.149999999999991
 31
0.0
  0
LINE
  5
5A2
  8
0
 10
52.5
 20
62.149999999999991
 30
0.0
 11
51.850000000000009
 21
63.275833024919763
 31
0.0
  0
LINE
  5
5A3
  8
0
 10
52.5
 20
62.149999999999991
 30
0.0
 11
47.5
 21
62.149999999999991
 31
0.0
  0
LINE
  5
5A4
  8
0
 10
51.850000000000009
 20
63.275833024919763
 30
0.0
 11
48.150000000000013
 21
63.275833024919763
 31
0.0
  0
ARC
  5
5A5
  8
0
 10
47.350000000000009
 20
64.799999999999997
 30
0.0
 40
0.1999999999999997
 50
0.0
 51
90.000000000000398
  0
ARC
  5
5A6
  8
0
 10
52.649999999999999
 20
64.799999999999997
 30
0.0
 40
0.1999999999999998
 50
90.0
 51
180.0
  0
LINE
  5
5A7
  8
3
 10
52.00950000000001
 20
55.0
 30
0.0
 11
52.00950000000001
 21
62.149999999999991
 31
0.0
  0
LINE
  5
5A8
  8
3
 10
47.990499999999997
 20
55.0
 30
0.0
 11
47.990499999999997
 21
62.149999999999991
 31
0.0
  0
ENDSEC
  0
EOF
