  0
SECTION
  2
HEADER
  9
$ACADVER
  1
AC1009
  9
$INSBASE
 10
0.0
 20
0.0
 30
0.0
  9
$EXTMIN
 10
0.0
 20
-2.960436562073669
 30
0.0
  9
$EXTMAX
 10
88.499317871759885
 20
138.0
 30
0.0
  9
$LIMMIN
 10
0.0
 20
0.0
  9
$LIMMAX
 10
375.0
 20
270.0
  9
$ORTHOMODE
 70
     1
  9
$REGENMODE
 70
     1
  9
$FILLMODE
 70
     1
  9
$QTEXTMODE
 70
     0
  9
$MIRRTEXT
 70
     0
  9
$DRAGMODE
 70
     2
  9
$LTSCALE
 40
10.0
  9
$OSMODE
 70
    37
  9
$ATTMODE
 70
     1
  9
$TEXTSIZE
 40
0.2
  9
$TRACEWID
 40
0.05
  9
$TEXTSTYLE
  7
STANDARD
  9
$CLAYER
  8
0
  9
$CELTYPE
  6
BYLAYER
  9
$CECOLOR
 62
   256
  9
$DIMSCALE
 40
1.0
  9
$DIMASZ
 40
3.0
  9
$DIMEXO
 40
2.0
  9
$DIMDLI
 40
0.38
  9
$DIMRND
 40
0.0
  9
$DIMDLE
 40
0.0
  9
$DIMEXE
 40
2.0
  9
$DIMTP
 40
0.0
  9
$DIMTM
 40
0.0
  9
$DIMTXT
 40
3.2000000000000002
  9
$DIMCEN
 40
0.09
  9
$DIMTSZ
 40
0.0
  9
$DIMTOL
 70
     0
  9
$DIMLIM
 70
     0
  9
$DIMTIH
 70
     0
  9
$DIMTOH
 70
     0
  9
$DIMSE1
 70
     0
  9
$DIMSE2
 70
     0
  9
$DIMTAD
 70
     1
  9
$DIMZIN
 70
     0
  9
$DIMBLK
  1

  9
$DIMASO
 70
     1
  9
$DIMSHO
 70
     0
  9
$DIMPOST
  1

  9
$DIMAPOST
  1

  9
$DIMALT
 70
     0
  9
$DIMALTD
 70
     2
  9
$DIMALTF
 40
25.399999999999999
  9
$DIMLFAC
 40
1.0
  9
$DIMTOFL
 70
     0
  9
$DIMTVP
 40
1.6000000000000001
  9
$DIMTIX
 70
     1
  9
$DIMSOXD
 70
     0
  9
$DIMSAH
 70
     0
  9
$DIMBLK1
  1

  9
$DIMBLK2
  1

  9
$DIMSTYLE
  2
STANDARD
  9
$DIMCLRD
 70
     0
  9
$DIMCLRE
 70
     0
  9
$DIMCLRT
 70
     0
  9
$DIMTFAC
 40
1.0
  9
$DIMGAP
 40
0.09
  9
$LUNITS
 70
     2
  9
$LUPREC
 70
     4
  9
$SKETCHINC
 40
0.1
  9
$FILLETRAD
 40
0.0
  9
$AUNITS
 70
     0
  9
$AUPREC
 70
     0
  9
$MENU
  1
E:\r13\win\SUPPORT\ACAD
  9
$ELEVATION
 40
0.0
  9
$PELEVATION
 40
0.0
  9
$THICKNESS
 40
0.0
  9
$LIMCHECK
 70
     0
  9
$BLIPMODE
 70
     0
  9
$CHAMFERA
 40
0.0
  9
$CHAMFERB
 40
0.0
  9
$SKPOLY
 70
     0
  9
$TDCREATE
 40
2449839.7822916671
  9
$TDUPDATE
 40
2458820.7246474079
  9
$TDINDWG
 40
0.0478172222
  9
$TDUSRTIMER
 40
0.0478172222
  9
$USRTIMER
 70
     1
  9
$ANGBASE
 50
0.0
  9
$ANGDIR
 70
     0
  9
$PDMODE
 70
     0
  9
$PDSIZE
 40
0.0
  9
$PLINEWID
 40
0.0
  9
$COORDS
 70
     1
  9
$SPLFRAME
 70
     0
  9
$SPLINETYPE
 70
     6
  9
$SPLINESEGS
 70
     8
  9
$ATTDIA
 70
     0
  9
$ATTREQ
 70
     1
  9
$HANDLING
 70
     1
  9
$HANDSEED
  5
6AE
  9
$SURFTAB1
 70
     6
  9
$SURFTAB2
 70
     6
  9
$SURFTYPE
 70
     6
  9
$SURFU
 70
     6
  9
$SURFV
 70
     6
  9
$UCSNAME
  2

  9
$UCSORG
 10
0.0
 20
0.0
 30
0.0
  9
$UCSXDIR
 10
1.0
 20
0.0
 30
0.0
  9
$UCSYDIR
 10
0.0
 20
1.0
 30
0.0
  9
$PUCSNAME
  2

  9
$PUCSORG
 10
0.0
 20
0.0
 30
0.0
  9
$PUCSXDIR
 10
1.0
 20
0.0
 30
0.0
  9
$PUCSYDIR
 10
0.0
 20
1.0
 30
0.0
  9
$USERI1
 70
     0
  9
$USERI2
 70
     1
  9
$USERI3
 70
     1
  9
$USERI4
 70
     0
  9
$USERI5
 70
     0
  9
$USERR1
 40
0.0
  9
$USERR2
 40
0.0
  9
$USERR3
 40
0.0
  9
$USERR4
 40
0.0
  9
$USERR5
 40
0.0
  9
$WORLDVIEW
 70
     1
  9
$SHADEDGE
 70
     3
  9
$SHADEDIF
 70
    70
  9
$TILEMODE
 70
     1
  9
$MAXACTVP
 70
    16
  9
$PLIMCHECK
 70
     0
  9
$PEXTMIN
 10
1.0000000000000000E+020
 20
1.0000000000000000E+020
 30
1.0000000000000000E+020
  9
$PEXTMAX
 10
-1.0000000000000000E+020
 20
-1.0000000000000000E+020
 30
-1.0000000000000000E+020
  9
$PLIMMIN
 10
0.0
 20
0.0
  9
$PLIMMAX
 10
12.0
 20
9.0
  9
$UNITMODE
 70
     0
  9
$VISRETAIN
 70
     0
  9
$PLINEGEN
 70
     0
  9
$PSLTSCALE
 70
     0
  0
ENDSEC
  0
SECTION
  2
TABLES
  0
TABLE
  2
VPORT
 70
     1
  0
VPORT
  2
*ACTIVE
 70
     0
 10
0.0
 20
0.0
 11
1.0
 21
1.0
 12
111.00696324968909
 22
67.515366364210209
 13
0.0
 23
0.0
 14
10.0
 24
10.0
 15
10.0
 25
10.0
 16
0.0
 26
0.0
 36
1.0
 17
0.0
 27
0.0
 37
0.0
 40
142.2175039333745
 41
2.415644171779141
 42
50.0
 43
0.0
 44
0.0
 50
0.0
 51
0.0
 71
     0
 72
   500
 73
     1
 74
     0
 75
     0
 76
     0
 77
     0
 78
     2
  0
ENDTAB
  0
TABLE
  2
LTYPE
 70
     4
  0
LTYPE
  2
CONTINUOUS
 70
     0
  3
Solid Line
 72
    65
 73
     0
 40
0.0
  0
LTYPE
  2
CENTER
 70
     0
  3
____ _ ____ _ ____ _ ____ _ ____ _ ____ _ ____
 72
    65
 73
     4
 40
2.0
 49
1.25
 49
-0.25
 49
0.25
 49
-0.25
  0
LTYPE
  2
HIDDEN
 70
     0
  3
_ _ _ _ _ _ _ _ _ _ _ _ _ _ _ _ _ _ _ _ _ _ _
 72
    65
 73
     2
 40
0.375
 49
0.25
 49
-0.125
  0
LTYPE
  2
PHANTOM2
 70
     0
  3
___ _ _ ___ _ _ ___ _ _ ___ _ _
 72
    65
 73
     6
 40
1.25
 49
0.625
 49
-0.125
 49
0.125
 49
-0.125
 49
0.125
 49
-0.125
  0
ENDTAB
  0
TABLE
  2
LAYER
 70
     3
  0
LAYER
  2
0
 70
     0
 62
     7
  6
CONTINUOUS
  0
LAYER
  2
1
 70
     0
 62
     1
  6
CENTER
  0
LAYER
  2
2
 70
     0
 62
     2
  6
HIDDEN
  0
ENDTAB
  0
TABLE
  2
STYLE
 70
     2
  0
STYLE
  2
STANDARD
 70
     0
 40
0.0
 41
1.0
 50
0.0
 71
     0
 42
0.2
  3
TXT
  4
BIGFONT
  0
STYLE
  2
STANDARD1
 70
     0
 40
0.0
 41
1.0
 50
0.0
 71
     0
 42
3.0
  3
txt
  4

  0
ENDTAB
  0
TABLE
  2
VIEW
 70
     1
  0
VIEW
  2
ALL
 70
     0
 40
270.0
 10
220.99159663865549
 20
135.0
 41
0.0
 11
0.0
 21
0.0
 31
1.0
 12
0.0
 22
0.0
 32
0.0
 42
0.0
 43
0.0
 44
0.0
 50
0.0
 71
     0
  0
ENDTAB
  0
TABLE
  2
UCS
 70
     0
  0
ENDTAB
  0
TABLE
  2
APPID
 70
     4
  0
APPID
  2
ACAD
 70
     0
  0
APPID
  2
ACAD_MLEADERVER
 70
     0
  0
APPID
  2
ACAD_NAV_VCDISPLAY
 70
     0
  0
APPID
  2
ACAD_EXEMPT_FROM_CAD_STANDARDS
 70
     0
  0
ENDTAB
  0
TABLE
  2
DIMSTYLE
 70
     1
  0
DIMSTYLE
  2
STANDARD
 70
     0
  3

  4

  5

  6

  7

 40
1.0
 41
0.18
 42
0.0625
 43
0.38
 44
0.18
 45
0.0
 46
0.0
 47
0.0
 48
0.0
140
0.18
141
0.09
142
0.0
143
25.399999999999999
144
1.0
145
0.0
146
1.0
147
0.09
 71
     0
 72
     0
 73
     1
 74
     1
 75
     0
 76
     0
 77
     0
 78
     0
170
     0
171
     2
172
     0
173
     0
174
     0
175
     0
176
     0
177
     0
178
     0
  0
ENDTAB
  0
ENDSEC
  0
SECTION
  2
BLOCKS
  0
BLOCK
  8
0
  2
$MODEL_SPACE
 70
     0
 10
0.0
 20
0.0
 30
0.0
  3
$MODEL_SPACE
  1

  0
ENDBLK
  5
10E
  8
0
  0
BLOCK
 67
     1
  8
0
  2
$PAPER_SPACE
 70
     0
 10
0.0
 20
0.0
 30
0.0
  3
$PAPER_SPACE
  1

  0
ENDBLK
  5
10C
 67
     1
  8
0
  0
ENDSEC
  0
SECTION
  2
ENTITIES
  0
TEXT
  5
200
  8
0
 62
     3
 10
0.0
 20
0.0
 30
0.0
 40
10.0
  1
HD-LMK33M8
  7
STANDARD1
  0
LINE
  5
5AA
  8
2
 10
46.676500000000154
 20
70.999999999999986
 30
0.0
 11
46.676500000000154
 21
53.67649999999999
 31
0.0
  0
LINE
  5
5AB
  8
2
 10
53.323500000000138
 20
53.67649999999999
 30
0.0
 11
53.323500000000138
 21
70.999999999999986
 31
0.0
  0
LINE
  5
5AC
  8
2
 10
50.000000000000142
 20
72.918823619651704
 30
0.0
 11
46.676500000000154
 21
70.999999999999986
 31
0.0
  0
LINE
  5
5AD
  8
2
 10
53.323500000000138
 20
70.999999999999986
 30
0.0
 11
50.000000000000142
 21
72.918823619651704
 31
0.0
  0
LINE
  5
5AE
  8
2
 10
53.323500000000138
 20
70.999999999999986
 30
0.0
 11
46.676500000000154
 21
70.999999999999986
 31
0.0
  0
LINE
  5
5AF
  8
2
 10
46.676500000000154
 20
53.67649999999999
 30
0.0
 11
46.000000000000142
 21
52.999999999999979
 31
0.0
  0
LINE
  5
5B0
  8
2
 10
54.000000000000142
 20
52.999999999999979
 30
0.0
 11
53.323500000000138
 21
53.67649999999999
 31
0.0
  0
LINE
  5
5B1
  8
2
 10
53.323500000000138
 20
53.67649999999999
 30
0.0
 11
46.676500000000154
 21
53.67649999999999
 31
0.0
  0
LINE
  5
5B2
  8
0
 10
58.400000000000141
 20
52.999999999999979
 30
0.0
 11
41.600000000000129
 21
52.999999999999979
 31
0.0
  0
ARC
  5
5B3
  8
0
 10
41.600000000000172
 20
53.599999999999987
 30
0.0
 40
0.600000000000005
 50
180.0000000000008
 51
270.0
  0
ARC
  5
5B4
  8
0
 10
58.400000000000119
 20
53.599999999999987
 30
0.0
 40
0.6000000000000048
 50
270.0
 51
359.9999999999992
  0
LINE
  5
5B5
  8
0
 10
41.000000000000142
 20
66.544119062935181
 30
0.0
 11
41.000000000000142
 21
53.59999999999998
 31
0.0
  0
LINE
  5
5B6
  8
0
 10
59.000000000000142
 20
53.59999999999998
 30
0.0
 11
59.000000000000142
 21
66.544119062935181
 31
0.0
  0
ARC
  5
5B7
  8
0
 10
37.000000000000142
 20
66.544119062935181
 30
0.0
 40
3.9999999999999938
 50
0.0
 51
40.000000000000249
  0
ARC
  5
5B8
  8
0
 10
63.000000000000107
 20
66.544119062935195
 30
0.0
 40
3.9999999999999609
 50
139.9999999999996
 51
180.0
  0
ARC
  5
5B9
  8
0
 10
50.0
 20
-4.0000000000028271
 30
0.0
 40
90.000000000002814
 50
81.642519904333881
 51
98.357480095666105
  0
LINE
  5
5BA
  8
0
 10
59.93582222752422
 20
69.115269501681325
 30
0.0
 11
65.564177772476057
 21
75.82288244277521
 31
0.0
  0
LINE
  5
5BB
  8
0
 10
34.435822227524227
 20
75.82288244277521
 30
0.0
 11
40.06417777247605
 21
69.115269501681325
 31
0.0
  0
ARC
  5
5BC
  8
0
 10
37.500000000000142
 20
81.086720468002525
 30
0.0
 40
3.9999999999999938
 50
98.357480095666105
 51
180.0
  0
ARC
  5
5BD
  8
0
 10
62.500000000000142
 20
81.086720468002525
 30
0.0
 40
3.9999999999999889
 50
0.0
 51
81.642519904333881
  0
LINE
  5
5BE
  8
0
 10
33.500000000000142
 20
81.086720468002511
 30
0.0
 11
33.500000000000142
 21
78.394032881521369
 31
0.0
  0
LINE
  5
5BF
  8
0
 10
66.500000000000142
 20
78.394032881521369
 30
0.0
 11
66.500000000000142
 21
81.086720468002511
 31
0.0
  0
ARC
  5
5C0
  8
0
 10
37.500000000000107
 20
78.394032881521369
 30
0.0
 40
3.9999999999999778
 50
180.0
 51
220.0000000000002
  0
ARC
  5
5C1
  8
0
 10
62.500000000000142
 20
78.394032881521369
 30
0.0
 40
4.0000000000000098
 50
320.00000000000063
 51
0.0
  0
LINE
  5
5C2
  8
2
 10
54.000000000000142
 20
52.999999999999979
 30
0.0
 11
54.000000000000142
 21
68.999999999999986
 31
0.0
  0
LINE
  5
5C3
  8
2
 10
46.000000000000142
 20
68.999999999999986
 30
0.0
 11
54.000000000000142
 21
68.999999999999986
 31
0.0
  0
LINE
  5
5C4
  8
2
 10
46.000000000000142
 20
52.999999999999979
 30
0.0
 11
46.000000000000142
 21
68.999999999999986
 31
0.0
  0
CIRCLE
  5
5CA
  8
0
 10
50.0
 20
118.5
 30
0.0
 40
16.5
  0
LINE
  5
5CB
  8
1
 10
50.0
 20
138.0
 30
0.0
 11
50.0
 21
99.0
 31
0.0
  0
LINE
  5
5CC
  8
1
 10
30.5
 20
118.5
 30
0.0
 11
69.5
 21
118.5
 31
0.0
  0
LINE
  5
5D1
  8
1
 10
50.0
 20
89.0
 30
0.0
 11
50.0
 21
50.0
 31
0.0
  0
ENDSEC
  0
EOF
