  0
SECTION
  2
HEADER
  9
$ACADVER
  1
AC1009
  9
$INSBASE
 10
0.0
 20
0.0
 30
0.0
  9
$EXTMIN
 10
0.0
 20
-2.960436562073669
 30
0.0
  9
$EXTMAX
 10
113.3560709413369
 20
154.0
 30
0.0
  9
$LIMMIN
 10
0.0
 20
0.0
  9
$LIMMAX
 10
375.0
 20
270.0
  9
$ORTHOMODE
 70
     1
  9
$REGENMODE
 70
     1
  9
$FILLMODE
 70
     1
  9
$QTEXTMODE
 70
     0
  9
$MIRRTEXT
 70
     0
  9
$DRAGMODE
 70
     2
  9
$LTSCALE
 40
10.0
  9
$OSMODE
 70
    37
  9
$ATTMODE
 70
     1
  9
$TEXTSIZE
 40
0.2
  9
$TRACEWID
 40
0.05
  9
$TEXTSTYLE
  7
STANDARD
  9
$CLAYER
  8
0
  9
$CELTYPE
  6
BYLAYER
  9
$CECOLOR
 62
   256
  9
$DIMSCALE
 40
1.0
  9
$DIMASZ
 40
3.0
  9
$DIMEXO
 40
2.0
  9
$DIMDLI
 40
0.38
  9
$DIMRND
 40
0.0
  9
$DIMDLE
 40
0.0
  9
$DIMEXE
 40
2.0
  9
$DIMTP
 40
0.0
  9
$DIMTM
 40
0.0
  9
$DIMTXT
 40
3.2000000000000002
  9
$DIMCEN
 40
0.09
  9
$DIMTSZ
 40
0.0
  9
$DIMTOL
 70
     0
  9
$DIMLIM
 70
     0
  9
$DIMTIH
 70
     0
  9
$DIMTOH
 70
     0
  9
$DIMSE1
 70
     0
  9
$DIMSE2
 70
     0
  9
$DIMTAD
 70
     1
  9
$DIMZIN
 70
     0
  9
$DIMBLK
  1

  9
$DIMASO
 70
     1
  9
$DIMSHO
 70
     0
  9
$DIMPOST
  1

  9
$DIMAPOST
  1

  9
$DIMALT
 70
     0
  9
$DIMALTD
 70
     2
  9
$DIMALTF
 40
25.399999999999999
  9
$DIMLFAC
 40
1.0
  9
$DIMTOFL
 70
     0
  9
$DIMTVP
 40
1.6000000000000001
  9
$DIMTIX
 70
     1
  9
$DIMSOXD
 70
     0
  9
$DIMSAH
 70
     0
  9
$DIMBLK1
  1

  9
$DIMBLK2
  1

  9
$DIMSTYLE
  2
STANDARD
  9
$DIMCLRD
 70
     0
  9
$DIMCLRE
 70
     0
  9
$DIMCLRT
 70
     0
  9
$DIMTFAC
 40
1.0
  9
$DIMGAP
 40
0.09
  9
$LUNITS
 70
     2
  9
$LUPREC
 70
     4
  9
$SKETCHINC
 40
0.1
  9
$FILLETRAD
 40
0.0
  9
$AUNITS
 70
     0
  9
$AUPREC
 70
     0
  9
$MENU
  1
E:\r13\win\SUPPORT\ACAD
  9
$ELEVATION
 40
0.0
  9
$PELEVATION
 40
0.0
  9
$THICKNESS
 40
0.0
  9
$LIMCHECK
 70
     0
  9
$BLIPMODE
 70
     0
  9
$CHAMFERA
 40
0.0
  9
$CHAMFERB
 40
0.0
  9
$SKPOLY
 70
     0
  9
$TDCREATE
 40
2449839.7822916671
  9
$TDUPDATE
 40
2458820.7246514349
  9
$TDINDWG
 40
0.0486595718
  9
$TDUSRTIMER
 40
0.0486595718
  9
$USRTIMER
 70
     1
  9
$ANGBASE
 50
0.0
  9
$ANGDIR
 70
     0
  9
$PDMODE
 70
     0
  9
$PDSIZE
 40
0.0
  9
$PLINEWID
 40
0.0
  9
$COORDS
 70
     1
  9
$SPLFRAME
 70
     0
  9
$SPLINETYPE
 70
     6
  9
$SPLINESEGS
 70
     8
  9
$ATTDIA
 70
     0
  9
$ATTREQ
 70
     1
  9
$HANDLING
 70
     1
  9
$HANDSEED
  5
72D
  9
$SURFTAB1
 70
     6
  9
$SURFTAB2
 70
     6
  9
$SURFTYPE
 70
     6
  9
$SURFU
 70
     6
  9
$SURFV
 70
     6
  9
$UCSNAME
  2

  9
$UCSORG
 10
0.0
 20
0.0
 30
0.0
  9
$UCSXDIR
 10
1.0
 20
0.0
 30
0.0
  9
$UCSYDIR
 10
0.0
 20
1.0
 30
0.0
  9
$PUCSNAME
  2

  9
$PUCSORG
 10
0.0
 20
0.0
 30
0.0
  9
$PUCSXDIR
 10
1.0
 20
0.0
 30
0.0
  9
$PUCSYDIR
 10
0.0
 20
1.0
 30
0.0
  9
$USERI1
 70
     0
  9
$USERI2
 70
     1
  9
$USERI3
 70
     1
  9
$USERI4
 70
     0
  9
$USERI5
 70
     0
  9
$USERR1
 40
0.0
  9
$USERR2
 40
0.0
  9
$USERR3
 40
0.0
  9
$USERR4
 40
0.0
  9
$USERR5
 40
0.0
  9
$WORLDVIEW
 70
     1
  9
$SHADEDGE
 70
     3
  9
$SHADEDIF
 70
    70
  9
$TILEMODE
 70
     1
  9
$MAXACTVP
 70
    16
  9
$PLIMCHECK
 70
     0
  9
$PEXTMIN
 10
1.0000000000000000E+020
 20
1.0000000000000000E+020
 30
1.0000000000000000E+020
  9
$PEXTMAX
 10
-1.0000000000000000E+020
 20
-1.0000000000000000E+020
 30
-1.0000000000000000E+020
  9
$PLIMMIN
 10
0.0
 20
0.0
  9
$PLIMMAX
 10
12.0
 20
9.0
  9
$UNITMODE
 70
     0
  9
$VISRETAIN
 70
     0
  9
$PLINEGEN
 70
     0
  9
$PSLTSCALE
 70
     0
  0
ENDSEC
  0
SECTION
  2
TABLES
  0
TABLE
  2
VPORT
 70
     1
  0
VPORT
  2
*ACTIVE
 70
     0
 10
0.0
 20
0.0
 11
1.0
 21
1.0
 12
131.00895198268239
 22
75.517098723875662
 13
0.0
 23
0.0
 14
10.0
 24
10.0
 15
10.0
 25
10.0
 16
0.0
 26
0.0
 36
1.0
 17
0.0
 27
0.0
 37
0.0
 40
158.33471735367809
 41
2.415644171779141
 42
50.0
 43
0.0
 44
0.0
 50
0.0
 51
0.0
 71
     0
 72
   500
 73
     1
 74
     0
 75
     0
 76
     0
 77
     0
 78
     2
  0
ENDTAB
  0
TABLE
  2
LTYPE
 70
     3
  0
LTYPE
  2
CONTINUOUS
 70
     0
  3
Solid Line
 72
    65
 73
     0
 40
0.0
  0
LTYPE
  2
CENTER
 70
     0
  3
____ _ ____ _ ____ _ ____ _ ____ _ ____ _ ____
 72
    65
 73
     4
 40
2.0
 49
1.25
 49
-0.25
 49
0.25
 49
-0.25
  0
LTYPE
  2
PHANTOM2
 70
     0
  3
___ _ _ ___ _ _ ___ _ _ ___ _ _
 72
    65
 73
     6
 40
1.25
 49
0.625
 49
-0.125
 49
0.125
 49
-0.125
 49
0.125
 49
-0.125
  0
ENDTAB
  0
TABLE
  2
LAYER
 70
     3
  0
LAYER
  2
0
 70
     0
 62
     7
  6
CONTINUOUS
  0
LAYER
  2
1
 70
     0
 62
     1
  6
CENTER
  0
LAYER
  2
3
 70
     0
 62
     3
  6
CONTINUOUS
  0
ENDTAB
  0
TABLE
  2
STYLE
 70
     2
  0
STYLE
  2
STANDARD
 70
     0
 40
0.0
 41
1.0
 50
0.0
 71
     0
 42
0.2
  3
TXT
  4
BIGFONT
  0
STYLE
  2
STANDARD1
 70
     0
 40
0.0
 41
1.0
 50
0.0
 71
     0
 42
3.0
  3
txt
  4

  0
ENDTAB
  0
TABLE
  2
VIEW
 70
     1
  0
VIEW
  2
ALL
 70
     0
 40
270.0
 10
220.99159663865549
 20
135.0
 41
0.0
 11
0.0
 21
0.0
 31
1.0
 12
0.0
 22
0.0
 32
0.0
 42
0.0
 43
0.0
 44
0.0
 50
0.0
 71
     0
  0
ENDTAB
  0
TABLE
  2
UCS
 70
     0
  0
ENDTAB
  0
TABLE
  2
APPID
 70
     4
  0
APPID
  2
ACAD
 70
     0
  0
APPID
  2
ACAD_MLEADERVER
 70
     0
  0
APPID
  2
ACAD_NAV_VCDISPLAY
 70
     0
  0
APPID
  2
ACAD_EXEMPT_FROM_CAD_STANDARDS
 70
     0
  0
ENDTAB
  0
TABLE
  2
DIMSTYLE
 70
     1
  0
DIMSTYLE
  2
STANDARD
 70
     0
  3

  4

  5

  6

  7

 40
1.0
 41
0.18
 42
0.0625
 43
0.38
 44
0.18
 45
0.0
 46
0.0
 47
0.0
 48
0.0
140
0.18
141
0.09
142
0.0
143
25.399999999999999
144
1.0
145
0.0
146
1.0
147
0.09
 71
     0
 72
     0
 73
     1
 74
     1
 75
     0
 76
     0
 77
     0
 78
     0
170
     0
171
     2
172
     0
173
     0
174
     0
175
     0
176
     0
177
     0
178
     0
  0
ENDTAB
  0
ENDSEC
  0
SECTION
  2
BLOCKS
  0
BLOCK
  8
0
  2
$MODEL_SPACE
 70
     0
 10
0.0
 20
0.0
 30
0.0
  3
$MODEL_SPACE
  1

  0
ENDBLK
  5
10E
  8
0
  0
BLOCK
 67
     1
  8
0
  2
$PAPER_SPACE
 70
     0
 10
0.0
 20
0.0
 30
0.0
  3
$PAPER_SPACE
  1

  0
ENDBLK
  5
10C
 67
     1
  8
0
  0
ENDSEC
  0
SECTION
  2
ENTITIES
  0
TEXT
  5
200
  8
0
 62
     3
 10
0.0
 20
0.0
 30
0.0
 40
10.0
  1
HD-LMK33M8X16
  7
STANDARD1
  0
LINE
  5
5B2
  8
0
 10
58.400000000000141
 20
69.0
 30
0.0
 11
41.600000000000129
 21
69.0
 31
0.0
  0
ARC
  5
5B3
  8
0
 10
41.600000000000172
 20
69.599999999999994
 30
0.0
 40
0.600000000000005
 50
180.0000000000008
 51
270.0
  0
ARC
  5
5B4
  8
0
 10
58.400000000000119
 20
69.599999999999994
 30
0.0
 40
0.6000000000000048
 50
270.0
 51
359.9999999999992
  0
LINE
  5
5B5
  8
0
 10
41.000000000000142
 20
82.544119062935195
 30
0.0
 11
41.000000000000142
 21
69.599999999999994
 31
0.0
  0
LINE
  5
5B6
  8
0
 10
59.000000000000142
 20
69.599999999999994
 30
0.0
 11
59.000000000000142
 21
82.544119062935195
 31
0.0
  0
ARC
  5
5B7
  8
0
 10
37.000000000000142
 20
82.544119062935195
 30
0.0
 40
3.9999999999999938
 50
0.0
 51
40.00000000000027
  0
ARC
  5
5B8
  8
0
 10
63.000000000000107
 20
82.544119062935209
 30
0.0
 40
3.9999999999999609
 50
139.99999999999969
 51
180.0
  0
ARC
  5
5B9
  8
0
 10
50.0
 20
11.999999999997179
 30
0.0
 40
90.000000000002814
 50
81.642519904333895
 51
98.357480095666091
  0
LINE
  5
5BA
  8
0
 10
59.93582222752422
 20
85.11526950168134
 30
0.0
 11
65.564177772476057
 21
91.822882442775224
 31
0.0
  0
LINE
  5
5BB
  8
0
 10
34.435822227524227
 20
91.822882442775224
 30
0.0
 11
40.06417777247605
 21
85.11526950168134
 31
0.0
  0
ARC
  5
5BC
  8
0
 10
37.500000000000142
 20
97.08672046800254
 30
0.0
 40
3.9999999999999938
 50
98.357480095666091
 51
180.0
  0
ARC
  5
5BD
  8
0
 10
62.500000000000142
 20
97.08672046800254
 30
0.0
 40
3.9999999999999889
 50
0.0
 51
81.642519904333895
  0
LINE
  5
5BE
  8
0
 10
33.500000000000142
 20
97.086720468002525
 30
0.0
 11
33.500000000000142
 21
94.394032881521383
 31
0.0
  0
LINE
  5
5BF
  8
0
 10
66.500000000000142
 20
94.394032881521383
 30
0.0
 11
66.500000000000142
 21
97.086720468002525
 31
0.0
  0
ARC
  5
5C0
  8
0
 10
37.500000000000107
 20
94.394032881521383
 30
0.0
 40
3.9999999999999778
 50
180.0
 51
220.0000000000002
  0
ARC
  5
5C1
  8
0
 10
62.500000000000142
 20
94.394032881521383
 30
0.0
 40
4.0000000000000098
 50
320.00000000000063
 51
0.0
  0
CIRCLE
  5
5CA
  8
0
 10
50.0
 20
134.5
 30
0.0
 40
16.5
  0
LINE
  5
5CB
  8
1
 10
50.0
 20
154.0
 30
0.0
 11
50.0
 21
115.0
 31
0.0
  0
LINE
  5
5CC
  8
1
 10
30.5
 20
134.5
 30
0.0
 11
69.5
 21
134.5
 31
0.0
  0
LINE
  5
5D1
  8
1
 10
50.0
 20
105.0
 30
0.0
 11
50.0
 21
50.0
 31
0.0
  0
LINE
  5
63C
  8
0
 10
47.0
 20
67.550000000000011
 30
0.0
 11
47.0
 21
66.682050807568885
 31
0.0
  0
LINE
  5
63D
  8
0
 10
53.0
 20
66.682050807568885
 30
0.0
 11
53.0
 21
67.550000000000011
 31
0.0
  0
ARC
  5
63E
  8
0
 10
46.399999999999991
 20
67.549999999999983
 30
0.0
 40
0.6000000000000006
 50
0.0
 51
90.000000000000384
  0
ARC
  5
63F
  8
0
 10
53.600000000000001
 20
67.549999999999983
 30
0.0
 40
0.6000000000000015
 50
90.0
 51
180.0
  0
LINE
  5
640
  8
0
 10
46.075000000000003
 20
68.599999999999994
 30
0.0
 11
46.075000000000003
 21
68.150000000000006
 31
0.0
  0
LINE
  5
641
  8
0
 10
53.924999999999997
 20
68.150000000000006
 30
0.0
 11
53.924999999999997
 21
68.599999999999994
 31
0.0
  0
LINE
  5
642
  8
0
 10
53.924999999999997
 20
68.150000000000006
 30
0.0
 11
46.075000000000003
 21
68.150000000000006
 31
0.0
  0
LINE
  5
643
  8
0
 10
53.23299999999999
 20
53.0
 30
0.0
 11
54.0
 21
53.766999999999989
 31
0.0
  0
LINE
  5
644
  8
0
 10
46.0
 20
53.766999999999989
 30
0.0
 11
46.767000000000003
 21
53.0
 31
0.0
  0
LINE
  5
645
  8
0
 10
53.23299999999999
 20
53.0
 30
0.0
 11
46.767000000000003
 21
53.0
 31
0.0
  0
LINE
  5
646
  8
0
 10
46.0
 20
64.949999999999989
 30
0.0
 11
46.0
 21
53.766999999999989
 31
0.0
  0
LINE
  5
647
  8
0
 10
54.0
 20
53.766999999999989
 30
0.0
 11
54.0
 21
64.949999999999989
 31
0.0
  0
LINE
  5
648
  8
0
 10
54.0
 20
53.766999999999989
 30
0.0
 11
46.0
 21
53.766999999999989
 31
0.0
  0
LINE
  5
649
  8
0
 10
47.0
 20
66.682050807568885
 30
0.0
 11
46.0
 21
64.949999999999989
 31
0.0
  0
LINE
  5
64A
  8
0
 10
54.0
 20
64.949999999999989
 30
0.0
 11
53.0
 21
66.682050807568885
 31
0.0
  0
LINE
  5
64B
  8
0
 10
54.0
 20
64.949999999999989
 30
0.0
 11
46.0
 21
64.949999999999989
 31
0.0
  0
LINE
  5
64C
  8
0
 10
53.0
 20
66.682050807568885
 30
0.0
 11
47.0
 21
66.682050807568885
 31
0.0
  0
ARC
  5
64D
  8
0
 10
45.67499999999999
 20
68.599999999999994
 30
0.0
 40
0.4000000000000013
 50
0.0
 51
90.0
  0
ARC
  5
64E
  8
0
 10
54.325000000000003
 20
68.599999999999994
 30
0.0
 40
0.4000000000000012
 50
90.0
 51
180.0
  0
LINE
  5
64F
  8
3
 10
53.23299999999999
 20
53.0
 30
0.0
 11
53.23299999999999
 21
64.950000000000003
 31
0.0
  0
LINE
  5
650
  8
3
 10
46.767000000000003
 20
53.0
 30
0.0
 11
46.767000000000003
 21
64.950000000000003
 31
0.0
  0
ENDSEC
  0
EOF
