  0
SECTION
  2
HEADER
  9
$ACADVER
  1
AC1009
  9
$INSBASE
 10
0.0
 20
0.0
 30
0.0
  9
$EXTMIN
 10
0.0
 20
-2.960436562073669
 30
0.0
  9
$EXTMAX
 10
115.4999999999707
 20
131.19999999999999
 30
0.0
  9
$LIMMIN
 10
0.0
 20
0.0
  9
$LIMMAX
 10
375.0
 20
270.0
  9
$ORTHOMODE
 70
     1
  9
$REGENMODE
 70
     1
  9
$FILLMODE
 70
     1
  9
$QTEXTMODE
 70
     0
  9
$MIRRTEXT
 70
     0
  9
$DRAGMODE
 70
     2
  9
$LTSCALE
 40
10.0
  9
$OSMODE
 70
    37
  9
$ATTMODE
 70
     1
  9
$TEXTSIZE
 40
0.2
  9
$TRACEWID
 40
0.05
  9
$TEXTSTYLE
  7
STANDARD
  9
$CLAYER
  8
0
  9
$CELTYPE
  6
BYLAYER
  9
$CECOLOR
 62
   256
  9
$DIMSCALE
 40
1.0
  9
$DIMASZ
 40
3.0
  9
$DIMEXO
 40
2.0
  9
$DIMDLI
 40
0.38
  9
$DIMRND
 40
0.0
  9
$DIMDLE
 40
0.0
  9
$DIMEXE
 40
2.0
  9
$DIMTP
 40
0.0
  9
$DIMTM
 40
0.0
  9
$DIMTXT
 40
3.2000000000000002
  9
$DIMCEN
 40
0.09
  9
$DIMTSZ
 40
0.0
  9
$DIMTOL
 70
     0
  9
$DIMLIM
 70
     0
  9
$DIMTIH
 70
     0
  9
$DIMTOH
 70
     0
  9
$DIMSE1
 70
     0
  9
$DIMSE2
 70
     0
  9
$DIMTAD
 70
     1
  9
$DIMZIN
 70
     0
  9
$DIMBLK
  1

  9
$DIMASO
 70
     1
  9
$DIMSHO
 70
     0
  9
$DIMPOST
  1

  9
$DIMAPOST
  1

  9
$DIMALT
 70
     0
  9
$DIMALTD
 70
     2
  9
$DIMALTF
 40
25.399999999999999
  9
$DIMLFAC
 40
1.0
  9
$DIMTOFL
 70
     0
  9
$DIMTVP
 40
1.6000000000000001
  9
$DIMTIX
 70
     1
  9
$DIMSOXD
 70
     0
  9
$DIMSAH
 70
     0
  9
$DIMBLK1
  1

  9
$DIMBLK2
  1

  9
$DIMSTYLE
  2
STANDARD
  9
$DIMCLRD
 70
     0
  9
$DIMCLRE
 70
     0
  9
$DIMCLRT
 70
     0
  9
$DIMTFAC
 40
1.0
  9
$DIMGAP
 40
0.09
  9
$LUNITS
 70
     2
  9
$LUPREC
 70
     4
  9
$SKETCHINC
 40
0.1
  9
$FILLETRAD
 40
0.0
  9
$AUNITS
 70
     0
  9
$AUPREC
 70
     0
  9
$MENU
  1
E:\r13\win\SUPPORT\ACAD
  9
$ELEVATION
 40
0.0
  9
$PELEVATION
 40
0.0
  9
$THICKNESS
 40
0.0
  9
$LIMCHECK
 70
     0
  9
$BLIPMODE
 70
     0
  9
$CHAMFERA
 40
0.0
  9
$CHAMFERB
 40
0.0
  9
$SKPOLY
 70
     0
  9
$TDCREATE
 40
2449839.7822916671
  9
$TDUPDATE
 40
2458820.7247806252
  9
$TDINDWG
 40
0.0163265741
  9
$TDUSRTIMER
 40
0.0163265741
  9
$USRTIMER
 70
     1
  9
$ANGBASE
 50
0.0
  9
$ANGDIR
 70
     0
  9
$PDMODE
 70
     0
  9
$PDSIZE
 40
0.0
  9
$PLINEWID
 40
0.0
  9
$COORDS
 70
     1
  9
$SPLFRAME
 70
     0
  9
$SPLINETYPE
 70
     6
  9
$SPLINESEGS
 70
     8
  9
$ATTDIA
 70
     0
  9
$ATTREQ
 70
     1
  9
$HANDLING
 70
     1
  9
$HANDSEED
  5
7FB
  9
$SURFTAB1
 70
     6
  9
$SURFTAB2
 70
     6
  9
$SURFTYPE
 70
     6
  9
$SURFU
 70
     6
  9
$SURFV
 70
     6
  9
$UCSNAME
  2

  9
$UCSORG
 10
0.0
 20
0.0
 30
0.0
  9
$UCSXDIR
 10
1.0
 20
0.0
 30
0.0
  9
$UCSYDIR
 10
0.0
 20
1.0
 30
0.0
  9
$PUCSNAME
  2

  9
$PUCSORG
 10
0.0
 20
0.0
 30
0.0
  9
$PUCSXDIR
 10
1.0
 20
0.0
 30
0.0
  9
$PUCSYDIR
 10
0.0
 20
1.0
 30
0.0
  9
$USERI1
 70
     0
  9
$USERI2
 70
     1
  9
$USERI3
 70
     1
  9
$USERI4
 70
     0
  9
$USERI5
 70
     0
  9
$USERR1
 40
0.0
  9
$USERR2
 40
0.0
  9
$USERR3
 40
0.0
  9
$USERR4
 40
0.0
  9
$USERR5
 40
0.0
  9
$WORLDVIEW
 70
     1
  9
$SHADEDGE
 70
     3
  9
$SHADEDIF
 70
    70
  9
$TILEMODE
 70
     1
  9
$MAXACTVP
 70
    16
  9
$PLIMCHECK
 70
     0
  9
$PEXTMIN
 10
1.0000000000000000E+020
 20
1.0000000000000000E+020
 30
1.0000000000000000E+020
  9
$PEXTMAX
 10
-1.0000000000000000E+020
 20
-1.0000000000000000E+020
 30
-1.0000000000000000E+020
  9
$PLIMMIN
 10
0.0
 20
0.0
  9
$PLIMMAX
 10
12.0
 20
9.0
  9
$UNITMODE
 70
     0
  9
$VISRETAIN
 70
     0
  9
$PLINEGEN
 70
     0
  9
$PSLTSCALE
 70
     0
  0
ENDSEC
  0
SECTION
  2
TABLES
  0
TABLE
  2
VPORT
 70
     1
  0
VPORT
  2
*ACTIVE
 70
     0
 10
0.0
 20
0.0
 11
1.0
 21
1.0
 12
130.69572771484971
 22
64.116568236689162
 13
0.0
 23
0.0
 14
10.0
 24
10.0
 15
10.0
 25
10.0
 16
0.0
 26
0.0
 36
1.0
 17
0.0
 27
0.0
 37
0.0
 40
135.34407935636071
 41
2.415644171779141
 42
50.0
 43
0.0
 44
0.0
 50
0.0
 51
0.0
 71
     0
 72
   500
 73
     1
 74
     0
 75
     0
 76
     0
 77
     0
 78
     2
  0
ENDTAB
  0
TABLE
  2
LTYPE
 70
     4
  0
LTYPE
  2
CONTINUOUS
 70
     0
  3
Solid Line
 72
    65
 73
     0
 40
0.0
  0
LTYPE
  2
CENTER
 70
     0
  3
____ _ ____ _ ____ _ ____ _ ____ _ ____ _ ____
 72
    65
 73
     4
 40
2.0
 49
1.25
 49
-0.25
 49
0.25
 49
-0.25
  0
LTYPE
  2
HIDDEN
 70
     0
  3
_ _ _ _ _ _ _ _ _ _ _ _ _ _ _ _ _ _ _ _ _ _ _
 72
    65
 73
     2
 40
0.375
 49
0.25
 49
-0.125
  0
LTYPE
  2
PHANTOM2
 70
     0
  3
___ _ _ ___ _ _ ___ _ _ ___ _ _
 72
    65
 73
     6
 40
1.25
 49
0.625
 49
-0.125
 49
0.125
 49
-0.125
 49
0.125
 49
-0.125
  0
ENDTAB
  0
TABLE
  2
LAYER
 70
     3
  0
LAYER
  2
0
 70
     0
 62
     7
  6
CONTINUOUS
  0
LAYER
  2
1
 70
     0
 62
     1
  6
CENTER
  0
LAYER
  2
2
 70
     0
 62
     2
  6
HIDDEN
  0
ENDTAB
  0
TABLE
  2
STYLE
 70
     2
  0
STYLE
  2
STANDARD
 70
     0
 40
0.0
 41
1.0
 50
0.0
 71
     0
 42
0.2
  3
TXT
  4
BIGFONT
  0
STYLE
  2
STANDARD1
 70
     0
 40
0.0
 41
1.0
 50
0.0
 71
     0
 42
3.0
  3
txt
  4

  0
ENDTAB
  0
TABLE
  2
VIEW
 70
     1
  0
VIEW
  2
ALL
 70
     0
 40
270.0
 10
220.99159663865549
 20
135.0
 41
0.0
 11
0.0
 21
0.0
 31
1.0
 12
0.0
 22
0.0
 32
0.0
 42
0.0
 43
0.0
 44
0.0
 50
0.0
 71
     0
  0
ENDTAB
  0
TABLE
  2
UCS
 70
     0
  0
ENDTAB
  0
TABLE
  2
APPID
 70
     4
  0
APPID
  2
ACAD
 70
     0
  0
APPID
  2
ACAD_MLEADERVER
 70
     0
  0
APPID
  2
ACAD_NAV_VCDISPLAY
 70
     0
  0
APPID
  2
ACAD_EXEMPT_FROM_CAD_STANDARDS
 70
     0
  0
ENDTAB
  0
TABLE
  2
DIMSTYLE
 70
     1
  0
DIMSTYLE
  2
STANDARD
 70
     0
  3

  4

  5

  6

  7

 40
1.0
 41
0.18
 42
0.0625
 43
0.38
 44
0.18
 45
0.0
 46
0.0
 47
0.0
 48
0.0
140
0.18
141
0.09
142
0.0
143
25.399999999999999
144
1.0
145
0.0
146
1.0
147
0.09
 71
     0
 72
     0
 73
     1
 74
     1
 75
     0
 76
     0
 77
     0
 78
     0
170
     0
171
     2
172
     0
173
     0
174
     0
175
     0
176
     0
177
     0
178
     0
  0
ENDTAB
  0
ENDSEC
  0
SECTION
  2
BLOCKS
  0
BLOCK
  8
0
  2
$MODEL_SPACE
 70
     0
 10
0.0
 20
0.0
 30
0.0
  3
$MODEL_SPACE
  1

  0
ENDBLK
  5
10E
  8
0
  0
BLOCK
 67
     1
  8
0
  2
$PAPER_SPACE
 70
     0
 10
0.0
 20
0.0
 30
0.0
  3
$PAPER_SPACE
  1

  0
ENDBLK
  5
10C
 67
     1
  8
0
  0
ENDSEC
  0
SECTION
  2
ENTITIES
  0
TEXT
  5
6BA
  8
0
 62
     3
 10
0.0
 20
0.0
 30
0.0
 40
10.0
  1
HD-WN06
  7
STANDARD1
  0
LINE
  5
6BB
  8
2
 10
99.999999999970754
 20
63.41941563680269
 30
0.0
 11
97.541499999970753
 21
62.0
 31
0.0
  0
LINE
  5
6BC
  8
2
 10
102.4584999999707
 20
62.0
 30
0.0
 11
99.999999999970754
 21
63.41941563680269
 31
0.0
  0
LINE
  5
6BD
  8
2
 10
102.4584999999707
 20
62.0
 30
0.0
 11
97.541499999970753
 21
62.0
 31
0.0
  0
LINE
  5
6BE
  8
2
 10
97.541499999970753
 20
62.0
 30
0.0
 11
97.541499999970753
 21
53.541499999999999
 31
0.0
  0
LINE
  5
6BF
  8
2
 10
102.4584999999707
 20
53.541499999999999
 30
0.0
 11
102.4584999999707
 21
62.0
 31
0.0
  0
LINE
  5
6C0
  8
2
 10
102.4584999999707
 20
53.541499999999999
 30
0.0
 11
97.541499999970753
 21
53.541499999999999
 31
0.0
  0
LINE
  5
6C1
  8
2
 10
97.541499999970753
 20
53.541499999999999
 30
0.0
 11
96.999999999970754
 21
53.0
 31
0.0
  0
LINE
  5
6C2
  8
2
 10
102.9999999999707
 20
53.0
 30
0.0
 11
102.4584999999707
 21
53.541499999999999
 31
0.0
  0
LINE
  5
6C3
  8
2
 10
102.9999999999707
 20
53.0
 30
0.0
 11
102.9999999999707
 21
60.0
 31
0.0
  0
LINE
  5
6C4
  8
2
 10
96.999999999970754
 20
60.0
 30
0.0
 11
102.9999999999707
 21
60.0
 31
0.0
  0
LINE
  5
6C5
  8
2
 10
96.999999999970754
 20
53.0
 30
0.0
 11
96.999999999970754
 21
60.0
 31
0.0
  0
LINE
  5
6C6
  8
0
 10
56.549999999941491
 20
53.0
 30
0.0
 11
43.45000000000001
 21
53.0
 31
0.0
  0
ARC
  5
6C7
  8
0
 10
43.45000000000001
 20
53.549999999999997
 30
0.0
 40
0.5499999999999999
 50
180.0
 51
270.0
  0
ARC
  5
6C8
  8
0
 10
56.549999999999983
 20
53.549999999999997
 30
0.0
 40
0.5500000000000006
 50
270.0
 51
0.0
  0
LINE
  5
6C9
  8
0
 10
42.899999999999999
 20
58.930232593862499
 30
0.0
 11
42.899999999999999
 21
53.549999999999997
 31
0.0
  0
LINE
  5
6CA
  8
0
 10
57.099999999999987
 20
53.549999999999997
 30
0.0
 11
57.099999999999987
 21
58.930232593862499
 31
0.0
  0
LINE
  5
6CB
  8
0
 10
53.0
 20
67.5
 30
0.0
 11
53.0
 21
77.949986103389691
 31
0.0
  0
ARC
  5
6CC
  8
0
 10
50.0
 20
-11.99999999997806
 30
0.0
 40
89.999999999978058
 50
88.089786828290187
 51
91.910213171709813
  0
LINE
  5
6CD
  8
0
 10
47.0
 20
77.949986103389691
 30
0.0
 11
47.0
 21
67.5
 31
0.0
  0
LINE
  5
6CE
  8
1
 10
50.0
 20
81.0
 30
0.0
 11
50.0
 21
50.0
 31
0.0
  0
POLYLINE
  5
6CF
  8
0
 66
     1
 10
0.0
 20
0.0
 30
0.0
  0
VERTEX
  5
78F
  8
0
 10
94.747832847356165
 20
126.45664080666781
 30
0.0
  0
VERTEX
  5
790
  8
0
 10
94.39072264726164
 20
126.27989914276699
 30
0.0
  0
VERTEX
  5
791
  8
0
 10
94.044627275218772
 20
126.1017923744499
 30
0.0
  0
VERTEX
  5
792
  8
0
 10
93.707057606494274
 20
125.9229946911924
 30
0.0
  0
VERTEX
  5
793
  8
0
 10
93.379672095304187
 20
125.7462926408845
 30
0.0
  0
VERTEX
  5
794
  8
0
 10
92.969191479812125
 20
125.5229099064381
 30
0.0
  0
VERTEX
  5
795
  8
0
 10
92.57299726207367
 20
125.30850389953849
 30
0.0
  0
VERTEX
  5
796
  8
0
 10
92.189970894425727
 20
125.1057566594786
 30
0.0
  0
VERTEX
  5
797
  8
0
 10
91.818993829205255
 20
124.9173502255513
 30
0.0
  0
VERTEX
  5
798
  8
0
 10
91.448351002883783
 20
124.7408287535488
 30
0.0
  0
VERTEX
  5
799
  8
0
 10
91.086933990767136
 20
124.5830168650284
 30
0.0
  0
VERTEX
  5
79A
  8
0
 10
90.733959542112444
 20
124.4454241831867
 30
0.0
  0
VERTEX
  5
79B
  8
0
 10
90.388644406176837
 20
124.32956033121999
 30
0.0
  0
VERTEX
  5
79C
  8
0
 10
90.025528678008612
 20
124.2306585466097
 30
0.0
  0
VERTEX
  5
79D
  8
0
 10
89.669303074729385
 20
124.1588555508762
 30
0.0
  0
VERTEX
  5
79E
  8
0
 10
89.316728363428879
 20
124.1148351036308
 30
0.0
  0
VERTEX
  5
79F
  8
0
 10
88.970593684638317
 20
124.09999999999999
 30
0.0
  0
SEQEND
  5
7A0
  8
0
  0
POLYLINE
  5
6D0
  8
0
 66
     1
 10
0.0
 20
0.0
 30
0.0
  0
VERTEX
  5
7A1
  8
0
 10
111.02940631530321
 20
124.09999999999999
 30
0.0
  0
VERTEX
  5
7A2
  8
0
 10
110.670445991894
 20
124.1159789766493
 30
0.0
  0
VERTEX
  5
7A3
  8
0
 10
110.3043320044395
 20
124.1633127498185
 30
0.0
  0
VERTEX
  5
7A4
  8
0
 10
109.9312882368845
 20
124.2410965843398
 30
0.0
  0
VERTEX
  5
7A5
  8
0
 10
109.543074398665
 20
124.3509429403764
 30
0.0
  0
VERTEX
  5
7A6
  8
0
 10
109.14581677135349
 20
124.49016368723299
 30
0.0
  0
VERTEX
  5
7A7
  8
0
 10
108.73870604788191
 20
124.6569649036616
 30
0.0
  0
VERTEX
  5
7A8
  8
0
 10
108.37276521213261
 20
124.8244681222845
 30
0.0
  0
VERTEX
  5
7A9
  8
0
 10
107.99628657129441
 20
125.0101846860498
 30
0.0
  0
VERTEX
  5
7AA
  8
0
 10
107.60811419631401
 20
125.2117857788332
 30
0.0
  0
VERTEX
  5
7AB
  8
0
 10
107.207092158138
 20
125.4269425845104
 30
0.0
  0
VERTEX
  5
7AC
  8
0
 10
106.7774874939733
 20
125.6609278119315
 30
0.0
  0
VERTEX
  5
7AD
  8
0
 10
106.3297119003946
 20
125.9034758271159
 30
0.0
  0
VERTEX
  5
7AE
  8
0
 10
105.862878710494
 20
126.1500707924197
 30
0.0
  0
VERTEX
  5
7AF
  8
0
 10
105.3761012573633
 20
126.39619687019891
 30
0.0
  0
VERTEX
  5
7B0
  8
0
 10
105.2521671525853
 20
126.45664080666781
 30
0.0
  0
SEQEND
  5
7B1
  8
0
  0
POLYLINE
  5
6D1
  8
0
 66
     1
 10
0.0
 20
0.0
 30
0.0
  0
VERTEX
  5
7B2
  8
0
 10
105.2521671525853
 20
126.45664080666781
 30
0.0
  0
VERTEX
  5
7B3
  8
0
 10
104.5118028732925
 20
126.8274789814262
 30
0.0
  0
VERTEX
  5
7B4
  8
0
 10
104.1367277279608
 20
127.018065760363
 30
0.0
  0
VERTEX
  5
7B5
  8
0
 10
103.75479306256091
 20
127.2075491602926
 30
0.0
  0
VERTEX
  5
7B6
  8
0
 10
103.3595569877305
 20
127.3940718639366
 30
0.0
  0
VERTEX
  5
7B7
  8
0
 10
102.9527348588402
 20
127.5716566939774
 30
0.0
  0
VERTEX
  5
7B8
  8
0
 10
102.5277796729706
 20
127.7378097048674
 30
0.0
  0
VERTEX
  5
7B9
  8
0
 10
102.44552093333211
 20
127.7655402905159
 30
0.0
  0
SEQEND
  5
7BA
  8
0
  0
POLYLINE
  5
6D2
  8
0
 66
     1
 10
0.0
 20
0.0
 30
0.0
  0
VERTEX
  5
7BB
  8
0
 10
97.609547776889031
 20
127.78548713028169
 30
0.0
  0
VERTEX
  5
7BC
  8
0
 10
97.542443533948955
 20
127.7631731508279
 30
0.0
  0
VERTEX
  5
7BD
  8
0
 10
97.183646414477195
 20
127.62729198213491
 30
0.0
  0
VERTEX
  5
7BE
  8
0
 10
96.83069606523776
 20
127.4791682048908
 30
0.0
  0
VERTEX
  5
7BF
  8
0
 10
96.486811483530317
 20
127.3230021478571
 30
0.0
  0
VERTEX
  5
7C0
  8
0
 10
96.144603809147526
 20
127.158345587182
 30
0.0
  0
VERTEX
  5
7C1
  8
0
 10
95.809224088310515
 20
126.990764727841
 30
0.0
  0
VERTEX
  5
7C2
  8
0
 10
95.149888135053658
 20
126.6556668356282
 30
0.0
  0
VERTEX
  5
7C3
  8
0
 10
94.747832847356165
 20
126.45664080666781
 30
0.0
  0
SEQEND
  5
7C4
  8
0
  0
ARC
  5
6D3
  8
0
 10
99.999999999970797
 20
121.09999999999999
 30
0.0
 40
12.500000000000011
 50
166.11345963737111
 51
193.88654036262881
  0
LINE
  5
6D4
  8
0
 10
112.1346610994823
 20
124.09999999999999
 30
0.0
 11
87.865338900459165
 21
124.09999999999999
 31
0.0
  0
LINE
  5
6D5
  8
0
 10
87.865338900459165
 20
118.09999999999999
 30
0.0
 11
112.1346610994823
 21
118.09999999999999
 31
0.0
  0
ARC
  5
6D6
  8
0
 10
99.999999999970839
 20
121.09999999999999
 30
0.0
 40
12.49999999999992
 50
346.11345963737108
 51
13.88654036262882
  0
LINE
  5
6D7
  8
1
 10
84.499999999970754
 20
121.09999999999999
 30
0.0
 11
115.4999999999707
 21
121.09999999999999
 31
0.0
  0
LINE
  5
6D8
  8
1
 10
99.999999999970754
 20
111.0
 30
0.0
 11
99.999999999970754
 21
131.19999999999999
 31
0.0
  0
ARC
  5
6D9
  8
0
 10
99.999999999970754
 20
121.09999999999999
 30
0.0
 40
7.0999999999999988
 50
69.852411319160367
 51
109.67493789677179
  0
POLYLINE
  5
6DA
  8
0
 66
     1
 10
0.0
 20
0.0
 30
0.0
  0
VERTEX
  5
7C5
  8
0
 10
94.747832847356165
 20
115.7433591933321
 30
0.0
  0
VERTEX
  5
7C6
  8
0
 10
94.39072264726164
 20
115.9201008572329
 30
0.0
  0
VERTEX
  5
7C7
  8
0
 10
94.044627275218772
 20
116.09820762555
 30
0.0
  0
VERTEX
  5
7C8
  8
0
 10
93.707057606494274
 20
116.2770053088075
 30
0.0
  0
VERTEX
  5
7C9
  8
0
 10
93.379672095304187
 20
116.4537073591155
 30
0.0
  0
VERTEX
  5
7CA
  8
0
 10
92.969191479812125
 20
116.6770900935618
 30
0.0
  0
VERTEX
  5
7CB
  8
0
 10
92.57299726207367
 20
116.8914961004615
 30
0.0
  0
VERTEX
  5
7CC
  8
0
 10
92.189970894425727
 20
117.0942433405214
 30
0.0
  0
VERTEX
  5
7CD
  8
0
 10
91.818993829205255
 20
117.2826497744487
 30
0.0
  0
VERTEX
  5
7CE
  8
0
 10
91.448351002883783
 20
117.45917124645111
 30
0.0
  0
VERTEX
  5
7CF
  8
0
 10
91.086933990767136
 20
117.61698313497151
 30
0.0
  0
VERTEX
  5
7D0
  8
0
 10
90.733959542112444
 20
117.7545758168133
 30
0.0
  0
VERTEX
  5
7D1
  8
0
 10
90.388644406176837
 20
117.87043966877989
 30
0.0
  0
VERTEX
  5
7D2
  8
0
 10
90.025528678008612
 20
117.9693414533903
 30
0.0
  0
VERTEX
  5
7D3
  8
0
 10
89.669303074729385
 20
118.04114444912371
 30
0.0
  0
VERTEX
  5
7D4
  8
0
 10
89.316728363428879
 20
118.08516489636921
 30
0.0
  0
VERTEX
  5
7D5
  8
0
 10
88.970593684638317
 20
118.09999999999999
 30
0.0
  0
SEQEND
  5
7D6
  8
0
  0
POLYLINE
  5
6DB
  8
0
 66
     1
 10
0.0
 20
0.0
 30
0.0
  0
VERTEX
  5
7D7
  8
0
 10
111.02940631530321
 20
118.09999999999999
 30
0.0
  0
VERTEX
  5
7D8
  8
0
 10
110.670445991894
 20
118.0840210233507
 30
0.0
  0
VERTEX
  5
7D9
  8
0
 10
110.3043320044395
 20
118.0366872501814
 30
0.0
  0
VERTEX
  5
7DA
  8
0
 10
109.9312882368845
 20
117.9589034156601
 30
0.0
  0
VERTEX
  5
7DB
  8
0
 10
109.543074398665
 20
117.8490570596235
 30
0.0
  0
VERTEX
  5
7DC
  8
0
 10
109.14581677135349
 20
117.709836312767
 30
0.0
  0
VERTEX
  5
7DD
  8
0
 10
108.73870604788191
 20
117.5430350963383
 30
0.0
  0
VERTEX
  5
7DE
  8
0
 10
108.37276521213261
 20
117.3755318777154
 30
0.0
  0
VERTEX
  5
7DF
  8
0
 10
107.99628657129441
 20
117.18981531395011
 30
0.0
  0
VERTEX
  5
7E0
  8
0
 10
107.60811419631401
 20
116.9882142211667
 30
0.0
  0
VERTEX
  5
7E1
  8
0
 10
107.207092158138
 20
116.7730574154896
 30
0.0
  0
VERTEX
  5
7E2
  8
0
 10
106.7774874939733
 20
116.5390721880685
 30
0.0
  0
VERTEX
  5
7E3
  8
0
 10
106.3297119003946
 20
116.29652417288411
 30
0.0
  0
VERTEX
  5
7E4
  8
0
 10
105.862878710494
 20
116.04992920758031
 30
0.0
  0
VERTEX
  5
7E5
  8
0
 10
105.3761012573633
 20
115.803803129801
 30
0.0
  0
VERTEX
  5
7E6
  8
0
 10
105.2521671525853
 20
115.7433591933321
 30
0.0
  0
SEQEND
  5
7E7
  8
0
  0
POLYLINE
  5
6DC
  8
0
 66
     1
 10
0.0
 20
0.0
 30
0.0
  0
VERTEX
  5
7E8
  8
0
 10
105.2521671525853
 20
115.7433591933321
 30
0.0
  0
VERTEX
  5
7E9
  8
0
 10
104.5118028732925
 20
115.37252101857381
 30
0.0
  0
VERTEX
  5
7EA
  8
0
 10
104.1367277279608
 20
115.1819342396369
 30
0.0
  0
VERTEX
  5
7EB
  8
0
 10
103.75479306256091
 20
114.9924508397073
 30
0.0
  0
VERTEX
  5
7EC
  8
0
 10
103.3595569877305
 20
114.8059281360634
 30
0.0
  0
VERTEX
  5
7ED
  8
0
 10
102.9527348588402
 20
114.6283433060225
 30
0.0
  0
VERTEX
  5
7EE
  8
0
 10
102.5277796729706
 20
114.4621902951325
 30
0.0
  0
VERTEX
  5
7EF
  8
0
 10
102.44552093333211
 20
114.434459709484
 30
0.0
  0
SEQEND
  5
7F0
  8
0
  0
POLYLINE
  5
6DD
  8
0
 66
     1
 10
0.0
 20
0.0
 30
0.0
  0
VERTEX
  5
7F1
  8
0
 10
97.609547776889031
 20
114.41451286971819
 30
0.0
  0
VERTEX
  5
7F2
  8
0
 10
97.542443533948955
 20
114.43682684917211
 30
0.0
  0
VERTEX
  5
7F3
  8
0
 10
97.183646414477195
 20
114.572708017865
 30
0.0
  0
VERTEX
  5
7F4
  8
0
 10
96.83069606523776
 20
114.72083179510911
 30
0.0
  0
VERTEX
  5
7F5
  8
0
 10
96.486811483530317
 20
114.87699785214279
 30
0.0
  0
VERTEX
  5
7F6
  8
0
 10
96.144603809147526
 20
115.04165441281791
 30
0.0
  0
VERTEX
  5
7F7
  8
0
 10
95.809224088310515
 20
115.20923527215891
 30
0.0
  0
VERTEX
  5
7F8
  8
0
 10
95.149888135053658
 20
115.54433316437181
 30
0.0
  0
VERTEX
  5
7F9
  8
0
 10
94.747832847356165
 20
115.7433591933321
 30
0.0
  0
SEQEND
  5
7FA
  8
0
  0
ARC
  5
6DE
  8
0
 10
99.999999999970754
 20
121.09999999999999
 30
0.0
 40
7.0999999999999988
 50
250.32506210322819
 51
290.14758868083959
  0
LINE
  5
6DF
  8
1
 10
100.0
 20
81.0
 30
0.0
 11
100.0
 21
50.0
 31
0.0
  0
ARC
  5
6E0
  8
0
 10
89.900000000000006
 20
59.196152422699988
 30
0.0
 40
3.0
 50
0.0
 51
30.000000000000249
  0
ARC
  5
6E1
  8
0
 10
110.09999999999999
 20
59.196152422699988
 30
0.0
 40
3.000000000000024
 50
149.99999999999969
 51
180.0
  0
ARC
  5
6E2
  8
0
 10
106.55
 20
53.549999999999997
 30
0.0
 40
0.5500000000000398
 50
270.0
 51
0.0
  0
ARC
  5
6E3
  8
0
 10
93.450000000000003
 20
53.549999999999997
 30
0.0
 40
0.5499999999999972
 50
180.0
 51
270.0
  0
LINE
  5
6E4
  8
0
 10
92.900000000000006
 20
59.196152422699988
 30
0.0
 11
92.900000000000006
 21
53.549999999999997
 31
0.0
  0
LINE
  5
6E5
  8
0
 10
107.09999999999999
 20
53.549999999999997
 30
0.0
 11
107.09999999999999
 21
59.196152422699988
 31
0.0
  0
LINE
  5
6E6
  8
0
 10
107.5019237886905
 20
60.696152422683582
 30
0.0
 11
112.0980762113999
 21
68.656921938100012
 31
0.0
  0
LINE
  5
6E7
  8
0
 10
87.901923788600016
 20
68.656921938100012
 30
0.0
 11
92.498076211299988
 21
60.696152422700003
 31
0.0
  0
ARC
  5
6E8
  8
0
 10
109.5
 20
74.479766419599997
 30
0.0
 40
3.0000000000000009
 50
0.0
 51
83.731063872899867
  0
ARC
  5
6E9
  8
0
 10
90.5
 20
74.479766419599997
 30
0.0
 40
3.0
 50
96.268936127100133
 51
180.0
  0
ARC
  5
6EA
  8
0
 10
109.5
 20
70.156921938100012
 30
0.0
 40
3.0000000000202198
 50
329.99999999979951
 51
0.0
  0
ARC
  5
6EB
  8
0
 10
90.5
 20
70.156921938100012
 30
0.0
 40
3.0000000000202069
 50
180.0
 51
210.0000000002004
  0
ARC
  5
6EC
  8
0
 10
100.0
 20
-12.0
 30
0.0
 40
89.999999999999275
 50
83.731063872899867
 51
96.268936127100133
  0
LINE
  5
6ED
  8
0
 10
87.5
 20
74.479766419599997
 30
0.0
 11
87.5
 21
70.156921938100012
 31
0.0
  0
LINE
  5
6EE
  8
0
 10
112.5
 20
70.156921938100012
 30
0.0
 11
112.5
 21
74.479766419599997
 31
0.0
  0
ARC
  5
6EF
  8
0
 10
101.30472484809999
 20
70.437786526899998
 30
0.0
 40
11.74275383932501
 50
236.0563203186002
 51
253.20112938500009
  0
ARC
  5
6F0
  8
0
 10
98.421225277999994
 20
71.015681771099992
 30
0.0
 40
12.37555868911052
 50
287.24025550290008
 51
303.50229479360019
  0
LINE
  5
6F1
  8
0
 10
93.450000000000003
 20
53.0
 30
0.0
 11
106.55
 21
53.0
 31
0.0
  0
ARC
  5
6F2
  8
0
 10
93.612834639300004
 20
76.433957173200014
 30
0.0
 40
19.57428312154423
 50
306.48581065919961
 51
332.84411431079951
  0
ARC
  5
6F3
  8
0
 10
100.0
 20
67.2691751009
 30
0.0
 40
8.3389425070374923
 50
255.49163719940009
 51
284.5083628005998
  0
ARC
  5
6F4
  8
0
 10
106.85739613219999
 20
76.833236492300003
 30
0.0
 40
20.175405949328042
 50
207.55530856919989
 51
233.1147664607997
  0
LINE
  5
6F5
  8
0
 10
111.7202153571
 20
68.656921938100012
 30
0.0
 11
111.0294063154
 21
67.499999999900012
 31
0.0
  0
LINE
  5
6F6
  8
0
 10
88.970593684600018
 20
67.499999999900012
 30
0.0
 11
88.279784642900012
 21
68.656921938100012
 31
0.0
  0
ARC
  5
6F7
  8
0
 10
109.09659600809999
 20
74.434737070200001
 30
0.0
 40
3.0383987793080078
 50
0.8491598090002664
 51
85.055152545199817
  0
ARC
  5
6F8
  8
0
 10
90.89567402889999
 20
74.441933319000015
 30
0.0
 40
3.0305712883599711
 50
94.810976312899953
 51
179.2847113328001
  0
ARC
  5
6F9
  8
0
 10
109.2053526728
 20
70.159026450799985
 30
0.0
 40
2.9293091827132112
 50
329.1505136394
 51
359.95883681099968
  0
ARC
  5
6FA
  8
0
 10
90.793510619800003
 20
70.158712381800001
 30
0.0
 40
2.9281722667361612
 50
180.0350337564002
 51
210.85561579319941
  0
ARC
  5
6FB
  8
0
 10
100.0
 20
-12.014494581299999
 30
0.0
 40
89.964402035197594
 50
84.029036939199983
 51
95.970963060799988
  0
LINE
  5
6FC
  8
0
 10
112.13466109949999
 20
70.156921938100012
 30
0.0
 11
112.13466109949999
 21
74.479766419599997
 31
0.0
  0
LINE
  5
6FD
  8
0
 10
87.865338900500007
 20
74.479766419599997
 30
0.0
 11
87.865338900500007
 21
70.156921938100012
 31
0.0
  0
ARC
  5
6FE
  8
0
 10
35.999999999970761
 20
67.499999999999986
 30
0.0
 40
11.000000000000339
 50
321.79101690979968
 51
359.9999999998999
  0
ARC
  5
6FF
  8
0
 10
35.999999999970761
 20
67.499999999999986
 30
0.0
 40
10.999999999998691
 50
310.9837835825
 51
321.79101690990041
  0
ARC
  5
700
  8
0
 10
25.38423939106778
 20
79.951385055714454
 30
0.0
 40
27.36221337051969
 50
309.8025686657889
 51
310.66466756053097
  0
ARC
  5
701
  8
0
 10
64.000000000029246
 20
67.499999999999986
 30
0.0
 40
11.000000000000339
 50
180.00000000010019
 51
218.20898309020041
  0
ARC
  5
702
  8
0
 10
64.000000000029246
 20
67.499999999999986
 30
0.0
 40
10.999999999998691
 50
218.20898309009951
 51
229.0162164175
  0
ARC
  5
703
  8
0
 10
74.615760609037522
 20
79.951385055838585
 30
0.0
 40
27.362213370682468
 50
229.3353324394711
 51
230.1974313342082
  0
ENDSEC
  0
EOF
