  0
SECTION
  2
HEADER
  9
$ACADVER
  1
AC1009
  9
$INSBASE
 10
0.0
 20
0.0
 30
0.0
  9
$EXTMIN
 10
0.0
 20
-2.960436562073669
 30
0.0
  9
$EXTMAX
 10
173.0
 20
154.29999999999879
 30
0.0
  9
$LIMMIN
 10
0.0
 20
0.0
  9
$LIMMAX
 10
375.0
 20
270.0
  9
$ORTHOMODE
 70
     1
  9
$REGENMODE
 70
     1
  9
$FILLMODE
 70
     1
  9
$QTEXTMODE
 70
     0
  9
$MIRRTEXT
 70
     0
  9
$DRAGMODE
 70
     2
  9
$LTSCALE
 40
10.0
  9
$OSMODE
 70
    37
  9
$ATTMODE
 70
     1
  9
$TEXTSIZE
 40
0.2
  9
$TRACEWID
 40
0.05
  9
$TEXTSTYLE
  7
STANDARD
  9
$CLAYER
  8
0
  9
$CELTYPE
  6
BYLAYER
  9
$CECOLOR
 62
   256
  9
$DIMSCALE
 40
1.0
  9
$DIMASZ
 40
3.0
  9
$DIMEXO
 40
2.0
  9
$DIMDLI
 40
0.38
  9
$DIMRND
 40
0.0
  9
$DIMDLE
 40
0.0
  9
$DIMEXE
 40
2.0
  9
$DIMTP
 40
0.0
  9
$DIMTM
 40
0.0
  9
$DIMTXT
 40
3.2000000000000002
  9
$DIMCEN
 40
0.09
  9
$DIMTSZ
 40
0.0
  9
$DIMTOL
 70
     0
  9
$DIMLIM
 70
     0
  9
$DIMTIH
 70
     0
  9
$DIMTOH
 70
     0
  9
$DIMSE1
 70
     0
  9
$DIMSE2
 70
     0
  9
$DIMTAD
 70
     1
  9
$DIMZIN
 70
     0
  9
$DIMBLK
  1

  9
$DIMASO
 70
     1
  9
$DIMSHO
 70
     0
  9
$DIMPOST
  1

  9
$DIMAPOST
  1

  9
$DIMALT
 70
     0
  9
$DIMALTD
 70
     2
  9
$DIMALTF
 40
25.399999999999999
  9
$DIMLFAC
 40
1.0
  9
$DIMTOFL
 70
     0
  9
$DIMTVP
 40
1.6000000000000001
  9
$DIMTIX
 70
     1
  9
$DIMSOXD
 70
     0
  9
$DIMSAH
 70
     0
  9
$DIMBLK1
  1

  9
$DIMBLK2
  1

  9
$DIMSTYLE
  2
STANDARD
  9
$DIMCLRD
 70
     0
  9
$DIMCLRE
 70
     0
  9
$DIMCLRT
 70
     0
  9
$DIMTFAC
 40
1.0
  9
$DIMGAP
 40
0.09
  9
$LUNITS
 70
     2
  9
$LUPREC
 70
     4
  9
$SKETCHINC
 40
0.1
  9
$FILLETRAD
 40
0.0
  9
$AUNITS
 70
     0
  9
$AUPREC
 70
     0
  9
$MENU
  1
E:\r13\win\SUPPORT\ACAD
  9
$ELEVATION
 40
0.0
  9
$PELEVATION
 40
0.0
  9
$THICKNESS
 40
0.0
  9
$LIMCHECK
 70
     0
  9
$BLIPMODE
 70
     0
  9
$CHAMFERA
 40
0.0
  9
$CHAMFERB
 40
0.0
  9
$SKPOLY
 70
     0
  9
$TDCREATE
 40
2449839.7822916671
  9
$TDUPDATE
 40
2458820.7247882872
  9
$TDINDWG
 40
0.017307419
  9
$TDUSRTIMER
 40
0.017307419
  9
$USRTIMER
 70
     1
  9
$ANGBASE
 50
0.0
  9
$ANGDIR
 70
     0
  9
$PDMODE
 70
     0
  9
$PDSIZE
 40
0.0
  9
$PLINEWID
 40
0.0
  9
$COORDS
 70
     1
  9
$SPLFRAME
 70
     0
  9
$SPLINETYPE
 70
     6
  9
$SPLINESEGS
 70
     8
  9
$ATTDIA
 70
     0
  9
$ATTREQ
 70
     1
  9
$HANDLING
 70
     1
  9
$HANDSEED
  5
A17
  9
$SURFTAB1
 70
     6
  9
$SURFTAB2
 70
     6
  9
$SURFTYPE
 70
     6
  9
$SURFU
 70
     6
  9
$SURFV
 70
     6
  9
$UCSNAME
  2

  9
$UCSORG
 10
0.0
 20
0.0
 30
0.0
  9
$UCSXDIR
 10
1.0
 20
0.0
 30
0.0
  9
$UCSYDIR
 10
0.0
 20
1.0
 30
0.0
  9
$PUCSNAME
  2

  9
$PUCSORG
 10
0.0
 20
0.0
 30
0.0
  9
$PUCSXDIR
 10
1.0
 20
0.0
 30
0.0
  9
$PUCSYDIR
 10
0.0
 20
1.0
 30
0.0
  9
$USERI1
 70
     0
  9
$USERI2
 70
     1
  9
$USERI3
 70
     1
  9
$USERI4
 70
     0
  9
$USERI5
 70
     0
  9
$USERR1
 40
0.0
  9
$USERR2
 40
0.0
  9
$USERR3
 40
0.0
  9
$USERR4
 40
0.0
  9
$USERR5
 40
0.0
  9
$WORLDVIEW
 70
     1
  9
$SHADEDGE
 70
     3
  9
$SHADEDIF
 70
    70
  9
$TILEMODE
 70
     1
  9
$MAXACTVP
 70
    16
  9
$PLIMCHECK
 70
     0
  9
$PEXTMIN
 10
1.0000000000000000E+020
 20
1.0000000000000000E+020
 30
1.0000000000000000E+020
  9
$PEXTMAX
 10
-1.0000000000000000E+020
 20
-1.0000000000000000E+020
 30
-1.0000000000000000E+020
  9
$PLIMMIN
 10
0.0
 20
0.0
  9
$PLIMMAX
 10
12.0
 20
9.0
  9
$UNITMODE
 70
     0
  9
$VISRETAIN
 70
     0
  9
$PLINEGEN
 70
     0
  9
$PSLTSCALE
 70
     0
  0
ENDSEC
  0
SECTION
  2
TABLES
  0
TABLE
  2
VPORT
 70
     1
  0
VPORT
  2
*ACTIVE
 70
     0
 10
0.0
 20
0.0
 11
1.0
 21
1.0
 12
172.0075153853526
 22
75.67329985317707
 13
0.0
 23
0.0
 14
10.0
 24
10.0
 15
10.0
 25
10.0
 16
0.0
 26
0.0
 36
1.0
 17
0.0
 27
0.0
 37
0.0
 40
158.64983222234119
 41
2.415644171779141
 42
50.0
 43
0.0
 44
0.0
 50
0.0
 51
0.0
 71
     0
 72
   500
 73
     1
 74
     0
 75
     0
 76
     0
 77
     0
 78
     2
  0
ENDTAB
  0
TABLE
  2
LTYPE
 70
     4
  0
LTYPE
  2
CONTINUOUS
 70
     0
  3
Solid Line
 72
    65
 73
     0
 40
0.0
  0
LTYPE
  2
CENTER
 70
     0
  3
____ _ ____ _ ____ _ ____ _ ____ _ ____ _ ____
 72
    65
 73
     4
 40
2.0
 49
1.25
 49
-0.25
 49
0.25
 49
-0.25
  0
LTYPE
  2
HIDDEN
 70
     0
  3
_ _ _ _ _ _ _ _ _ _ _ _ _ _ _ _ _ _ _ _ _ _ _
 72
    65
 73
     2
 40
0.375
 49
0.25
 49
-0.125
  0
LTYPE
  2
PHANTOM2
 70
     0
  3
___ _ _ ___ _ _ ___ _ _ ___ _ _
 72
    65
 73
     6
 40
1.25
 49
0.625
 49
-0.125
 49
0.125
 49
-0.125
 49
0.125
 49
-0.125
  0
ENDTAB
  0
TABLE
  2
LAYER
 70
     3
  0
LAYER
  2
0
 70
     0
 62
     7
  6
CONTINUOUS
  0
LAYER
  2
1
 70
     0
 62
     1
  6
CENTER
  0
LAYER
  2
2
 70
     0
 62
     2
  6
HIDDEN
  0
ENDTAB
  0
TABLE
  2
STYLE
 70
     2
  0
STYLE
  2
STANDARD
 70
     0
 40
0.0
 41
1.0
 50
0.0
 71
     0
 42
0.2
  3
TXT
  4
BIGFONT
  0
STYLE
  2
STANDARD1
 70
     0
 40
0.0
 41
1.0
 50
0.0
 71
     0
 42
3.0
  3
txt
  4

  0
ENDTAB
  0
TABLE
  2
VIEW
 70
     1
  0
VIEW
  2
ALL
 70
     0
 40
270.0
 10
220.99159663865549
 20
135.0
 41
0.0
 11
0.0
 21
0.0
 31
1.0
 12
0.0
 22
0.0
 32
0.0
 42
0.0
 43
0.0
 44
0.0
 50
0.0
 71
     0
  0
ENDTAB
  0
TABLE
  2
UCS
 70
     0
  0
ENDTAB
  0
TABLE
  2
APPID
 70
     4
  0
APPID
  2
ACAD
 70
     0
  0
APPID
  2
ACAD_MLEADERVER
 70
     0
  0
APPID
  2
ACAD_NAV_VCDISPLAY
 70
     0
  0
APPID
  2
ACAD_EXEMPT_FROM_CAD_STANDARDS
 70
     0
  0
ENDTAB
  0
TABLE
  2
DIMSTYLE
 70
     1
  0
DIMSTYLE
  2
STANDARD
 70
     0
  3

  4

  5

  6

  7

 40
1.0
 41
0.18
 42
0.0625
 43
0.38
 44
0.18
 45
0.0
 46
0.0
 47
0.0
 48
0.0
140
0.18
141
0.09
142
0.0
143
25.399999999999999
144
1.0
145
0.0
146
1.0
147
0.09
 71
     0
 72
     0
 73
     1
 74
     1
 75
     0
 76
     0
 77
     0
 78
     0
170
     0
171
     2
172
     0
173
     0
174
     0
175
     0
176
     0
177
     0
178
     0
  0
ENDTAB
  0
ENDSEC
  0
SECTION
  2
BLOCKS
  0
BLOCK
  8
0
  2
$MODEL_SPACE
 70
     0
 10
0.0
 20
0.0
 30
0.0
  3
$MODEL_SPACE
  1

  0
ENDBLK
  5
10E
  8
0
  0
BLOCK
 67
     1
  8
0
  2
$PAPER_SPACE
 70
     0
 10
0.0
 20
0.0
 30
0.0
  3
$PAPER_SPACE
  1

  0
ENDBLK
  5
10C
 67
     1
  8
0
  0
ENDSEC
  0
SECTION
  2
ENTITIES
  0
TEXT
  5
8E2
  8
0
 62
     3
 10
0.0
 20
0.0
 30
0.0
 40
10.0
  1
HD-WN10
  7
STANDARD1
  0
LINE
  5
8E3
  8
2
 10
145.81200000000001
 20
66.0
 30
0.0
 11
145.81200000000001
 21
53.811999999999998
 31
0.0
  0
LINE
  5
8E4
  8
2
 10
154.18799999999999
 20
53.811999999999998
 30
0.0
 11
154.18799999999999
 21
66.0
 31
0.0
  0
LINE
  5
8E5
  8
2
 10
150.0
 20
68.417942927366141
 30
0.0
 11
145.81200000000001
 21
66.0
 31
0.0
  0
LINE
  5
8E6
  8
2
 10
154.18799999999999
 20
66.0
 30
0.0
 11
150.0
 21
68.417942927366141
 31
0.0
  0
LINE
  5
8E7
  8
2
 10
154.18799999999999
 20
66.0
 30
0.0
 11
145.81200000000001
 21
66.0
 31
0.0
  0
LINE
  5
8E8
  8
2
 10
145.81200000000001
 20
53.811999999999998
 30
0.0
 11
145.0
 21
53.0
 31
0.0
  0
LINE
  5
8E9
  8
2
 10
155.0
 20
53.0
 30
0.0
 11
154.18799999999999
 21
53.811999999999998
 31
0.0
  0
LINE
  5
8EA
  8
2
 10
154.18799999999999
 20
53.811999999999998
 30
0.0
 11
145.81200000000001
 21
53.811999999999998
 31
0.0
  0
LINE
  5
8EB
  8
2
 10
155.0
 20
53.0
 30
0.0
 11
155.0
 21
64.0
 31
0.0
  0
LINE
  5
8EC
  8
2
 10
145.0
 20
64.0
 30
0.0
 11
155.0
 21
64.0
 31
0.0
  0
LINE
  5
8ED
  8
2
 10
145.0
 20
53.0
 30
0.0
 11
145.0
 21
64.0
 31
0.0
  0
LINE
  5
8EE
  8
0
 10
60.399999999958148
 20
53.0
 30
0.0
 11
39.599999999999987
 21
53.0
 31
0.0
  0
ARC
  5
8EF
  8
0
 10
39.599999999999987
 20
53.75
 30
0.0
 40
0.7500000000000018
 50
180.0
 51
270.0
  0
ARC
  5
8F0
  8
0
 10
60.399999999999991
 20
53.75
 30
0.0
 40
0.7500000000000009
 50
270.0
 51
0.0
  0
LINE
  5
8F1
  8
0
 10
38.850000000000001
 20
61.606170158235862
 30
0.0
 11
38.850000000000001
 21
53.75
 31
0.0
  0
LINE
  5
8F2
  8
0
 10
61.149999999999991
 20
53.75
 30
0.0
 11
61.149999999999991
 21
61.606170158235862
 31
0.0
  0
ARC
  5
8F3
  8
0
 10
50.0
 20
3.000000000002188
 30
0.0
 40
89.999999999997783
 50
86.815261463279498
 51
93.184738536720516
  0
LINE
  5
8F4
  8
0
 10
45.0
 20
92.861003778057139
 30
0.0
 11
45.0
 21
71.5
 31
0.0
  0
LINE
  5
8F5
  8
0
 10
55.0
 20
92.861003778057139
 30
0.0
 11
54.999999999999993
 21
71.5
 31
0.0
  0
LINE
  5
8F6
  8
1
 10
50.0
 20
95.999999999999986
 30
0.0
 11
50.0
 21
50.0
 31
0.0
  0
POLYLINE
  5
8F7
  8
0
 66
     1
 10
0.0
 20
0.0
 30
0.0
  0
VERTEX
  5
9B7
  8
0
 10
141.91147039817449
 20
148.39758340964619
 30
0.0
  0
VERTEX
  5
9B8
  8
0
 10
141.36474523385749
 20
148.09369148570181
 30
0.0
  0
VERTEX
  5
9B9
  8
0
 10
140.83544694878259
 20
147.7888580609272
 30
0.0
  0
VERTEX
  5
9BA
  8
0
 10
140.31877263357029
 20
147.4843124612417
 30
0.0
  0
VERTEX
  5
9BB
  8
0
 10
139.8185667413785
 20
147.1863864049721
 30
0.0
  0
VERTEX
  5
9BC
  8
0
 10
139.25235575331689
 20
146.85067199657499
 30
0.0
  0
VERTEX
  5
9BD
  8
0
 10
138.70546771832491
 20
146.5338493240136
 30
0.0
  0
VERTEX
  5
9BE
  8
0
 10
138.17691139811089
 20
146.241072838913
 30
0.0
  0
VERTEX
  5
9BF
  8
0
 10
137.65200892292171
 20
145.97044703741449
 30
0.0
  0
VERTEX
  5
9C0
  8
0
 10
137.1421397087455
 20
145.7330052827451
 30
0.0
  0
VERTEX
  5
9C1
  8
0
 10
136.64658585442979
 20
145.53245706316471
 30
0.0
  0
VERTEX
  5
9C2
  8
0
 10
136.1547094018506
 20
145.36910574331461
 30
0.0
  0
VERTEX
  5
9C3
  8
0
 10
135.67530669460481
 20
145.2494753087941
 30
0.0
  0
VERTEX
  5
9C4
  8
0
 10
135.20177939078559
 20
145.1751876502351
 30
0.0
  0
VERTEX
  5
9C5
  8
0
 10
134.74081991526981
 20
145.14999999999881
 30
0.0
  0
SEQEND
  5
9C6
  8
0
  0
POLYLINE
  5
8F8
  8
0
 66
     1
 10
0.0
 20
0.0
 30
0.0
  0
VERTEX
  5
9C7
  8
0
 10
145.06032824283551
 20
150.14610638856189
 30
0.0
  0
VERTEX
  5
9C8
  8
0
 10
144.94673596845161
 20
150.0919552089357
 30
0.0
  0
VERTEX
  5
9C9
  8
0
 10
144.55695149926331
 20
149.89373290169439
 30
0.0
  0
VERTEX
  5
9CA
  8
0
 10
143.79580280197709
 20
149.4775585071383
 30
0.0
  0
VERTEX
  5
9CB
  8
0
 10
143.05140644595861
 20
149.04768150504029
 30
0.0
  0
VERTEX
  5
9CC
  8
0
 10
142.3177332201511
 20
148.6236023436727
 30
0.0
  0
VERTEX
  5
9CD
  8
0
 10
141.91147039817449
 20
148.39758340964619
 30
0.0
  0
SEQEND
  5
9CE
  8
0
  0
ARC
  5
8F9
  8
0
 10
150.0
 20
140.14999999999881
 30
0.0
 40
19.999999999999989
 50
165.52248781406999
 51
194.4775121859299
  0
LINE
  5
8FA
  8
0
 10
169.3649167310374
 20
145.14999999999881
 30
0.0
 11
130.63508326896289
 21
145.14999999999881
 31
0.0
  0
LINE
  5
8FB
  8
0
 10
130.63508326896289
 20
135.14999999999881
 30
0.0
 11
169.36491673103711
 21
135.14999999999881
 31
0.0
  0
ARC
  5
8FC
  8
0
 10
149.9999999999954
 20
140.14999999999941
 30
0.0
 40
20.000000000004601
 50
345.52248781407172
 51
14.477512185924921
  0
LINE
  5
8FD
  8
1
 10
127.0
 20
140.14999999999881
 30
0.0
 11
173.0
 21
140.14999999999881
 31
0.0
  0
LINE
  5
8FE
  8
1
 10
150.0
 20
126.0
 30
0.0
 11
150.0
 21
154.29999999999879
 31
0.0
  0
ARC
  5
8FF
  8
0
 10
150.0
 20
140.14999999999881
 30
0.0
 40
11.15
 50
63.703278759154081
 51
116.2967212408459
  0
POLYLINE
  5
900
  8
0
 66
     1
 10
0.0
 20
0.0
 30
0.0
  0
VERTEX
  5
9CF
  8
0
 10
158.08852960182551
 20
148.39758340964619
 30
0.0
  0
VERTEX
  5
9D0
  8
0
 10
158.63525476614251
 20
148.09369148570181
 30
0.0
  0
VERTEX
  5
9D1
  8
0
 10
159.16455305121741
 20
147.7888580609272
 30
0.0
  0
VERTEX
  5
9D2
  8
0
 10
159.68122736642971
 20
147.4843124612417
 30
0.0
  0
VERTEX
  5
9D3
  8
0
 10
160.18143325862141
 20
147.1863864049721
 30
0.0
  0
VERTEX
  5
9D4
  8
0
 10
160.74764424668311
 20
146.85067199657499
 30
0.0
  0
VERTEX
  5
9D5
  8
0
 10
161.2945322816752
 20
146.5338493240136
 30
0.0
  0
VERTEX
  5
9D6
  8
0
 10
161.823088601889
 20
146.241072838913
 30
0.0
  0
VERTEX
  5
9D7
  8
0
 10
162.34799107707829
 20
145.97044703741449
 30
0.0
  0
VERTEX
  5
9D8
  8
0
 10
162.8578602912545
 20
145.7330052827451
 30
0.0
  0
VERTEX
  5
9D9
  8
0
 10
163.35341414557021
 20
145.53245706316471
 30
0.0
  0
VERTEX
  5
9DA
  8
0
 10
163.8452905981494
 20
145.36910574331461
 30
0.0
  0
VERTEX
  5
9DB
  8
0
 10
164.32469330539519
 20
145.2494753087941
 30
0.0
  0
VERTEX
  5
9DC
  8
0
 10
164.79822060921441
 20
145.1751876502351
 30
0.0
  0
VERTEX
  5
9DD
  8
0
 10
165.25918008473019
 20
145.14999999999881
 30
0.0
  0
SEQEND
  5
9DE
  8
0
  0
POLYLINE
  5
901
  8
0
 66
     1
 10
0.0
 20
0.0
 30
0.0
  0
VERTEX
  5
9DF
  8
0
 10
154.93967175716449
 20
150.14610638856189
 30
0.0
  0
VERTEX
  5
9E0
  8
0
 10
155.05326403154839
 20
150.0919552089357
 30
0.0
  0
VERTEX
  5
9E1
  8
0
 10
155.44304850073669
 20
149.89373290169439
 30
0.0
  0
VERTEX
  5
9E2
  8
0
 10
156.20419719802291
 20
149.4775585071383
 30
0.0
  0
VERTEX
  5
9E3
  8
0
 10
156.94859355404139
 20
149.04768150504029
 30
0.0
  0
VERTEX
  5
9E4
  8
0
 10
157.6822667798489
 20
148.6236023436727
 30
0.0
  0
VERTEX
  5
9E5
  8
0
 10
158.08852960182551
 20
148.39758340964619
 30
0.0
  0
SEQEND
  5
9E6
  8
0
  0
POLYLINE
  5
902
  8
0
 66
     1
 10
0.0
 20
0.0
 30
0.0
  0
VERTEX
  5
9E7
  8
0
 10
141.911470398175
 20
131.9024165903522
 30
0.0
  0
VERTEX
  5
9E8
  8
0
 10
141.364745233858
 20
132.20630851429641
 30
0.0
  0
VERTEX
  5
9E9
  8
0
 10
140.83544694878299
 20
132.511141939071
 30
0.0
  0
VERTEX
  5
9EA
  8
0
 10
140.31877263357069
 20
132.81568753875649
 30
0.0
  0
VERTEX
  5
9EB
  8
0
 10
139.8185667413789
 20
133.1136135950261
 30
0.0
  0
VERTEX
  5
9EC
  8
0
 10
139.25235575331729
 20
133.4493280034232
 30
0.0
  0
VERTEX
  5
9ED
  8
0
 10
138.7054677183252
 20
133.76615067598451
 30
0.0
  0
VERTEX
  5
9EE
  8
0
 10
138.17691139811129
 20
134.05892716108499
 30
0.0
  0
VERTEX
  5
9EF
  8
0
 10
137.65200892292211
 20
134.32955296258359
 30
0.0
  0
VERTEX
  5
9F0
  8
0
 10
137.14213970874579
 20
134.56699471725281
 30
0.0
  0
VERTEX
  5
9F1
  8
0
 10
136.6465858544301
 20
134.76754293683331
 30
0.0
  0
VERTEX
  5
9F2
  8
0
 10
136.15470940185091
 20
134.93089425668339
 30
0.0
  0
VERTEX
  5
9F3
  8
0
 10
135.6753066946051
 20
135.0505246912038
 30
0.0
  0
VERTEX
  5
9F4
  8
0
 10
135.2017793907859
 20
135.12481234976281
 30
0.0
  0
VERTEX
  5
9F5
  8
0
 10
134.74081991527009
 20
135.1499999999991
 30
0.0
  0
SEQEND
  5
9F6
  8
0
  0
POLYLINE
  5
903
  8
0
 66
     1
 10
0.0
 20
0.0
 30
0.0
  0
VERTEX
  5
9F7
  8
0
 10
145.06032824283611
 20
130.15389361143659
 30
0.0
  0
VERTEX
  5
9F8
  8
0
 10
144.9467359684522
 20
130.20804479106269
 30
0.0
  0
VERTEX
  5
9F9
  8
0
 10
144.5569514992639
 20
130.40626709830411
 30
0.0
  0
VERTEX
  5
9FA
  8
0
 10
143.7958028019776
 20
130.82244149286009
 30
0.0
  0
VERTEX
  5
9FB
  8
0
 10
143.05140644595909
 20
131.2523184949581
 30
0.0
  0
VERTEX
  5
9FC
  8
0
 10
142.31773322015161
 20
131.67639765632561
 30
0.0
  0
VERTEX
  5
9FD
  8
0
 10
141.911470398175
 20
131.9024165903522
 30
0.0
  0
SEQEND
  5
9FE
  8
0
  0
ARC
  5
904
  8
0
 10
150.0
 20
140.14999999999989
 30
0.0
 40
11.15
 50
243.7032787591568
 51
296.29672124084942
  0
POLYLINE
  5
905
  8
0
 66
     1
 10
0.0
 20
0.0
 30
0.0
  0
VERTEX
  5
9FF
  8
0
 10
158.088529601826
 20
131.90241659035311
 30
0.0
  0
VERTEX
  5
A00
  8
0
 10
158.63525476614291
 20
132.2063085142974
 30
0.0
  0
VERTEX
  5
A01
  8
0
 10
159.16455305121781
 20
132.51114193907199
 30
0.0
  0
VERTEX
  5
A02
  8
0
 10
159.68122736643011
 20
132.8156875387576
 30
0.0
  0
VERTEX
  5
A03
  8
0
 10
160.18143325862189
 20
133.11361359502729
 30
0.0
  0
VERTEX
  5
A04
  8
0
 10
160.74764424668351
 20
133.4493280034244
 30
0.0
  0
VERTEX
  5
A05
  8
0
 10
161.29453228167549
 20
133.76615067598581
 30
0.0
  0
VERTEX
  5
A06
  8
0
 10
161.8230886018894
 20
134.05892716108639
 30
0.0
  0
VERTEX
  5
A07
  8
0
 10
162.3479910770786
 20
134.32955296258501
 30
0.0
  0
VERTEX
  5
A08
  8
0
 10
162.85786029125481
 20
134.56699471725429
 30
0.0
  0
VERTEX
  5
A09
  8
0
 10
163.3534141455705
 20
134.76754293683479
 30
0.0
  0
VERTEX
  5
A0A
  8
0
 10
163.84529059814969
 20
134.93089425668501
 30
0.0
  0
VERTEX
  5
A0B
  8
0
 10
164.3246933053955
 20
135.05052469120551
 30
0.0
  0
VERTEX
  5
A0C
  8
0
 10
164.7982206092147
 20
135.12481234976451
 30
0.0
  0
VERTEX
  5
A0D
  8
0
 10
165.2591800847305
 20
135.15000000000089
 30
0.0
  0
SEQEND
  5
A0E
  8
0
  0
POLYLINE
  5
906
  8
0
 66
     1
 10
0.0
 20
0.0
 30
0.0
  0
VERTEX
  5
A0F
  8
0
 10
154.93967175716509
 20
130.15389361143721
 30
0.0
  0
VERTEX
  5
A10
  8
0
 10
155.05326403154899
 20
130.20804479106329
 30
0.0
  0
VERTEX
  5
A11
  8
0
 10
155.44304850073721
 20
130.40626709830471
 30
0.0
  0
VERTEX
  5
A12
  8
0
 10
156.20419719802339
 20
130.82244149286089
 30
0.0
  0
VERTEX
  5
A13
  8
0
 10
156.94859355404191
 20
131.2523184949589
 30
0.0
  0
VERTEX
  5
A14
  8
0
 10
157.6822667798493
 20
131.67639765632649
 30
0.0
  0
VERTEX
  5
A15
  8
0
 10
158.088529601826
 20
131.90241659035311
 30
0.0
  0
SEQEND
  5
A16
  8
0
  0
LINE
  5
907
  8
1
 10
150.0
 20
95.999999999999986
 30
0.0
 11
150.0
 21
50.0
 31
0.0
  0
ARC
  5
908
  8
0
 10
33.99762131289998
 20
71.500989894399993
 30
0.0
 40
11.00237873169641
 50
314.81572851459981
 51
359.99484504460003
  0
ARC
  5
909
  8
0
 10
34.0
 20
71.5
 30
0.0
 40
10.99999999999868
 50
302.24178465739942
 51
314.81057355930068
  0
ARC
  5
90A
  8
0
 10
26.443321938280089
 20
84.196535415458271
 30
0.0
 40
25.773053039597059
 50
298.77568697035798
 51
301.39243389704239
  0
ARC
  5
90B
  8
0
 10
66.00237868710002
 20
71.500989894399993
 30
0.0
 40
11.00237873169641
 50
180.0051549554
 51
225.1842714854003
  0
ARC
  5
90C
  8
0
 10
66.0
 20
71.5
 30
0.0
 40
10.99999999999868
 50
225.18942644069901
 51
237.75821534260069
  0
ARC
  5
90D
  8
0
 10
73.556678061746766
 20
84.196535415503334
 30
0.0
 40
25.773053039649511
 50
238.6075661029586
 51
241.22431302963781
  0
ARC
  5
90E
  8
0
 10
160.40000000000001
 20
53.75
 30
0.0
 40
0.75
 50
270.0
 51
0.0
  0
ARC
  5
90F
  8
0
 10
139.59999999999999
 20
53.75
 30
0.0
 40
0.75
 50
180.0
 51
270.0
  0
LINE
  5
910
  8
0
 10
138.84999999999999
 20
62.196152422699988
 30
0.0
 11
138.84999999999999
 21
53.75
 31
0.0
  0
LINE
  5
911
  8
0
 10
161.15000000000001
 20
53.75
 30
0.0
 11
161.15000000000001
 21
62.196152422699988
 31
0.0
  0
ARC
  5
912
  8
0
 10
164.15000000000001
 20
62.196152422699988
 30
0.0
 40
3.0
 50
150.0000000000995
 51
180.0
  0
ARC
  5
913
  8
0
 10
135.84999999999999
 20
62.196152422699988
 30
0.0
 40
3.0000000000000129
 50
0.0
 51
29.999999999900421
  0
LINE
  5
914
  8
0
 10
161.55192378861781
 20
63.696152422730947
 30
0.0
 11
169.59807621140001
 21
77.632497224299996
 31
0.0
  0
LINE
  5
915
  8
0
 10
130.40192378859999
 20
77.632497224299996
 30
0.0
 11
138.44807621129999
 21
63.696152422700003
 31
0.0
  0
ARC
  5
916
  8
0
 10
167.0
 20
88.322916030799988
 30
0.0
 40
3.0
 50
0.0
 51
78.731774276099415
  0
ARC
  5
917
  8
0
 10
133.0
 20
88.322916030799988
 30
0.0
 40
3.0
 50
101.2682257239005
 51
180.0
  0
ARC
  5
918
  8
0
 10
150.0
 20
2.999999999999992
 30
0.0
 40
89.999999999999375
 50
78.731774276099415
 51
101.2682257239005
  0
ARC
  5
919
  8
0
 10
167.0
 20
79.132497224299996
 30
0.0
 40
3.000000000020234
 50
329.99999999979951
 51
0.0
  0
ARC
  5
91A
  8
0
 10
133.0
 20
79.132497224299996
 30
0.0
 40
3.0000000000202212
 50
180.0
 51
210.00000000019989
  0
LINE
  5
91B
  8
0
 10
170.0
 20
79.132497224299996
 30
0.0
 11
170.0
 21
88.322916030799988
 31
0.0
  0
LINE
  5
91C
  8
0
 10
130.0
 20
88.322916030799988
 30
0.0
 11
130.0
 21
79.132497224299996
 31
0.0
  0
LINE
  5
91D
  8
0
 10
139.59999999999999
 20
53.0
 30
0.0
 11
160.40000000000001
 21
53.0
 31
0.0
  0
ARC
  5
91E
  8
0
 10
150.0
 20
80.26925776969999
 30
0.0
 40
18.663087611464132
 50
255.55504691330009
 51
284.44495308669991
  0
ARC
  5
91F
  8
0
 10
153.4744622515
 20
81.517272635399991
 30
0.0
 40
21.243707450274542
 50
208.13435312199999
 51
237.02302427430101
  0
ARC
  5
920
  8
0
 10
147.3040788207
 20
80.801901677700002
 30
0.0
 40
20.221548808732081
 50
302.22969572479963
 51
332.6129268790001
  0
ARC
  5
921
  8
0
 10
150.07951621309999
 20
77.347701142299982
 30
0.0
 40
15.82747857065266
 50
286.80507314900012
 51
300.3990549576003
  0
ARC
  5
922
  8
0
 10
149.92048378690001
 20
77.347701142299982
 30
0.0
 40
15.82747857065212
 50
239.6009450423997
 51
253.19492685099991
  0
LINE
  5
923
  8
0
 10
168.94952746609999
 20
77.632497224299996
 30
0.0
 11
165.25918008470001
 21
71.5
 31
0.0
  0
LINE
  5
924
  8
0
 10
134.74081991520001
 20
71.5
 30
0.0
 11
131.05047253390001
 21
77.632497224299996
 31
0.0
  0
ARC
  5
925
  8
0
 10
166.33998358349999
 20
88.285022750999985
 30
0.0
 40
3.0251704824432228
 50
0.7177055966002892
 51
80.093298211799251
  0
ARC
  5
926
  8
0
 10
133.66773330589999
 20
88.278453885499985
 30
0.0
 40
3.03297595259518
 50
100.0289581861005
 51
179.16003800540011
  0
ARC
  5
927
  8
0
 10
150.0
 20
2.9553459537999909
 30
0.0
 40
89.904865165330804
 50
79.190945951400252
 51
100.80905404859971
  0
ARC
  5
928
  8
0
 10
166.44117584739999
 20
79.134641528299994
 30
0.0
 40
2.92374166995514
 50
329.08441511640018
 51
359.95797864760038
  0
ARC
  5
929
  8
0
 10
133.55882415260001
 20
79.134641528299994
 30
0.0
 40
2.9237416699555752
 50
180.04202135239959
 51
210.91558488359971
  0
LINE
  5
92A
  8
0
 10
169.36491673099999
 20
88.322916030799988
 30
0.0
 11
169.36491673099999
 21
79.132497224299996
 31
0.0
  0
LINE
  5
92B
  8
0
 10
130.63508326889999
 20
79.132497224299996
 30
0.0
 11
130.63508326889999
 21
88.322916030799988
 31
0.0
  0
ENDSEC
  0
EOF
