  0
SECTION
  2
HEADER
  9
$ACADVER
  1
AC1009
  9
$INSBASE
 10
0.0
 20
0.0
 30
0.0
  9
$EXTMIN
 10
0.0
 20
-2.960436562073669
 30
0.0
  9
$EXTMAX
 10
275.178764
 20
195.809709
 30
0.0
  9
$LIMMIN
 10
0.0
 20
0.0
  9
$LIMMAX
 10
390.0
 20
270.0
  9
$ORTHOMODE
 70
     1
  9
$REGENMODE
 70
     1
  9
$FILLMODE
 70
     1
  9
$QTEXTMODE
 70
     0
  9
$MIRRTEXT
 70
     0
  9
$DRAGMODE
 70
     2
  9
$LTSCALE
 40
10.0
  9
$OSMODE
 70
    55
  9
$ATTMODE
 70
     1
  9
$TEXTSIZE
 40
0.2
  9
$TRACEWID
 40
0.05
  9
$TEXTSTYLE
  7
STANDARD
  9
$CLAYER
  8
0
  9
$CELTYPE
  6
BYLAYER
  9
$CECOLOR
 62
   256
  9
$DIMSCALE
 40
1.0
  9
$DIMASZ
 40
3.0
  9
$DIMEXO
 40
2.0
  9
$DIMDLI
 40
0.38
  9
$DIMRND
 40
0.0
  9
$DIMDLE
 40
0.0
  9
$DIMEXE
 40
2.0
  9
$DIMTP
 40
0.0
  9
$DIMTM
 40
0.0
  9
$DIMTXT
 40
3.0
  9
$DIMCEN
 40
0.0
  9
$DIMTSZ
 40
0.0
  9
$DIMTOL
 70
     0
  9
$DIMLIM
 70
     0
  9
$DIMTIH
 70
     0
  9
$DIMTOH
 70
     0
  9
$DIMSE1
 70
     0
  9
$DIMSE2
 70
     0
  9
$DIMTAD
 70
     1
  9
$DIMZIN
 70
     0
  9
$DIMBLK
  1

  9
$DIMASO
 70
     0
  9
$DIMSHO
 70
     0
  9
$DIMPOST
  1

  9
$DIMAPOST
  1

  9
$DIMALT
 70
     0
  9
$DIMALTD
 70
     2
  9
$DIMALTF
 40
25.399999999999999
  9
$DIMLFAC
 40
1.0
  9
$DIMTOFL
 70
     1
  9
$DIMTVP
 40
1.6000000000000001
  9
$DIMTIX
 70
     1
  9
$DIMSOXD
 70
     0
  9
$DIMSAH
 70
     0
  9
$DIMBLK1
  1

  9
$DIMBLK2
  1

  9
$DIMSTYLE
  2
STANDARD
  9
$DIMCLRD
 70
     0
  9
$DIMCLRE
 70
     0
  9
$DIMCLRT
 70
     0
  9
$DIMTFAC
 40
1.0
  9
$DIMGAP
 40
0.09
  9
$LUNITS
 70
     2
  9
$LUPREC
 70
     4
  9
$SKETCHINC
 40
0.1
  9
$FILLETRAD
 40
0.0
  9
$AUNITS
 70
     0
  9
$AUPREC
 70
     4
  9
$MENU
  1
E:\r13\win\SUPPORT\ACAD
  9
$ELEVATION
 40
0.0
  9
$PELEVATION
 40
0.0
  9
$THICKNESS
 40
0.0
  9
$LIMCHECK
 70
     0
  9
$BLIPMODE
 70
     0
  9
$CHAMFERA
 40
0.0
  9
$CHAMFERB
 40
0.0
  9
$SKPOLY
 70
     0
  9
$TDCREATE
 40
2449840.656261574
  9
$TDUPDATE
 40
2456598.6870991429
  9
$TDINDWG
 40
0.0000931713
  9
$TDUSRTIMER
 40
0.0000931713
  9
$USRTIMER
 70
     1
  9
$ANGBASE
 50
0.0
  9
$ANGDIR
 70
     0
  9
$PDMODE
 70
     0
  9
$PDSIZE
 40
0.0
  9
$PLINEWID
 40
0.0
  9
$COORDS
 70
     1
  9
$SPLFRAME
 70
     0
  9
$SPLINETYPE
 70
     6
  9
$SPLINESEGS
 70
     8
  9
$ATTDIA
 70
     0
  9
$ATTREQ
 70
     1
  9
$HANDLING
 70
     1
  9
$HANDSEED
  5
20F
  9
$SURFTAB1
 70
     6
  9
$SURFTAB2
 70
     6
  9
$SURFTYPE
 70
     6
  9
$SURFU
 70
     6
  9
$SURFV
 70
     6
  9
$UCSNAME
  2

  9
$UCSORG
 10
0.0
 20
0.0
 30
0.0
  9
$UCSXDIR
 10
1.0
 20
0.0
 30
0.0
  9
$UCSYDIR
 10
0.0
 20
1.0
 30
0.0
  9
$PUCSNAME
  2

  9
$PUCSORG
 10
0.0
 20
0.0
 30
0.0
  9
$PUCSXDIR
 10
1.0
 20
0.0
 30
0.0
  9
$PUCSYDIR
 10
0.0
 20
1.0
 30
0.0
  9
$USERI1
 70
     3
  9
$USERI2
 70
     1
  9
$USERI3
 70
     0
  9
$USERI4
 70
     0
  9
$USERI5
 70
     0
  9
$USERR1
 40
1.0
  9
$USERR2
 40
3.0
  9
$USERR3
 40
3.0
  9
$USERR4
 40
3.0
  9
$USERR5
 40
10.0
  9
$WORLDVIEW
 70
     1
  9
$SHADEDGE
 70
     3
  9
$SHADEDIF
 70
    70
  9
$TILEMODE
 70
     1
  9
$MAXACTVP
 70
    16
  9
$PLIMCHECK
 70
     0
  9
$PEXTMIN
 10
1.0000000000000000E+020
 20
1.0000000000000000E+020
 30
1.0000000000000000E+020
  9
$PEXTMAX
 10
-1.0000000000000000E+020
 20
-1.0000000000000000E+020
 30
-1.0000000000000000E+020
  9
$PLIMMIN
 10
0.0
 20
0.0
  9
$PLIMMAX
 10
12.0
 20
9.0
  9
$UNITMODE
 70
     0
  9
$VISRETAIN
 70
     0
  9
$PLINEGEN
 70
     0
  9
$PSLTSCALE
 70
     0
  0
ENDSEC
  0
SECTION
  2
TABLES
  0
TABLE
  2
VPORT
 70
     1
  0
VPORT
  2
*ACTIVE
 70
     0
 10
0.0
 20
0.0
 11
1.0
 21
1.0
 12
194.9940495262785
 22
174.91677254346851
 13
0.0
 23
0.0
 14
10.0
 24
10.0
 15
10.0
 25
10.0
 16
0.0
 26
0.0
 36
1.0
 17
0.0
 27
0.0
 37
0.0
 40
358.92027899574339
 41
1.7807262569832401
 42
50.0
 43
0.0
 44
0.0
 50
0.0
 51
0.0
 71
     0
 72
   100
 73
     1
 74
     0
 75
     0
 76
     0
 77
     0
 78
     2
  0
ENDTAB
  0
TABLE
  2
LTYPE
 70
     3
  0
LTYPE
  2
CONTINUOUS
 70
     0
  3
Solid Line
 72
    65
 73
     0
 40
0.0
  0
LTYPE
  2
CENTER
 70
     0
  3
____ _ ____ _ ____ _ ____ _ ____ _ ____ _ ____
 72
    65
 73
     4
 40
2.0
 49
1.25
 49
-0.25
 49
0.25
 49
-0.25
  0
LTYPE
  2
PHANTOM2
 70
     0
  3
___ _ _ ___ _ _ ___ _ _ ___ _ _
 72
    65
 73
     6
 40
1.25
 49
0.625
 49
-0.125
 49
0.125
 49
-0.125
 49
0.125
 49
-0.125
  0
ENDTAB
  0
TABLE
  2
LAYER
 70
     2
  0
LAYER
  2
0
 70
     0
 62
     7
  6
CONTINUOUS
  0
LAYER
  2
1
 70
     0
 62
     1
  6
CENTER
  0
ENDTAB
  0
TABLE
  2
STYLE
 70
     2
  0
STYLE
  2
STANDARD
 70
     0
 40
0.0
 41
1.0
 50
0.0
 71
     0
 42
0.2
  3
ROMANS
  4
BIGFONT
  0
STYLE
  2
STANDARD1
 70
     0
 40
0.0
 41
1.0
 50
0.0
 71
     0
 42
3.0
  3
txt
  4

  0
ENDTAB
  0
TABLE
  2
VIEW
 70
     0
  0
ENDTAB
  0
TABLE
  2
UCS
 70
     0
  0
ENDTAB
  0
TABLE
  2
APPID
 70
     3
  0
APPID
  2
ACAD
 70
     0
  0
APPID
  2
ACAD_MLEADERVER
 70
     0
  0
APPID
  2
ACAD_NAV_VCDISPLAY
 70
     0
  0
ENDTAB
  0
TABLE
  2
DIMSTYLE
 70
     1
  0
DIMSTYLE
  2
STANDARD
 70
     0
  3

  4

  5

  6

  7

 40
1.0
 41
0.18
 42
0.0625
 43
0.38
 44
0.18
 45
0.0
 46
0.0
 47
0.0
 48
0.0
140
0.18
141
0.09
142
0.0
143
25.399999999999999
144
1.0
145
0.0
146
1.0
147
0.09
 71
     0
 72
     0
 73
     1
 74
     1
 75
     0
 76
     0
 77
     0
 78
     0
170
     0
171
     2
172
     0
173
     0
174
     0
175
     0
176
     0
177
     0
178
     0
  0
ENDTAB
  0
ENDSEC
  0
SECTION
  2
BLOCKS
  0
BLOCK
  8
0
  2
$MODEL_SPACE
 70
     0
 10
0.0
 20
0.0
 30
0.0
  3
$MODEL_SPACE
  1

  0
ENDBLK
  5
C9
  8
0
  0
BLOCK
 67
     1
  8
0
  2
$PAPER_SPACE
 70
     0
 10
0.0
 20
0.0
 30
0.0
  3
$PAPER_SPACE
  1

  0
ENDBLK
  5
C7
 67
     1
  8
0
  0
BLOCK
  8
0
  2
STDGX5
 70
     0
 10
0.0
 20
0.0
 30
0.0
  3
STDGX5
  1

  0
ENDBLK
  5
27
  8
0
  0
ENDSEC
  0
SECTION
  2
ENTITIES
  0
INSERT
  5
2F
  8
0
  2
STDGX5
 10
0.0
 20
0.0
 30
0.0
  0
LINE
  5
30
  8
1
 10
146.13023699999999
 20
176.785472
 30
0.0
 11
146.13023699999999
 21
195.76225700000001
 31
0.0
  0
LINE
  5
31
  8
1
 10
275.178764
 20
186.561623
 30
0.0
 11
255.107641
 21
186.561623
 31
0.0
  0
LINE
  5
32
  8
1
 10
101.526613
 20
94.158612000000005
 30
0.0
 11
101.526613
 21
113.43766599999999
 31
0.0
  0
ARC
  5
33
  8
0
 10
141.13023699999999
 20
180.561623
 30
0.0
 40
2.0
 50
180.0
 51
270.0
  0
ARC
  5
34
  8
0
 10
141.13023699999999
 20
192.561623
 30
0.0
 40
2.0
 50
90.0
 51
180.0
  0
LINE
  5
35
  8
0
 10
141.13023699999999
 20
178.561623
 30
0.0
 11
271.13023700000002
 21
178.561623
 31
0.0
  0
LINE
  5
36
  8
0
 10
141.13023699999999
 20
194.561623
 30
0.0
 11
271.13023700000002
 21
194.561623
 31
0.0
  0
LINE
  5
37
  8
0
 10
139.13023699999999
 20
192.561623
 30
0.0
 11
139.13023699999999
 21
180.561623
 31
0.0
  0
LINE
  5
38
  8
0
 10
151.03771499999999
 20
186.561623
 30
0.0
 11
153.63023699999999
 21
186.561623
 31
0.0
  0
LINE
  5
39
  8
0
 10
139.63023699999999
 20
190.811623
 30
0.0
 11
272.63023700000002
 21
190.811623
 31
0.0
  0
LINE
  5
3A
  8
0
 10
139.63023699999999
 20
182.311623
 30
0.0
 11
272.63023700000002
 21
182.311623
 31
0.0
  0
ARC
  5
3B
  8
0
 10
139.63023699999999
 20
191.311623
 30
0.0
 40
0.5
 50
180.0
 51
270.0
  0
ARC
  5
3C
  8
0
 10
139.63023699999999
 20
181.811623
 30
0.0
 40
0.5
 50
90.0
 51
180.0
  0
LINE
  5
3D
  8
1
 10
137.33990600000001
 20
186.561623
 30
0.0
 11
157.15283299999999
 21
186.561623
 31
0.0
  0
LINE
  5
3E
  8
1
 10
266.13023700000002
 20
177.123727
 30
0.0
 11
266.13023700000002
 21
195.809709
 31
0.0
  0
LINE
  5
3F
  8
1
 10
146.13023699999999
 20
93.946664999999996
 30
0.0
 11
146.13023699999999
 21
109.678596
 31
0.0
  0
LINE
  5
40
  8
1
 10
266.13023700000002
 20
93.787262999999996
 30
0.0
 11
266.13023700000002
 21
109.678596
 31
0.0
  0
LINE
  5
41
  8
0
 10
101.526613
 20
127.499347
 30
0.0
 11
101.526613
 21
106.678596
 31
0.0
  0
LINE
  5
42
  8
0
 10
105.776613
 20
106.678596
 30
0.0
 11
105.776613
 21
135.22485699999999
 31
0.0
  0
LINE
  5
43
  8
0
 10
97.276613000000012
 20
106.678596
 30
0.0
 11
105.776613
 21
106.678596
 31
0.0
  0
LINE
  5
44
  8
0
 10
97.276613000000012
 20
135.22485699999999
 30
0.0
 11
97.276613000000012
 21
106.678596
 31
0.0
  0
ARC
  5
45
  8
0
 10
107.526613
 20
142.678596
 30
0.0
 40
2.0
 50
0.0
 51
90.0
  0
ARC
  5
46
  8
0
 10
95.526612999999998
 20
142.678596
 30
0.0
 40
2.0
 50
90.0
 51
180.0
  0
LINE
  5
47
  8
0
 10
95.526612999999998
 20
144.678596
 30
0.0
 11
96.776612999999998
 21
144.678596
 31
0.0
  0
ARC
  5
48
  8
0
 10
106.2766129999999
 20
144.178596
 30
0.0
 40
0.5
 50
90.0
 51
180.0
  0
ARC
  5
49
  8
0
 10
96.776612999999998
 20
144.178596
 30
0.0
 40
0.5
 50
0.0
 51
90.0
  0
LINE
  5
4A
  8
0
 10
104.526613
 20
134.50317000000001
 30
0.0
 11
105.776613
 21
135.22485699999999
 31
0.0
  0
LINE
  5
4B
  8
0
 10
97.276613000000012
 20
135.22485699999999
 30
0.0
 11
98.526613000000012
 21
134.50317000000001
 31
0.0
  0
LINE
  5
4C
  8
0
 10
105.776613
 20
135.22485699999999
 30
0.0
 11
105.776613
 21
144.178596
 31
0.0
  0
LINE
  5
4D
  8
0
 10
97.276613000000012
 20
144.178596
 30
0.0
 11
97.276613000000012
 21
135.22485699999999
 31
0.0
  0
LINE
  5
4E
  8
0
 10
109.526613
 20
96.678595999999985
 30
0.0
 11
93.526612999999983
 21
96.678595999999985
 31
0.0
  0
LINE
  5
4F
  8
0
 10
109.526613
 20
142.678596
 30
0.0
 11
109.526613
 21
96.678595999999985
 31
0.0
  0
LINE
  5
50
  8
0
 10
106.2766129999999
 20
144.678596
 30
0.0
 11
107.526613
 21
144.678596
 31
0.0
  0
LINE
  5
51
  8
0
 10
93.526612999999983
 20
96.678595999999985
 30
0.0
 11
93.526612999999983
 21
142.678596
 31
0.0
  0
ARC
  5
52
  8
0
 10
272.63023700000002
 20
181.811623
 30
0.0
 40
0.5
 50
0.0
 51
90.0
  0
ARC
  5
53
  8
0
 10
272.63023700000002
 20
191.311623
 30
0.0
 40
0.5
 50
270.0
 51
0.0
  0
LINE
  5
54
  8
0
 10
164.13023699999999
 20
135.22485699999999
 30
0.0
 11
248.13023699999999
 21
135.22485699999999
 31
0.0
  0
ARC
  5
55
  8
0
 10
248.13023699999999
 20
119.678596
 30
0.0
 40
15.546260999999999
 50
0.0
 51
90.0
  0
LINE
  5
56
  8
0
 10
263.67649899999998
 20
119.678596
 30
0.0
 11
263.67649899999998
 21
96.678595999999985
 31
0.0
  0
ARC
  5
57
  8
0
 10
248.13023699999999
 20
119.678596
 30
0.0
 40
10.0
 50
0.0
 51
90.0
  0
ARC
  5
58
  8
0
 10
164.13023699999999
 20
119.678596
 30
0.0
 40
10.0
 50
90.0
 51
180.0
  0
LINE
  5
59
  8
0
 10
164.13023699999999
 20
129.678596
 30
0.0
 11
248.13023699999999
 21
129.678596
 31
0.0
  0
LINE
  5
5A
  8
0
 10
258.13023700000002
 20
119.678596
 30
0.0
 11
258.13023700000002
 21
96.678595999999985
 31
0.0
  0
LINE
  5
5B
  8
0
 10
154.13023699999999
 20
119.678596
 30
0.0
 11
154.13023699999999
 21
96.678595999999985
 31
0.0
  0
LINE
  5
5C
  8
0
 10
273.13023700000002
 20
180.561623
 30
0.0
 11
273.13023700000002
 21
192.561623
 31
0.0
  0
ARC
  5
5D
  8
0
 10
271.13023700000002
 20
192.561623
 30
0.0
 40
2.0
 50
0.0
 51
90.0
  0
ARC
  5
5E
  8
0
 10
271.13023700000002
 20
180.561623
 30
0.0
 40
2.0
 50
270.0
 51
0.0
  0
LINE
  5
5F
  8
0
 10
139.13023699999999
 20
96.678595999999985
 30
0.0
 11
154.13023699999999
 21
96.678595999999985
 31
0.0
  0
LINE
  5
60
  8
0
 10
258.13023700000002
 20
96.678595999999985
 30
0.0
 11
273.13023700000002
 21
96.678595999999985
 31
0.0
  0
LINE
  5
61
  8
0
 10
273.13023700000002
 20
96.678595999999985
 30
0.0
 11
273.13023700000002
 21
118.678596
 31
0.0
  0
LINE
  5
62
  8
0
 10
247.13023699999999
 20
144.678596
 30
0.0
 11
165.13023699999999
 21
144.678596
 31
0.0
  0
LINE
  5
63
  8
0
 10
139.13023699999999
 20
118.678596
 30
0.0
 11
139.13023699999999
 21
96.678595999999985
 31
0.0
  0
ARC
  5
64
  8
0
 10
165.13023699999999
 20
118.678596
 30
0.0
 40
26.0
 50
90.0
 51
180.0
  0
ARC
  5
65
  8
0
 10
247.13023699999999
 20
118.678596
 30
0.0
 40
26.0
 50
0.0
 51
90.0
  0
CIRCLE
  5
66
  8
0
 10
146.13023699999999
 20
186.561623
 30
0.0
 40
2.649999999999999
  0
CIRCLE
  5
67
  8
0
 10
266.13023700000002
 20
186.561623
 30
0.0
 40
2.649999999999999
  0
POLYLINE
  5
68
  8
0
 66
     1
 10
0.0
 20
0.0
 30
0.0
  0
VERTEX
  5
69
  8
0
 10
263.67649899999998
 20
190.811623
 30
0.0
  0
VERTEX
  5
6A
  8
0
 10
261.22275999999999
 20
186.561623
 30
0.0
  0
VERTEX
  5
6B
  8
0
 10
263.67649899999998
 20
182.311623
 30
0.0
  0
VERTEX
  5
6C
  8
0
 10
268.13023700000002
 20
182.311623
 30
0.0
  0
SEQEND
  5
6D
  8
0
  0
POLYLINE
  5
6E
  8
0
 66
     1
 10
0.0
 20
0.0
 30
0.0
  0
VERTEX
  5
6F
  8
0
 10
268.13023700000002
 20
190.811623
 30
0.0
  0
VERTEX
  5
70
  8
0
 10
263.67649899999998
 20
190.811623
 30
0.0
  0
SEQEND
  5
71
  8
0
  0
POLYLINE
  5
72
  8
0
 66
     1
 10
0.0
 20
0.0
 30
0.0
  0
VERTEX
  5
73
  8
0
 10
148.58397600000001
 20
182.311623
 30
0.0
  0
VERTEX
  5
74
  8
0
 10
151.03771499999999
 20
186.561623
 30
0.0
  0
VERTEX
  5
75
  8
0
 10
148.58397600000001
 20
190.811623
 30
0.0
  0
VERTEX
  5
76
  8
0
 10
144.13023699999999
 20
190.811623
 30
0.0
  0
SEQEND
  5
77
  8
0
  0
ARC
  5
78
  8
0
 10
156.63023699999999
 20
186.561623
 30
0.0
 40
3.0
 50
90.0
 51
270.0
  0
ARC
  5
79
  8
0
 10
255.63023699999999
 20
186.561623
 30
0.0
 40
3.0
 50
270.0
 51
90.0
  0
LINE
  5
7A
  8
0
 10
156.63023699999999
 20
189.561623
 30
0.0
 11
255.63023699999999
 21
189.561623
 31
0.0
  0
LINE
  5
7B
  8
0
 10
156.63023699999999
 20
183.561623
 30
0.0
 11
255.63023699999999
 21
183.561623
 31
0.0
  0
LINE
  5
7C
  8
0
 10
98.526613000000012
 20
134.50317000000001
 30
0.0
 11
104.526613
 21
134.50317000000001
 31
0.0
  0
LINE
  5
7D
  8
0
 10
98.526613000000012
 20
134.50317000000001
 30
0.0
 11
98.526613000000012
 21
133.2960939999999
 31
0.0
  0
LINE
  5
7E
  8
0
 10
104.526613
 20
134.50317000000001
 30
0.0
 11
104.526613
 21
133.2960939999999
 31
0.0
  0
ARC
  5
7F
  8
0
 10
97.526806999999991
 20
133.244045
 30
0.0
 40
7.0
 50
304.84797500000002
 51
0.42603
  0
ARC
  5
80
  8
0
 10
105.52642
 20
133.244045
 30
0.0
 40
7.0
 50
179.57397
 51
235.15202500000001
  0
ARC
  5
81
  8
0
 10
164.13023699999999
 20
119.678596
 30
0.0
 40
15.546260999999999
 50
90.0
 51
180.0
  0
LINE
  5
82
  8
0
 10
148.58397600000001
 20
119.678596
 30
0.0
 11
148.58397600000001
 21
96.678595999999985
 31
0.0
  0
ARC
  5
83
  8
0
 10
142.13023699999999
 20
182.311623
 30
0.0
 40
2.0
 50
0.0
 51
180.0
  0
ARC
  5
84
  8
0
 10
142.13023699999999
 20
190.811623
 30
0.0
 40
2.0
 50
180.0
 51
0.0
  0
POLYLINE
  5
85
  8
0
 66
     1
 10
0.0
 20
0.0
 30
0.0
  0
VERTEX
  5
86
  8
0
 10
142.547167
 20
188.85556299999999
 30
0.0
  0
VERTEX
  5
87
  8
0
 10
141.22275999999999
 20
186.561623
 30
0.0
  0
VERTEX
  5
88
  8
0
 10
142.547167
 20
184.26768300000001
 30
0.0
  0
SEQEND
  5
89
  8
0
  0
ARC
  5
8A
  8
0
 10
270.13023700000002
 20
190.811623
 30
0.0
 40
2.0
 50
180.0
 51
0.0
  0
ARC
  5
8B
  8
0
 10
270.13023700000002
 20
182.311623
 30
0.0
 40
2.0
 50
0.0
 51
180.0
  0
POLYLINE
  5
8C
  8
0
 66
     1
 10
0.0
 20
0.0
 30
0.0
  0
VERTEX
  5
8D
  8
0
 10
269.71330699999999
 20
184.26768300000001
 30
0.0
  0
VERTEX
  5
8E
  8
0
 10
271.03771499999999
 20
186.561623
 30
0.0
  0
VERTEX
  5
8F
  8
0
 10
269.71330699999999
 20
188.85556299999999
 30
0.0
  0
SEQEND
  5
90
  8
0
  0
TEXT
  5
17C
  8
0
 62
     3
 10
0.0
 20
0.0
 30
0.0
 40
10.0
  1
HGP120
  7
STANDARD1
  0
ENDSEC
  0
EOF
