  0
SECTION
  2
HEADER
  9
$ACADVER
  1
AC1009
  9
$INSBASE
 10
0.0
 20
0.0
 30
0.0
  9
$EXTMIN
 10
0.0
 20
-2.960436562073669
 30
0.0
  9
$EXTMAX
 10
203.4155045560052
 20
79.896582720873823
 30
0.0
  9
$LIMMIN
 10
0.0
 20
0.0
  9
$LIMMAX
 10
375.0
 20
270.0
  9
$ORTHOMODE
 70
     1
  9
$REGENMODE
 70
     1
  9
$FILLMODE
 70
     1
  9
$QTEXTMODE
 70
     0
  9
$MIRRTEXT
 70
     0
  9
$DRAGMODE
 70
     2
  9
$LTSCALE
 40
10.0
  9
$OSMODE
 70
    55
  9
$ATTMODE
 70
     1
  9
$TEXTSIZE
 40
2.0
  9
$TRACEWID
 40
0.05
  9
$TEXTSTYLE
  7
STANDARD
  9
$CLAYER
  8
0
  9
$CELTYPE
  6
BYLAYER
  9
$CECOLOR
 62
   256
  9
$DIMSCALE
 40
1.0
  9
$DIMASZ
 40
2.5
  9
$DIMEXO
 40
2.0
  9
$DIMDLI
 40
0.38
  9
$DIMRND
 40
0.0
  9
$DIMDLE
 40
0.0
  9
$DIMEXE
 40
2.0
  9
$DIMTP
 40
0.0
  9
$DIMTM
 40
0.0
  9
$DIMTXT
 40
3.0
  9
$DIMCEN
 40
0.09
  9
$DIMTSZ
 40
0.0
  9
$DIMTOL
 70
     0
  9
$DIMLIM
 70
     0
  9
$DIMTIH
 70
     0
  9
$DIMTOH
 70
     0
  9
$DIMSE1
 70
     0
  9
$DIMSE2
 70
     0
  9
$DIMTAD
 70
     1
  9
$DIMZIN
 70
     0
  9
$DIMBLK
  1

  9
$DIMASO
 70
     1
  9
$DIMSHO
 70
     0
  9
$DIMPOST
  1

  9
$DIMAPOST
  1

  9
$DIMALT
 70
     0
  9
$DIMALTD
 70
     2
  9
$DIMALTF
 40
25.399999999999999
  9
$DIMLFAC
 40
1.0
  9
$DIMTOFL
 70
     0
  9
$DIMTVP
 40
1.6000000000000001
  9
$DIMTIX
 70
     1
  9
$DIMSOXD
 70
     0
  9
$DIMSAH
 70
     0
  9
$DIMBLK1
  1

  9
$DIMBLK2
  1

  9
$DIMSTYLE
  2
STANDARD
  9
$DIMCLRD
 70
     0
  9
$DIMCLRE
 70
     0
  9
$DIMCLRT
 70
     0
  9
$DIMTFAC
 40
1.0
  9
$DIMGAP
 40
0.09
  9
$LUNITS
 70
     2
  9
$LUPREC
 70
     4
  9
$SKETCHINC
 40
0.1
  9
$FILLETRAD
 40
2.5
  9
$AUNITS
 70
     0
  9
$AUPREC
 70
     0
  9
$MENU
  1
E:\r13\win\SUPPORT\ACAD
  9
$ELEVATION
 40
0.0
  9
$PELEVATION
 40
0.0
  9
$THICKNESS
 40
0.0
  9
$LIMCHECK
 70
     0
  9
$BLIPMODE
 70
     0
  9
$CHAMFERA
 40
0.0
  9
$CHAMFERB
 40
0.0
  9
$SKPOLY
 70
     0
  9
$TDCREATE
 40
2448650.5678784722
  9
$TDUPDATE
 40
2456598.6882825121
  9
$TDINDWG
 40
0.0263527662
  9
$TDUSRTIMER
 40
0.0263527662
  9
$USRTIMER
 70
     1
  9
$ANGBASE
 50
0.0
  9
$ANGDIR
 70
     0
  9
$PDMODE
 70
     0
  9
$PDSIZE
 40
0.0
  9
$PLINEWID
 40
0.0
  9
$COORDS
 70
     1
  9
$SPLFRAME
 70
     0
  9
$SPLINETYPE
 70
     6
  9
$SPLINESEGS
 70
     8
  9
$ATTDIA
 70
     0
  9
$ATTREQ
 70
     1
  9
$HANDLING
 70
     1
  9
$HANDSEED
  5
1012
  9
$SURFTAB1
 70
     6
  9
$SURFTAB2
 70
     6
  9
$SURFTYPE
 70
     6
  9
$SURFU
 70
     6
  9
$SURFV
 70
     6
  9
$UCSNAME
  2

  9
$UCSORG
 10
0.0
 20
0.0
 30
0.0
  9
$UCSXDIR
 10
1.0
 20
0.0
 30
0.0
  9
$UCSYDIR
 10
0.0
 20
1.0
 30
0.0
  9
$PUCSNAME
  2

  9
$PUCSORG
 10
0.0
 20
0.0
 30
0.0
  9
$PUCSXDIR
 10
1.0
 20
0.0
 30
0.0
  9
$PUCSYDIR
 10
0.0
 20
1.0
 30
0.0
  9
$USERI1
 70
     0
  9
$USERI2
 70
     1
  9
$USERI3
 70
     1
  9
$USERI4
 70
     0
  9
$USERI5
 70
     0
  9
$USERR1
 40
0.0
  9
$USERR2
 40
0.0
  9
$USERR3
 40
0.0
  9
$USERR4
 40
0.0
  9
$USERR5
 40
0.0
  9
$WORLDVIEW
 70
     1
  9
$SHADEDGE
 70
     3
  9
$SHADEDIF
 70
    70
  9
$TILEMODE
 70
     1
  9
$MAXACTVP
 70
    16
  9
$PLIMCHECK
 70
     0
  9
$PEXTMIN
 10
1.0000000000000000E+020
 20
1.0000000000000000E+020
 30
1.0000000000000000E+020
  9
$PEXTMAX
 10
-1.0000000000000000E+020
 20
-1.0000000000000000E+020
 30
-1.0000000000000000E+020
  9
$PLIMMIN
 10
0.0
 20
0.0
  9
$PLIMMAX
 10
12.0
 20
9.0
  9
$UNITMODE
 70
     0
  9
$VISRETAIN
 70
     0
  9
$PLINEGEN
 70
     1
  9
$PSLTSCALE
 70
     0
  0
ENDSEC
  0
SECTION
  2
TABLES
  0
TABLE
  2
VPORT
 70
     1
  0
VPORT
  2
*ACTIVE
 70
     0
 10
0.0
 20
0.0
 11
1.0
 21
1.0
 12
187.49427839065231
 22
174.91677254346851
 13
0.0
 23
0.0
 14
10.0
 24
10.0
 15
10.0
 25
10.0
 16
0.0
 26
0.0
 36
1.0
 17
0.0
 27
0.0
 37
0.0
 40
358.92027899574339
 41
1.7807262569832401
 42
50.0
 43
0.0
 44
0.0
 50
0.0
 51
0.0
 71
     0
 72
   500
 73
     1
 74
     0
 75
     0
 76
     0
 77
     0
 78
     2
  0
ENDTAB
  0
TABLE
  2
LTYPE
 70
     4
  0
LTYPE
  2
CONTINUOUS
 70
     0
  3
Solid Line
 72
    65
 73
     0
 40
0.0
  0
LTYPE
  2
CENTER
 70
     0
  3
____ _ ____ _ ____ _ ____ _ ____ _ ____ _ ____
 72
    65
 73
     4
 40
2.0
 49
1.25
 49
-0.25
 49
0.25
 49
-0.25
  0
LTYPE
  2
HIDDEN
 70
     0
  3
_ _ _ _ _ _ _ _ _ _ _ _ _ _ _ _ _ _ _ _ _ _ _
 72
    65
 73
     2
 40
0.375
 49
0.25
 49
-0.125
  0
LTYPE
  2
PHANTOM2
 70
     0
  3
___ _ _ ___ _ _ ___ _ _ ___ _ _
 72
    65
 73
     6
 40
1.25
 49
0.625
 49
-0.125
 49
0.125
 49
-0.125
 49
0.125
 49
-0.125
  0
ENDTAB
  0
TABLE
  2
LAYER
 70
     4
  0
LAYER
  2
0
 70
     0
 62
     7
  6
CONTINUOUS
  0
LAYER
  2
1
 70
     0
 62
     1
  6
CENTER
  0
LAYER
  2
3
 70
     0
 62
     3
  6
CONTINUOUS
  0
LAYER
  2
2
 70
     0
 62
     2
  6
HIDDEN
  0
ENDTAB
  0
TABLE
  2
STYLE
 70
     2
  0
STYLE
  2
STANDARD
 70
     0
 40
0.0
 41
1.0
 50
0.0
 71
     0
 42
2.0
  3
TXT
  4
BIGFONT
  0
STYLE
  2
STANDARD1
 70
     0
 40
0.0
 41
1.0
 50
0.0
 71
     0
 42
3.0
  3
txt
  4

  0
ENDTAB
  0
TABLE
  2
VIEW
 70
     1
  0
VIEW
  2
ALL
 70
     0
 40
270.0
 10
220.99159663865549
 20
135.0
 41
0.0
 11
0.0
 21
0.0
 31
1.0
 12
0.0
 22
0.0
 32
0.0
 42
0.0
 43
0.0
 44
0.0
 50
0.0
 71
     0
  0
ENDTAB
  0
TABLE
  2
UCS
 70
     0
  0
ENDTAB
  0
TABLE
  2
APPID
 70
     3
  0
APPID
  2
ACAD
 70
     0
  0
APPID
  2
ACAD_MLEADERVER
 70
     0
  0
APPID
  2
ACAD_NAV_VCDISPLAY
 70
     0
  0
ENDTAB
  0
TABLE
  2
DIMSTYLE
 70
     1
  0
DIMSTYLE
  2
STANDARD
 70
     0
  3

  4

  5

  6

  7

 40
1.0
 41
0.18
 42
0.0625
 43
0.38
 44
0.18
 45
0.0
 46
0.0
 47
0.0
 48
0.0
140
0.18
141
0.09
142
0.0
143
25.399999999999999
144
1.0
145
0.0
146
1.0
147
0.09
 71
     0
 72
     0
 73
     1
 74
     1
 75
     0
 76
     0
 77
     0
 78
     0
170
     0
171
     2
172
     0
173
     0
174
     0
175
     0
176
     0
177
     0
178
     0
  0
ENDTAB
  0
ENDSEC
  0
SECTION
  2
BLOCKS
  0
BLOCK
  8
0
  2
$MODEL_SPACE
 70
     0
 10
0.0
 20
0.0
 30
0.0
  3
$MODEL_SPACE
  1

  0
ENDBLK
  5
217
  8
0
  0
BLOCK
 67
     1
  8
0
  2
$PAPER_SPACE
 70
     0
 10
0.0
 20
0.0
 30
0.0
  3
$PAPER_SPACE
  1

  0
ENDBLK
  5
215
 67
     1
  8
0
  0
ENDSEC
  0
SECTION
  2
ENTITIES
  0
ARC
  5
D30
  8
0
 10
129.76660872589491
 20
69.182891154427494
 30
0.0
 40
1.020074226876573
 50
193.24700739579799
 51
236.29279994960709
  0
ARC
  5
D31
  8
0
 10
133.5637967806461
 20
69.260680112315583
 30
0.0
 40
4.8002395482868137
 50
87.521981158264069
 51
183.7211468642594
  0
ARC
  5
D32
  8
0
 10
132.86557456911089
 20
76.264690320743924
 30
0.0
 40
8.7363380468002791
 50
245.19581111851369
 51
273.2197256682125
  0
LINE
  5
D33
  8
0
 10
133.35625311603951
 20
67.542142697970291
 30
0.0
 11
139.4155045560052
 21
67.542142697970291
 31
0.0
  0
LINE
  5
D34
  8
0
 10
133.35625311603951
 20
74.056430871917087
 30
0.0
 11
139.4155045560052
 21
74.056430871917087
 31
0.0
  0
ARC
  5
D35
  8
0
 10
135.6951070532279
 20
49.896582720873852
 30
0.0
 40
6.921429632144295
 50
109.74988699667171
 51
250.25011300332969
  0
LINE
  5
D36
  8
0
 10
133.35625311603951
 20
56.410870894820619
 30
0.0
 11
139.4155045560052
 21
56.410870894820619
 31
0.0
  0
ARC
  5
D37
  8
0
 10
133.5637967806461
 20
30.53248532943206
 30
0.0
 40
4.8002395482868137
 50
176.2788531357406
 51
272.47801884173589
  0
ARC
  5
D38
  8
0
 10
129.76660872589491
 20
30.610274287320149
 30
0.0
 40
1.020074226876573
 50
123.7072000503929
 51
166.75299260420189
  0
ARC
  5
D39
  8
0
 10
132.86557456911089
 20
23.528475121003709
 30
0.0
 40
8.7363380468002791
 50
86.780274331787567
 51
114.8041888814863
  0
LINE
  5
D3A
  8
2
 10
126.4155045560051
 20
38.396582720873823
 30
0.0
 11
127.4155045560051
 21
39.39658272087383
 31
0.0
  0
LINE
  5
D3B
  8
0
 10
126.4155045560051
 20
38.396582720873823
 30
0.0
 11
126.4155045560051
 21
38.396582720873823
 31
0.0
  0
LINE
  5
D3C
  8
0
 10
126.4155045560051
 20
38.396582720873823
 30
0.0
 11
126.4155045560051
 21
38.396582720873823
 31
0.0
  0
LINE
  5
D3D
  8
2
 10
145.91550455600509
 20
44.896582720873788
 30
0.0
 11
138.4155045560052
 21
44.896582720873788
 31
0.0
  0
LINE
  5
D3E
  8
2
 10
145.1035045560053
 20
45.708582720873693
 30
0.0
 11
133.41550455600529
 21
45.708582720873693
 31
0.0
  0
LINE
  5
D3F
  8
2
 10
158.4155045560052
 20
44.208582720873601
 30
0.0
 11
157.7275045560051
 21
44.896582720873702
 31
0.0
  0
LINE
  5
D40
  8
2
 10
145.91550455600509
 20
44.896582720873788
 30
0.0
 11
144.4155045560052
 21
46.396582720873802
 31
0.0
  0
LINE
  5
D41
  8
2
 10
158.4155045560052
 20
44.896582720873653
 30
0.0
 11
145.91550455600509
 21
44.896582720873788
 31
0.0
  0
LINE
  5
D42
  8
2
 10
158.4155045560052
 20
45.708582720873601
 30
0.0
 11
145.10350455600519
 21
45.708582720873693
 31
0.0
  0
LINE
  5
D43
  8
2
 10
138.4155045560052
 20
44.896582720873838
 30
0.0
 11
137.0090793002596
 21
45.708582720873693
 31
0.0
  0
LINE
  5
D44
  8
2
 10
133.41550455600529
 20
45.7085827208738
 30
0.0
 11
130.89910028351761
 21
49.896582720874022
 31
0.0
  0
LINE
  5
DB8
  8
0
 10
158.4155045560052
 20
49.571582720873828
 30
0.0
 11
160.4155045560052
 21
49.571582720873828
 31
0.0
  0
LINE
  5
DB9
  8
0
 10
158.4155045560052
 20
48.92158272087385
 30
0.0
 11
160.4155045560052
 21
48.92158272087385
 31
0.0
  0
LINE
  5
DBA
  8
0
 10
158.4155045560052
 20
48.321582720873828
 30
0.0
 11
160.4155045560052
 21
48.321582720873828
 31
0.0
  0
LINE
  5
DBB
  8
0
 10
158.4155045560052
 20
47.721582720873812
 30
0.0
 11
160.4155045560052
 21
47.721582720873812
 31
0.0
  0
LINE
  5
DBC
  8
0
 10
158.4155045560052
 20
47.17158272087385
 30
0.0
 11
160.4155045560052
 21
47.17158272087385
 31
0.0
  0
LINE
  5
DBD
  8
0
 10
158.4155045560052
 20
46.621582720873789
 30
0.0
 11
160.4155045560052
 21
46.621582720873789
 31
0.0
  0
LINE
  5
DBE
  8
0
 10
158.4155045560052
 20
46.121582720873789
 30
0.0
 11
160.4155045560052
 21
46.121582720873789
 31
0.0
  0
LINE
  5
DC8
  8
2
 10
144.4155045560052
 20
53.396582720873823
 30
0.0
 11
144.4155045560052
 21
46.396582720873731
 31
0.0
  0
LINE
  5
DC9
  8
2
 10
158.4155045560052
 20
54.084582720873982
 30
0.0
 11
145.10350455600519
 21
54.084582720873932
 31
0.0
  0
LINE
  5
DCA
  8
2
 10
158.4155045560052
 20
54.89658272087393
 30
0.0
 11
145.91550455600509
 21
54.896582720873823
 31
0.0
  0
LINE
  5
DCB
  8
2
 10
145.91550455600509
 20
54.896582720873823
 30
0.0
 11
144.4155045560052
 21
53.396582720873823
 31
0.0
  0
LINE
  5
DCC
  8
2
 10
145.91550455600509
 20
54.896582720873823
 30
0.0
 11
145.91550455600529
 21
44.896582720873823
 31
0.0
  0
LINE
  5
DCD
  8
0
 10
196.91550455600529
 20
54.896582720873823
 30
0.0
 11
196.9155045560052
 21
44.896582720873823
 31
0.0
  0
LINE
  5
DCE
  8
0
 10
198.4155045560052
 20
46.396582720873823
 30
0.0
 11
196.9155045560052
 21
44.896582720873823
 31
0.0
  0
LINE
  5
DCF
  8
0
 10
196.91550455600529
 20
54.896582720873823
 30
0.0
 11
198.4155045560052
 21
53.396582720873823
 31
0.0
  0
LINE
  5
DD0
  8
0
 10
158.4155045560052
 20
54.89658272087388
 30
0.0
 11
196.91550455600529
 21
54.896582720873823
 31
0.0
  0
LINE
  5
DD1
  8
3
 10
160.4155045560052
 20
54.084582720873932
 30
0.0
 11
197.72750455600519
 21
54.084582720873932
 31
0.0
  0
LINE
  5
DD2
  8
3
 10
160.4155045560052
 20
45.708582720873721
 30
0.0
 11
197.7275045560051
 21
45.708582720873771
 31
0.0
  0
LINE
  5
DD3
  8
0
 10
158.4155045560052
 20
44.896582720873823
 30
0.0
 11
196.9155045560052
 21
44.896582720873823
 31
0.0
  0
LINE
  5
DD4
  8
0
 10
198.4155045560052
 20
53.396582720873823
 30
0.0
 11
198.4155045560052
 21
46.396582720873823
 31
0.0
  0
LINE
  5
DD5
  8
0
 10
160.4155045560052
 20
54.896582720873823
 30
0.0
 11
160.4155045560052
 21
44.896582720873823
 31
0.0
  0
LINE
  5
DD6
  8
0
 10
141.4155045560052
 20
39.896582720873823
 30
0.0
 11
157.2155045560053
 21
39.896582720873823
 31
0.0
  0
ARC
  5
DD7
  8
0
 10
133.35625311603951
 20
29.89658272087382
 30
0.0
 40
5.0
 50
195.90079735676801
 51
270.0
  0
ARC
  5
DD8
  8
0
 10
139.4155045560052
 20
25.89658272087382
 30
0.0
 40
1.0
 50
270.0
 51
0.0
  0
LINE
  5
DD9
  8
0
 10
140.4155045560052
 20
25.89658272087382
 30
0.0
 11
140.4155045560052
 21
73.896582720873823
 31
0.0
  0
ARC
  5
DDA
  8
0
 10
203.56309038991179
 20
49.896582720873823
 30
0.0
 40
78.0
 50
188.4783621723125
 51
195.90079735676801
  0
LINE
  5
DDB
  8
0
 10
141.4155045560052
 20
59.896582720873766
 30
0.0
 11
157.2155045560053
 21
59.896582720873823
 31
0.0
  0
LINE
  5
DDC
  8
0
 10
158.4155045560052
 20
41.096582720873812
 30
0.0
 11
158.4155045560052
 21
58.696582720873828
 31
0.0
  0
LINE
  5
DDD
  8
0
 10
133.35625311603951
 20
24.89658272087382
 30
0.0
 11
139.4155045560052
 21
24.89658272087382
 31
0.0
  0
LINE
  5
DDE
  8
1
 10
121.4155045560052
 20
49.896582720873823
 30
0.0
 11
203.4155045560052
 21
49.896582720873766
 31
0.0
  0
LINE
  5
DDF
  8
1
 10
21.4155045560052
 20
49.896582720873823
 30
0.0
 11
81.415504556005203
 21
49.896582720873823
 31
0.0
  0
LINE
  5
DE0
  8
1
 10
51.415504556005203
 20
79.896582720873823
 30
0.0
 11
51.415504556005203
 21
19.89658272087399
 31
0.0
  0
ARC
  5
DE1
  8
0
 10
141.4155045560052
 20
38.89658272087383
 30
0.0
 40
1.0
 50
90.0
 51
180.0
  0
ARC
  5
DE2
  8
0
 10
141.4155045560052
 20
60.896582720873759
 30
0.0
 40
1.0
 50
180.0
 51
270.0
  0
ARC
  5
DE3
  8
0
 10
67.915504556005203
 20
78.475421045760299
 30
0.0
 40
11.0
 50
203.68614724118359
 51
276.31385275881519
  0
ARC
  5
DE4
  8
0
 10
51.415504556005203
 20
49.89658272087388
 30
0.0
 40
24.99999999999994
 50
15.103977225717999
 51
44.896022774282002
  0
ARC
  5
DE5
  8
0
 10
84.415504556005203
 20
49.896582720873823
 30
0.0
 40
11.0
 50
143.6861472411837
 51
216.3138527588163
  0
ARC
  5
DE6
  8
0
 10
51.41550455600526
 20
49.896582720873823
 30
0.0
 40
24.99999999999994
 50
315.10397722571759
 51
344.89602277428202
  0
ARC
  5
DE7
  8
0
 10
67.915504556005317
 20
21.317744395987461
 30
0.0
 40
11.0
 50
83.686147241184827
 51
156.31385275881641
  0
ARC
  5
DE8
  8
0
 10
51.415504556005367
 20
49.89658272087393
 30
0.0
 40
24.99999999999994
 50
255.1039772257156
 51
284.8960227742844
  0
ARC
  5
DE9
  8
0
 10
34.91550455600521
 20
21.317744395987351
 30
0.0
 40
11.0
 50
23.68614724118359
 51
96.313852758815173
  0
ARC
  5
DEA
  8
0
 10
51.415504556005203
 20
49.896582720873766
 30
0.0
 40
24.99999999999994
 50
195.10397722571801
 51
224.89602277428219
  0
ARC
  5
DEB
  8
0
 10
18.4155045560052
 20
49.89658272087388
 30
0.0
 40
11.0
 50
323.68614724118339
 51
36.313852758816289
  0
ARC
  5
DEC
  8
0
 10
51.415504556005153
 20
49.89658272087388
 30
0.0
 40
24.99999999999994
 50
135.10397722571801
 51
164.89602277428199
  0
ARC
  5
DED
  8
0
 10
34.915504556005153
 20
78.475421045760299
 30
0.0
 40
11.0
 50
263.68614724118481
 51
336.31385275881638
  0
ARC
  5
DEE
  8
0
 10
51.415504556005153
 20
49.89658272087388
 30
0.0
 40
24.99999999999994
 50
75.103977225715596
 51
104.8960227742844
  0
LINE
  5
DEF
  8
0
 10
133.35625311603951
 20
25.73673456983056
 30
0.0
 11
139.4155045560052
 21
25.73673456983056
 31
0.0
  0
LINE
  5
DF0
  8
0
 10
133.35625311603951
 20
32.251022743777362
 30
0.0
 11
139.4155045560052
 21
32.251022743777362
 31
0.0
  0
LINE
  5
DF1
  8
0
 10
133.35625311603951
 20
43.382294546927028
 30
0.0
 11
139.4155045560052
 21
43.382294546927028
 31
0.0
  0
CIRCLE
  5
DF2
  8
0
 10
51.415504556005203
 20
49.896582720873823
 30
0.0
 40
11.5
  0
LINE
  5
DF3
  8
0
 10
126.4155045560052
 20
38.396582720873766
 30
0.0
 11
126.4155045560052
 21
61.396582720873823
 31
0.0
  0
LINE
  5
DF4
  8
0
 10
126.4155045560052
 20
61.396582720873823
 30
0.0
 11
126.4155045560052
 21
61.396582720873823
 31
0.0
  0
LINE
  5
DF5
  8
2
 10
127.4155045560052
 20
60.39658272087383
 30
0.0
 11
127.4155045560052
 21
39.39658272087388
 31
0.0
  0
ARC
  5
DF6
  8
0
 10
203.56309038991179
 20
49.896582720873823
 30
0.0
 40
78.0
 50
164.09920264323191
 51
171.5216378276875
  0
ARC
  5
DF7
  8
0
 10
133.35625311603951
 20
69.896582720873823
 30
0.0
 40
5.0
 50
90.0
 51
164.09920264323191
  0
LINE
  5
DF8
  8
0
 10
133.35625311603951
 20
74.896582720873823
 30
0.0
 11
139.4155045560052
 21
74.896582720873823
 31
0.0
  0
ARC
  5
DF9
  8
0
 10
139.4155045560052
 20
73.896582720873823
 30
0.0
 40
1.0
 50
0.0
 51
90.0
  0
LINE
  5
DFA
  8
0
 10
157.2155045560053
 20
59.896582720873823
 30
0.0
 11
158.4155045560052
 21
58.696582720873828
 31
0.0
  0
LINE
  5
DFB
  8
0
 10
158.4155045560052
 20
41.096582720873812
 30
0.0
 11
157.2155045560053
 21
39.896582720873823
 31
0.0
  0
LINE
  5
DFC
  8
0
 10
157.2155045560053
 20
39.896582720873823
 30
0.0
 11
157.21550455600519
 21
59.896582720873788
 31
0.0
  0
LINE
  5
DFD
  8
0
 10
126.4155045560052
 20
61.396582720873823
 30
0.0
 11
126.4155045560052
 21
61.396582720873823
 31
0.0
  0
LINE
  5
DFE
  8
2
 10
126.4155045560052
 20
61.396582720873823
 30
0.0
 11
127.4155045560052
 21
60.39658272087383
 31
0.0
  0
LINE
  5
DFF
  8
0
 10
126.4155045560052
 20
38.396582720873766
 30
0.0
 11
126.4155045560052
 21
38.396582720873766
 31
0.0
  0
LINE
  5
E00
  8
0
 10
126.4155045560052
 20
38.396582720873766
 30
0.0
 11
126.4155045560052
 21
38.396582720873766
 31
0.0
  0
LINE
  5
E01
  8
2
 10
145.1035045560053
 20
54.084582720873932
 30
0.0
 11
133.41550455600529
 21
54.084582720873932
 31
0.0
  0
LINE
  5
E02
  8
2
 10
145.91550455600509
 20
54.896582720873823
 30
0.0
 11
138.41550455600529
 21
54.896582720873823
 31
0.0
  0
LINE
  5
E03
  8
2
 10
138.41550455600529
 20
44.896582720873823
 30
0.0
 11
138.41550455600529
 21
54.896582720873823
 31
0.0
  0
LINE
  5
E04
  8
2
 10
133.41550455600529
 20
45.708582720873771
 30
0.0
 11
133.41550455600529
 21
54.084582720873932
 31
0.0
  0
LINE
  5
E05
  8
2
 10
133.41550455600529
 20
54.084582720873811
 30
0.0
 11
130.89910028351761
 21
49.896582720873603
 31
0.0
  0
LINE
  5
E06
  8
2
 10
138.41550455600529
 20
54.896582720873766
 30
0.0
 11
137.0090793002596
 21
54.084582720873932
 31
0.0
  0
LINE
  5
E07
  8
2
 10
158.4155045560052
 20
55.584582720873982
 30
0.0
 11
157.72750455600519
 21
54.89658272087388
 31
0.0
  0
LINE
  5
EBD
  8
0
 10
158.4155045560052
 20
45.621582720873789
 30
0.0
 11
160.4155045560052
 21
45.621582720873789
 31
0.0
  0
LINE
  5
EBE
  8
0
 10
158.4155045560052
 20
45.171582720873779
 30
0.0
 11
160.4155045560052
 21
45.171582720873779
 31
0.0
  0
LINE
  5
EC0
  8
0
 10
158.4155045560052
 20
54.62158272087386
 30
0.0
 11
160.4155045560052
 21
54.62158272087386
 31
0.0
  0
LINE
  5
EC1
  8
0
 10
158.4155045560052
 20
54.17158272087385
 30
0.0
 11
160.4155045560052
 21
54.17158272087385
 31
0.0
  0
LINE
  5
EC2
  8
0
 10
158.4155045560052
 20
53.67158272087385
 30
0.0
 11
160.4155045560052
 21
53.67158272087385
 31
0.0
  0
LINE
  5
EC3
  8
0
 10
158.4155045560052
 20
53.17158272087385
 30
0.0
 11
160.4155045560052
 21
53.17158272087385
 31
0.0
  0
LINE
  5
EC4
  8
0
 10
158.4155045560052
 20
52.621582720873782
 30
0.0
 11
160.4155045560052
 21
52.621582720873782
 31
0.0
  0
LINE
  5
EC5
  8
0
 10
158.4155045560052
 20
52.071582720873828
 30
0.0
 11
160.4155045560052
 21
52.071582720873828
 31
0.0
  0
LINE
  5
EC6
  8
0
 10
158.4155045560052
 20
51.471582720873812
 30
0.0
 11
160.4155045560052
 21
51.471582720873812
 31
0.0
  0
LINE
  5
EC7
  8
0
 10
158.4155045560052
 20
50.871582720873782
 30
0.0
 11
160.4155045560052
 21
50.871582720873782
 31
0.0
  0
LINE
  5
EC8
  8
0
 10
158.4155045560052
 20
50.221582720873812
 30
0.0
 11
160.4155045560052
 21
50.221582720873812
 31
0.0
  0
TEXT
  5
F7B
  8
0
 62
     3
 10
0.0
 20
0.0
 30
0.0
 40
10.0
  1
HK50X40-SUS
  7
STANDARD1
  0
ENDSEC
  0
EOF
