  0
SECTION
  2
HEADER
  9
$ACADVER
  1
AC1009
  9
$INSBASE
 10
0.0
 20
0.0
 30
0.0
  9
$EXTMIN
 10
0.0
 20
-2.960436562073669
 30
0.0
  9
$EXTMAX
 10
280.99999999999562
 20
228.0
 30
0.0
  9
$LIMMIN
 10
0.0
 20
0.0
  9
$LIMMAX
 10
187.5
 20
135.0
  9
$ORTHOMODE
 70
     1
  9
$REGENMODE
 70
     1
  9
$FILLMODE
 70
     1
  9
$QTEXTMODE
 70
     0
  9
$MIRRTEXT
 70
     0
  9
$DRAGMODE
 70
     2
  9
$LTSCALE
 40
5.0
  9
$OSMODE
 70
    37
  9
$ATTMODE
 70
     1
  9
$TEXTSIZE
 40
4.0
  9
$TRACEWID
 40
0.05
  9
$TEXTSTYLE
  7
STANDARD
  9
$CLAYER
  8
0
  9
$CELTYPE
  6
BYLAYER
  9
$CECOLOR
 62
   256
  9
$DIMSCALE
 40
0.5
  9
$DIMASZ
 40
3.0
  9
$DIMEXO
 40
2.0
  9
$DIMDLI
 40
0.38
  9
$DIMRND
 40
0.0
  9
$DIMDLE
 40
0.0
  9
$DIMEXE
 40
2.0
  9
$DIMTP
 40
0.0
  9
$DIMTM
 40
0.0
  9
$DIMTXT
 40
3.0
  9
$DIMCEN
 40
0.0
  9
$DIMTSZ
 40
0.0
  9
$DIMTOL
 70
     0
  9
$DIMLIM
 70
     0
  9
$DIMTIH
 70
     0
  9
$DIMTOH
 70
     0
  9
$DIMSE1
 70
     0
  9
$DIMSE2
 70
     0
  9
$DIMTAD
 70
     1
  9
$DIMZIN
 70
     0
  9
$DIMBLK
  1

  9
$DIMASO
 70
     0
  9
$DIMSHO
 70
     0
  9
$DIMPOST
  1

  9
$DIMAPOST
  1

  9
$DIMALT
 70
     0
  9
$DIMALTD
 70
     2
  9
$DIMALTF
 40
25.399999999999999
  9
$DIMLFAC
 40
1.0
  9
$DIMTOFL
 70
     0
  9
$DIMTVP
 40
1.6000000000000001
  9
$DIMTIX
 70
     1
  9
$DIMSOXD
 70
     0
  9
$DIMSAH
 70
     0
  9
$DIMBLK1
  1

  9
$DIMBLK2
  1

  9
$DIMSTYLE
  2
STANDARD
  9
$DIMCLRD
 70
     0
  9
$DIMCLRE
 70
     0
  9
$DIMCLRT
 70
     0
  9
$DIMTFAC
 40
1.0
  9
$DIMGAP
 40
0.09
  9
$LUNITS
 70
     2
  9
$LUPREC
 70
     1
  9
$SKETCHINC
 40
0.1
  9
$FILLETRAD
 40
1.25
  9
$AUNITS
 70
     0
  9
$AUPREC
 70
     0
  9
$MENU
  1
E:\r13\win\SUPPORT\ACAD
  9
$ELEVATION
 40
0.0
  9
$PELEVATION
 40
0.0
  9
$THICKNESS
 40
0.0
  9
$LIMCHECK
 70
     0
  9
$BLIPMODE
 70
     0
  9
$CHAMFERA
 40
0.0
  9
$CHAMFERB
 40
0.0
  9
$SKPOLY
 70
     0
  9
$TDCREATE
 40
2449840.6143865739
  9
$TDUPDATE
 40
2456804.3721599542
  9
$TDINDWG
 40
0.4397504051
  9
$TDUSRTIMER
 40
0.4397504051
  9
$USRTIMER
 70
     1
  9
$ANGBASE
 50
0.0
  9
$ANGDIR
 70
     0
  9
$PDMODE
 70
     0
  9
$PDSIZE
 40
0.0
  9
$PLINEWID
 40
0.0
  9
$COORDS
 70
     1
  9
$SPLFRAME
 70
     0
  9
$SPLINETYPE
 70
     6
  9
$SPLINESEGS
 70
     8
  9
$ATTDIA
 70
     0
  9
$ATTREQ
 70
     1
  9
$HANDLING
 70
     1
  9
$HANDSEED
  5
5F4D
  9
$SURFTAB1
 70
     6
  9
$SURFTAB2
 70
     6
  9
$SURFTYPE
 70
     6
  9
$SURFU
 70
     6
  9
$SURFV
 70
     6
  9
$UCSNAME
  2

  9
$UCSORG
 10
0.0
 20
0.0
 30
0.0
  9
$UCSXDIR
 10
1.0
 20
0.0
 30
0.0
  9
$UCSYDIR
 10
0.0
 20
1.0
 30
0.0
  9
$PUCSNAME
  2

  9
$PUCSORG
 10
0.0
 20
0.0
 30
0.0
  9
$PUCSXDIR
 10
1.0
 20
0.0
 30
0.0
  9
$PUCSYDIR
 10
0.0
 20
1.0
 30
0.0
  9
$USERI1
 70
     0
  9
$USERI2
 70
     1
  9
$USERI3
 70
     1
  9
$USERI4
 70
     0
  9
$USERI5
 70
     0
  9
$USERR1
 40
0.0
  9
$USERR2
 40
0.0
  9
$USERR3
 40
0.0
  9
$USERR4
 40
0.0
  9
$USERR5
 40
0.0
  9
$WORLDVIEW
 70
     1
  9
$SHADEDGE
 70
     3
  9
$SHADEDIF
 70
    70
  9
$TILEMODE
 70
     1
  9
$MAXACTVP
 70
    16
  9
$PLIMCHECK
 70
     0
  9
$PEXTMIN
 10
1.0000000000000000E+020
 20
1.0000000000000000E+020
 30
1.0000000000000000E+020
  9
$PEXTMAX
 10
-1.0000000000000000E+020
 20
-1.0000000000000000E+020
 30
-1.0000000000000000E+020
  9
$PLIMMIN
 10
0.0
 20
0.0
  9
$PLIMMAX
 10
12.0
 20
9.0
  9
$UNITMODE
 70
     0
  9
$VISRETAIN
 70
     0
  9
$PLINEGEN
 70
     0
  9
$PSLTSCALE
 70
     0
  0
ENDSEC
  0
SECTION
  2
TABLES
  0
TABLE
  2
VPORT
 70
     1
  0
VPORT
  2
*ACTIVE
 70
     0
 10
0.0
 20
0.0
 11
1.0
 21
1.0
 12
290.32981982560631
 22
166.3165357937792
 13
0.0
 23
0.0
 14
5.0
 24
5.0
 15
5.0
 25
5.0
 16
0.0
 26
0.0
 36
1.0
 17
0.0
 27
0.0
 37
0.0
 40
332.80866848027767
 41
1.7454798331015291
 42
50.0
 43
0.0
 44
0.0
 50
0.0
 51
0.0
 71
     0
 72
   100
 73
     1
 74
     0
 75
     0
 76
     0
 77
     0
 78
     0
  0
ENDTAB
  0
TABLE
  2
LTYPE
 70
     3
  0
LTYPE
  2
CONTINUOUS
 70
     0
  3
Solid Line
 72
    65
 73
     0
 40
0.0
  0
LTYPE
  2
CENTER
 70
     0
  3
____ _ ____ _ ____ _ ____ _ ____ _ ____ _ ____
 72
    65
 73
     4
 40
2.0
 49
1.25
 49
-0.25
 49
0.25
 49
-0.25
  0
LTYPE
  2
PHANTOM2
 70
     0
  3
___ _ _ ___ _ _ ___ _ _ ___ _ _
 72
    65
 73
     6
 40
1.25
 49
0.625
 49
-0.125
 49
0.125
 49
-0.125
 49
0.125
 49
-0.125
  0
ENDTAB
  0
TABLE
  2
LAYER
 70
     3
  0
LAYER
  2
0
 70
     0
 62
     7
  6
CONTINUOUS
  0
LAYER
  2
1
 70
     0
 62
     1
  6
CENTER
  0
LAYER
  2
3
 70
     0
 62
     3
  6
CONTINUOUS
  0
ENDTAB
  0
TABLE
  2
STYLE
 70
     2
  0
STYLE
  2
STANDARD
 70
     0
 40
0.0
 41
1.0
 50
0.0
 71
     0
 42
4.0
  3
TXT
  4
BIGFONT
  0
STYLE
  2
STANDARD1
 70
     0
 40
0.0
 41
1.0
 50
0.0
 71
     0
 42
3.0
  3
txt
  4

  0
ENDTAB
  0
TABLE
  2
VIEW
 70
     1
  0
VIEW
  2
ALL
 70
     0
 40
179.66152299999999
 10
141.903918
 20
89.830760999999995
 41
0.0
 11
0.0
 21
0.0
 31
1.0
 12
0.0
 22
0.0
 32
0.0
 42
0.0
 43
0.0
 44
0.0
 50
0.0
 71
     0
  0
ENDTAB
  0
TABLE
  2
UCS
 70
     0
  0
ENDTAB
  0
TABLE
  2
APPID
 70
     5
  0
APPID
  2
ACAD
 70
     0
  0
APPID
  2
DCO15
 70
     0
  0
APPID
  2
ACAD_MLEADERVER
 70
     0
  0
APPID
  2
ACAD_NAV_VCDISPLAY
 70
     0
  0
APPID
  2
ACAD_EXEMPT_FROM_CAD_STANDARDS
 70
     0
  0
ENDTAB
  0
TABLE
  2
DIMSTYLE
 70
     1
  0
DIMSTYLE
  2
STANDARD
 70
     0
  3

  4

  5

  6

  7

 40
1.0
 41
0.18
 42
0.0625
 43
0.38
 44
0.18
 45
0.0
 46
0.0
 47
0.0
 48
0.0
140
0.18
141
0.09
142
0.0
143
25.399999999999999
144
1.0
145
0.0
146
1.0
147
0.09
 71
     0
 72
     0
 73
     1
 74
     1
 75
     0
 76
     0
 77
     0
 78
     0
170
     0
171
     2
172
     0
173
     0
174
     0
175
     0
176
     0
177
     0
178
     0
  0
ENDTAB
  0
ENDSEC
  0
SECTION
  2
BLOCKS
  0
BLOCK
  8
0
  2
$MODEL_SPACE
 70
     0
 10
0.0
 20
0.0
 30
0.0
  3
$MODEL_SPACE
  1

  0
ENDBLK
  5
1BD
  8
0
  0
BLOCK
 67
     1
  8
0
  2
$PAPER_SPACE
 70
     0
 10
0.0
 20
0.0
 30
0.0
  3
$PAPER_SPACE
  1

  0
ENDBLK
  5
1BB
 67
     1
  8
0
  0
ENDSEC
  0
SECTION
  2
ENTITIES
  0
TEXT
  5
DC5
  8
0
 62
     3
 10
0.0
 20
0.0
 30
0.0
 40
10.0
  1
HKR10X25-BK-SUS
  7
STANDARD1
  0
CIRCLE
  5
2104
  8
0
 10
129.99999999999559
 20
49.999999999999972
 30
0.0
 40
5.0
  0
LINE
  5
4360
  8
1
 10
113.99999999999569
 20
49.999999999999972
 30
0.0
 11
214.99999999999571
 21
49.999999999999972
 31
0.0
  0
LINE
  5
43BA
  8
0
 10
119.1492313882527
 20
48.194225779779657
 30
0.0
 11
119.1492313882527
 21
51.805774220220393
 31
0.0
  0
CIRCLE
  5
43F8
  8
0
 10
129.99999999999559
 20
50.000000000000028
 30
0.0
 40
10.6
  0
CIRCLE
  5
43F9
  8
3
 10
129.99999999999559
 20
50.000000000000028
 30
0.0
 40
4.1880000000000592
  0
CIRCLE
  5
43FB
  8
0
 10
129.99999999999559
 20
50.000000000000028
 30
0.0
 40
7.999999999999992
  0
LINE
  5
443B
  8
1
 10
129.99999999999559
 20
166.99999999999989
 30
0.0
 11
129.99999999999559
 21
94.999999999999986
 31
0.0
  0
LINE
  5
443C
  8
0
 10
209.99999999999571
 20
155.5874507866387
 30
0.0
 11
209.99999999999571
 21
158.63320158460471
 31
0.0
  0
ARC
  5
443E
  8
0
 10
129.99999999998809
 20
148.30000000002559
 30
0.0
 40
13.99999999997342
 50
101.8826370079186
 51
106.4877678381477
  0
LINE
  5
443F
  8
0
 10
132.69555316015371
 20
161.99999999999989
 30
0.0
 11
127.1172929389155
 21
161.99999999999989
 31
0.0
  0
LINE
  5
4440
  8
0
 10
207.620253528082
 20
151.55038913303571
 30
0.0
 11
209.39999999999571
 21
154.0
 31
0.0
  0
ARC
  5
4442
  8
0
 10
207.2143415152583
 20
158.6424993558756
 30
0.0
 40
2.7837175550027751
 50
15.20021816538557
 51
89.363086697108088
  0
ARC
  5
4443
  8
0
 10
207.19999999999359
 20
158.63320158460459
 30
0.0
 40
2.8000000000020999
 50
0.0
 51
6.5675121965101608
  0
POLYLINE
  5
4446
  8
0
 66
     1
 10
0.0
 20
0.0
 30
0.0
 70
     8
  0
VERTEX
  5
4447
  8
0
 10
209.39999999999571
 20
154.0
 30
0.0
 70
    32
  0
VERTEX
  5
4448
  8
0
 10
209.5461055213953
 20
154.24313935726309
 30
0.0
 70
    32
  0
VERTEX
  5
4449
  8
0
 10
209.70954611351931
 20
154.50048803705221
 30
0.0
 70
    32
  0
VERTEX
  5
444A
  8
0
 10
209.83870321733571
 20
154.77583696390599
 30
0.0
 70
    32
  0
VERTEX
  5
444B
  8
0
 10
209.92961511413461
 20
155.0600638302036
 30
0.0
 70
    32
  0
VERTEX
  5
444C
  8
0
 10
209.96812885502371
 20
155.24696184378189
 30
0.0
 70
    32
  0
VERTEX
  5
444D
  8
0
 10
209.9842380214539
 20
155.36583208045451
 30
0.0
 70
    32
  0
VERTEX
  5
444E
  8
0
 10
209.99117782410511
 20
155.44214904256481
 30
0.0
 70
    32
  0
VERTEX
  5
444F
  8
0
 10
209.99431574415021
 20
155.4933097066278
 30
0.0
 70
    32
  0
VERTEX
  5
4450
  8
0
 10
209.9963889698341
 20
155.55466544895799
 30
0.0
 70
    32
  0
VERTEX
  5
4451
  8
0
 10
209.99858873461019
 20
155.5703459171946
 30
0.0
 70
    32
  0
VERTEX
  5
4452
  8
0
 10
209.99999999999571
 20
155.5874507866387
 30
0.0
 70
    32
  0
SEQEND
  5
4453
  8
0
  0
LINE
  5
446F
  8
0
 10
201.6335277697074
 20
148.49999999999989
 30
0.0
 11
198.6817755404611
 21
148.49999999999989
 31
0.0
  0
ARC
  5
4470
  8
0
 10
201.6335277697074
 20
155.90000000000001
 30
0.0
 40
7.4000000000000226
 50
272.88960041602752
 51
324.00000000000051
  0
ARC
  5
4471
  8
0
 10
201.63352776971041
 20
155.89999999989411
 30
0.0
 40
7.3999999998941339
 50
269.99999999997431
 51
272.88960041604582
  0
POLYLINE
  5
4473
  8
0
 66
     1
 10
0.0
 20
0.0
 30
0.0
 70
     8
  0
VERTEX
  5
4474
  8
0
 10
192.72334843808201
 20
150.17043032457991
 30
0.0
 70
    32
  0
VERTEX
  5
4475
  8
0
 10
192.0759950676877
 20
150.49913029481581
 30
0.0
 70
    32
  0
VERTEX
  5
4476
  8
0
 10
191.40357434147819
 20
150.77281462739819
 30
0.0
 70
    32
  0
VERTEX
  5
4477
  8
0
 10
190.69026107186389
 20
150.994955845112
 30
0.0
 70
    32
  0
VERTEX
  5
4478
  8
0
 10
189.9606277875406
 20
151.15544981212619
 30
0.0
 70
    32
  0
VERTEX
  5
4479
  8
0
 10
188.98953422730349
 20
151.2704303245786
 30
0.0
 70
    32
  0
SEQEND
  5
447A
  8
0
  0
POLYLINE
  5
447B
  8
0
 66
     1
 10
0.0
 20
0.0
 30
0.0
 70
     8
  0
VERTEX
  5
447C
  8
0
 10
192.72334843808201
 20
150.17043032457991
 30
0.0
 70
    32
  0
VERTEX
  5
447D
  8
0
 10
193.55731000148819
 20
149.70926192534151
 30
0.0
 70
    32
  0
VERTEX
  5
447E
  8
0
 10
194.42664118647801
 20
149.318976082597
 30
0.0
 70
    32
  0
VERTEX
  5
447F
  8
0
 10
195.35193383568779
 20
148.994353290661
 30
0.0
 70
    32
  0
VERTEX
  5
4480
  8
0
 10
196.3015059424549
 20
148.74986237046619
 30
0.0
 70
    32
  0
VERTEX
  5
4481
  8
0
 10
197.47859078016791
 20
148.56333256994489
 30
0.0
 70
    32
  0
VERTEX
  5
4482
  8
0
 10
198.6817755404611
 20
148.49999999999989
 30
0.0
 70
    32
  0
SEQEND
  5
4483
  8
0
  0
LINE
  5
4490
  8
0
 10
137.5999999999957
 20
125.0
 30
0.0
 11
137.99999999999571
 21
125.40000000000001
 31
0.0
  0
LINE
  5
4491
  8
0
 10
121.99999999999569
 20
125.40000000000001
 30
0.0
 11
122.3999999999957
 21
125.0
 31
0.0
  0
LINE
  5
4492
  8
0
 10
137.5999999999957
 20
125.0
 30
0.0
 11
122.3999999999957
 21
125.0
 31
0.0
  0
LINE
  5
4493
  8
0
 10
121.99999999999569
 20
134.99999999999989
 30
0.0
 11
121.99999999999569
 21
125.40000000000001
 31
0.0
  0
LINE
  5
4494
  8
0
 10
137.99999999999571
 20
125.40000000000001
 30
0.0
 11
137.99999999999571
 21
134.99999999999989
 31
0.0
  0
LINE
  5
4495
  8
0
 10
137.99999999999571
 20
125.40000000000001
 30
0.0
 11
121.99999999999569
 21
125.40000000000001
 31
0.0
  0
LINE
  5
4496
  8
0
 10
135.4359707328251
 20
162.3647365276596
 30
0.0
 11
134.99999999999571
 21
162.29663472427961
 31
0.0
  0
LINE
  5
4497
  8
0
 10
135.43597073282521
 20
162.59457673261491
 30
0.0
 11
135.43597073282521
 21
162.3647365276596
 31
0.0
  0
LINE
  5
4499
  8
0
 10
140.09999999999559
 20
134.99999999999989
 30
0.0
 11
140.5999999999957
 21
135.49999999999989
 31
0.0
  0
LINE
  5
449A
  8
0
 10
119.3999999999957
 20
135.49999999999989
 30
0.0
 11
119.8999999999957
 21
134.99999999999989
 31
0.0
  0
LINE
  5
449B
  8
0
 10
140.09999999999559
 20
134.99999999999989
 30
0.0
 11
119.8999999999957
 21
134.99999999999989
 31
0.0
  0
LINE
  5
449C
  8
0
 10
140.5999999999957
 20
135.49999999999989
 30
0.0
 11
140.8503101542494
 21
148.86346446358689
 31
0.0
  0
LINE
  5
449D
  8
0
 10
119.1492313882527
 20
148.88794041976129
 30
0.0
 11
119.3999999999957
 21
135.49999999999989
 31
0.0
  0
LINE
  5
449E
  8
0
 10
140.5999999999957
 20
135.49999999999989
 30
0.0
 11
119.3999999999957
 21
135.49999999999989
 31
0.0
  0
POLYLINE
  5
449F
  8
0
 66
     1
 10
0.0
 20
0.0
 30
0.0
 70
     8
  0
VERTEX
  5
44A0
  8
0
 10
124.29999999999551
 20
161.77457758380231
 30
0.0
 70
    32
  0
VERTEX
  5
44A1
  8
0
 10
125.0874162646934
 20
161.73853493903329
 30
0.0
 70
    32
  0
VERTEX
  5
44A2
  8
0
 10
125.9079371379391
 20
161.71350947122531
 30
0.0
 70
    32
  0
VERTEX
  5
44A3
  8
0
 10
126.780973880356
 20
161.7009929814034
 30
0.0
 70
    32
  0
VERTEX
  5
44A4
  8
0
 10
127.676839692274
 20
161.70316306117431
 30
0.0
 70
    32
  0
VERTEX
  5
44A5
  8
0
 10
128.5633510507904
 20
161.72038504123
 30
0.0
 70
    32
  0
VERTEX
  5
44A6
  8
0
 10
129.45903363506139
 20
161.75292624409391
 30
0.0
 70
    32
  0
VERTEX
  5
44A7
  8
0
 10
130.38394227591459
 20
161.80264143474619
 30
0.0
 70
    32
  0
VERTEX
  5
44A8
  8
0
 10
131.305156151305
 20
161.86836201544801
 30
0.0
 70
    32
  0
VERTEX
  5
44A9
  8
0
 10
132.2495166266057
 20
161.95270564008251
 30
0.0
 70
    32
  0
VERTEX
  5
44AA
  8
0
 10
133.17551838329689
 20
162.05205194101711
 30
0.0
 70
    32
  0
VERTEX
  5
44AB
  8
0
 10
134.10481766954291
 20
162.16853647624009
 30
0.0
 70
    32
  0
VERTEX
  5
44AC
  8
0
 10
134.99999999999571
 20
162.29663472427961
 30
0.0
 70
    32
  0
SEQEND
  5
44AD
  8
0
  0
LINE
  5
44AE
  8
0
 10
119.1492313882526
 20
148.88794041976141
 30
0.0
 11
118.99999999999569
 21
156.90000000000001
 31
0.0
  0
LINE
  5
44B0
  8
0
 10
123.49999999999559
 20
161.69061582680129
 30
0.0
 11
124.29999999999551
 21
161.77457758380231
 31
0.0
  0
POLYLINE
  5
44B1
  8
0
 66
     1
 10
0.0
 20
0.0
 30
0.0
 70
     8
  0
VERTEX
  5
44B2
  8
0
 10
123.49999999999559
 20
161.69061582680129
 30
0.0
 70
    32
  0
VERTEX
  5
44B3
  8
0
 10
123.0253150406924
 20
161.63704798523369
 30
0.0
 70
    32
  0
VERTEX
  5
44B4
  8
0
 10
122.57517716054301
 20
161.54109997866399
 30
0.0
 70
    32
  0
VERTEX
  5
44B5
  8
0
 10
122.1398651624759
 20
161.4037637121132
 30
0.0
 70
    32
  0
VERTEX
  5
44B6
  8
0
 10
121.73398192479659
 20
161.23261691278501
 30
0.0
 70
    32
  0
VERTEX
  5
44B7
  8
0
 10
121.2318321922688
 20
160.95518838428481
 30
0.0
 70
    32
  0
VERTEX
  5
44B8
  8
0
 10
120.7842395887792
 20
160.63432579485769
 30
0.0
 70
    32
  0
VERTEX
  5
44B9
  8
0
 10
120.3802421524005
 20
160.26828456254751
 30
0.0
 70
    32
  0
VERTEX
  5
44BA
  8
0
 10
120.0311117291406
 20
159.872453734175
 30
0.0
 70
    32
  0
VERTEX
  5
44BB
  8
0
 10
119.6422071359563
 20
159.2985235808834
 30
0.0
 70
    32
  0
VERTEX
  5
44BC
  8
0
 10
119.3474199545884
 20
158.6929113026718
 30
0.0
 70
    32
  0
VERTEX
  5
44BD
  8
0
 10
119.1392617893874
 20
158.04784849671739
 30
0.0
 70
    32
  0
VERTEX
  5
44BE
  8
0
 10
119.02496545091429
 20
157.38892234054049
 30
0.0
 70
    32
  0
VERTEX
  5
44BF
  8
0
 10
119.00013040535249
 20
156.93538183743021
 30
0.0
 70
    32
  0
VERTEX
  5
44C0
  8
0
 10
119.00001392405861
 20
156.9115616093178
 30
0.0
 70
    32
  0
VERTEX
  5
44C1
  8
0
 10
118.99999999999569
 20
156.90000000000001
 30
0.0
 70
    32
  0
SEQEND
  5
44C2
  8
0
  0
LINE
  5
44C3
  8
0
 10
135.43597073282521
 20
162.59457673261491
 30
0.0
 11
160.8999999999948
 21
162.9976678005691
 31
0.0
  0
LINE
  5
44C4
  8
0
 10
162.61413382234139
 20
163.0
 30
0.0
 11
160.8999999999948
 21
162.9976678005691
 31
0.0
  0
POLYLINE
  5
44C5
  8
0
 66
     1
 10
0.0
 20
0.0
 30
0.0
 70
     8
  0
VERTEX
  5
44C6
  8
0
 10
205.40872188686299
 20
161.55248306138989
 30
0.0
 70
    32
  0
VERTEX
  5
44C7
  8
0
 10
198.3198782249703
 20
161.99577757358091
 30
0.0
 70
    32
  0
VERTEX
  5
44C8
  8
0
 10
191.2261937062448
 20
162.35779117533011
 30
0.0
 70
    32
  0
VERTEX
  5
44C9
  8
0
 10
184.12907268601569
 20
162.63870658334201
 30
0.0
 70
    32
  0
VERTEX
  5
44CA
  8
0
 10
177.0209633613666
 20
162.83890020564539
 30
0.0
 70
    32
  0
VERTEX
  5
44CB
  8
0
 10
169.91082086540919
 20
162.9589037945405
 30
0.0
 70
    32
  0
VERTEX
  5
44CC
  8
0
 10
167.62988083666099
 20
162.98547247244099
 30
0.0
 70
    32
  0
SEQEND
  5
44CD
  8
0
  0
LINE
  5
44CE
  8
0
 10
207.24528533420471
 20
161.4260449197383
 30
0.0
 11
205.40872188686299
 21
161.55248306138989
 31
0.0
  0
LINE
  5
44CF
  8
0
 10
163.3999999999952
 20
163.0
 30
0.0
 11
162.61413382234139
 21
163.0
 31
0.0
  0
ARC
  5
44D0
  8
0
 10
163.40000000000151
 20
-452.79999999616541
 30
0.0
 40
615.79999999616541
 50
89.606436788532278
 51
90.0
  0
POLYLINE
  5
44D1
  8
0
 66
     1
 10
0.0
 20
0.0
 30
0.0
 70
     8
  0
VERTEX
  5
44D2
  8
0
 10
188.98953422730349
 20
151.2704303245786
 30
0.0
 70
    32
  0
VERTEX
  5
44D3
  8
0
 10
184.63587303042311
 20
151.4995294649174
 30
0.0
 70
    32
  0
VERTEX
  5
44D4
  8
0
 10
180.27809792477331
 20
151.6422024223323
 30
0.0
 70
    32
  0
VERTEX
  5
44D5
  8
0
 10
175.91878029771109
 20
151.6988799119851
 30
0.0
 70
    32
  0
VERTEX
  5
44D6
  8
0
 10
175.19953082984949
 20
151.6999996435917
 30
0.0
 70
    32
  0
SEQEND
  5
44D7
  8
0
  0
LINE
  5
44EA
  8
0
 10
134.99999999999719
 20
148.88794041976141
 30
0.0
 11
119.1492313882526
 21
148.88794041976141
 31
0.0
  0
ARC
  5
44EB
  8
0
 10
175.69999999999621
 20
-63.800000000007913
 30
0.0
 40
215.5000000000079
 50
90.353446359048107
 51
99.306483907581011
  0
POLYLINE
  5
44ED
  8
0
 66
     1
 10
0.0
 20
0.0
 30
0.0
 70
     8
  0
VERTEX
  5
44EE
  8
0
 10
175.19953082984949
 20
151.6999996435917
 30
0.0
 70
    32
  0
VERTEX
  5
44EF
  8
0
 10
174.37063145067901
 20
151.69589968085259
 30
0.0
 70
    32
  0
VERTEX
  5
44F0
  8
0
 10
174.37063145067901
 20
151.69589968085259
 30
0.0
 70
    32
  0
VERTEX
  5
44F1
  8
0
 10
174.37063145067901
 20
151.69589968085259
 30
0.0
 70
    32
  0
SEQEND
  5
44F2
  8
0
  0
LINE
  5
460D
  8
1
 10
269.99999999999568
 20
166.99999999999989
 30
0.0
 11
269.99999999999568
 21
94.999999999999986
 31
0.0
  0
LINE
  5
4629
  8
0
 10
261.99999999999568
 20
134.99999999999989
 30
0.0
 11
261.99999999999568
 21
125.40000000000001
 31
0.0
  0
LINE
  5
462A
  8
0
 10
277.99999999999568
 20
125.40000000000001
 30
0.0
 11
277.99999999999568
 21
134.99999999999989
 31
0.0
  0
LINE
  5
462B
  8
0
 10
277.5999999999957
 20
125.0
 30
0.0
 11
262.39999999999571
 21
125.0
 31
0.0
  0
LINE
  5
462C
  8
0
 10
277.99999999999568
 20
125.40000000000001
 30
0.0
 11
261.99999999999568
 21
125.40000000000001
 31
0.0
  0
LINE
  5
462D
  8
0
 10
277.5999999999957
 20
125.0
 30
0.0
 11
277.99999999999568
 21
125.40000000000001
 31
0.0
  0
LINE
  5
462E
  8
0
 10
261.99999999999568
 20
125.40000000000001
 30
0.0
 11
262.39999999999571
 21
125.0
 31
0.0
  0
LINE
  5
462F
  8
0
 10
280.0999999999957
 20
134.99999999999989
 30
0.0
 11
259.89999999999571
 21
134.99999999999989
 31
0.0
  0
LINE
  5
4630
  8
0
 10
280.0999999999957
 20
134.99999999999989
 30
0.0
 11
280.5999999999957
 21
135.49999999999989
 31
0.0
  0
LINE
  5
4631
  8
0
 10
259.39999999999571
 20
135.49999999999989
 30
0.0
 11
259.89999999999571
 21
134.99999999999989
 31
0.0
  0
LINE
  5
4632
  8
0
 10
280.5999999999957
 20
135.49999999999989
 30
0.0
 11
259.39999999999571
 21
135.49999999999989
 31
0.0
  0
LINE
  5
4633
  8
0
 10
280.5999999999957
 20
135.49999999999989
 30
0.0
 11
280.85031015424943
 21
148.86346446358681
 31
0.0
  0
LINE
  5
4634
  8
0
 10
259.14968984574188
 20
148.86346446358681
 30
0.0
 11
259.39999999999571
 21
135.49999999999989
 31
0.0
  0
LINE
  5
4947
  8
1
 10
49.99999999999568
 20
166.99999999999989
 30
0.0
 11
49.99999999999568
 21
94.999999999999986
 31
0.0
  0
LINE
  5
4948
  8
0
 10
42.790566759265509
 20
162.99993800922101
 30
0.0
 11
42.790566759265509
 21
162.75190570726451
 31
0.0
  0
LINE
  5
4949
  8
0
 10
57.209433240725843
 20
162.75124587476611
 30
0.0
 11
57.209433240725843
 21
162.99993985336039
 31
0.0
  0
POLYLINE
  5
494A
  8
0
 66
     1
 10
0.0
 20
0.0
 30
0.0
 70
     8
  0
VERTEX
  5
494B
  8
0
 10
57.209433240709757
 20
162.9999536520389
 30
0.0
 70
    32
  0
VERTEX
  5
494C
  8
0
 10
57.209346576477373
 20
162.9999366372343
 30
0.0
 70
    32
  0
VERTEX
  5
494D
  8
0
 10
57.19598122528442
 20
162.99954904224279
 30
0.0
 70
    32
  0
VERTEX
  5
494E
  8
0
 10
57.159554890790609
 20
162.99879526044211
 30
0.0
 70
    32
  0
VERTEX
  5
494F
  8
0
 10
57.099999999995532
 20
162.9976678005691
 30
0.0
 70
    32
  0
SEQEND
  5
4950
  8
0
  0
POLYLINE
  5
4951
  8
0
 66
     1
 10
0.0
 20
0.0
 30
0.0
 70
     8
  0
VERTEX
  5
4952
  8
0
 10
42.89999999999565
 20
162.9976678005693
 30
0.0
 70
    32
  0
VERTEX
  5
4953
  8
0
 10
42.841000839758571
 20
162.99878438499201
 30
0.0
 70
    32
  0
VERTEX
  5
4954
  8
0
 10
42.804483790115327
 20
162.99953842676939
 30
0.0
 70
    32
  0
VERTEX
  5
4955
  8
0
 10
42.790678096655817
 20
162.99993416361579
 30
0.0
 70
    32
  0
VERTEX
  5
4956
  8
0
 10
42.790566759285603
 20
162.99995365124499
 30
0.0
 70
    32
  0
SEQEND
  5
4957
  8
0
  0
LINE
  5
4958
  8
0
 10
57.204918576262401
 20
163.0
 30
0.0
 11
42.794940107895052
 21
163.0
 31
0.0
  0
LINE
  5
4966
  8
0
 10
59.629878164610432
 20
162.59457673261491
 30
0.0
 11
59.629878164610432
 21
162.3647365276596
 31
0.0
  0
POLYLINE
  5
4968
  8
0
 66
     1
 10
0.0
 20
0.0
 30
0.0
 70
     8
  0
VERTEX
  5
4969
  8
0
 10
59.62987816461046
 20
162.59457673261491
 30
0.0
 70
    32
  0
VERTEX
  5
496A
  8
0
 10
59.2877489937147
 20
162.60183971428179
 30
0.0
 70
    32
  0
VERTEX
  5
496B
  8
0
 10
58.964439486326341
 20
162.61259911292311
 30
0.0
 70
    32
  0
VERTEX
  5
496C
  8
0
 10
58.659591608332789
 20
162.62647960335181
 30
0.0
 70
    32
  0
VERTEX
  5
496D
  8
0
 10
58.373881837637811
 20
162.64297163332259
 30
0.0
 70
    32
  0
VERTEX
  5
496E
  8
0
 10
58.021112282889113
 20
162.6682901066886
 30
0.0
 70
    32
  0
VERTEX
  5
496F
  8
0
 10
57.702968479136587
 20
162.69622107005731
 30
0.0
 70
    32
  0
VERTEX
  5
4970
  8
0
 10
57.486297574641192
 20
162.7183391758802
 30
0.0
 70
    32
  0
VERTEX
  5
4971
  8
0
 10
57.289684037348593
 20
162.74092404343889
 30
0.0
 70
    32
  0
VERTEX
  5
4972
  8
0
 10
57.112933214670882
 20
162.76365767669111
 30
0.0
 70
    32
  0
VERTEX
  5
4973
  8
0
 10
56.956460743800541
 20
162.78621142965969
 30
0.0
 70
    32
  0
VERTEX
  5
4974
  8
0
 10
56.718546541866289
 20
162.82703396944109
 30
0.0
 70
    32
  0
VERTEX
  5
4975
  8
0
 10
56.551705180695883
 20
162.8651592437844
 30
0.0
 70
    32
  0
VERTEX
  5
4976
  8
0
 10
56.456913043903079
 20
162.89956490802649
 30
0.0
 70
    32
  0
VERTEX
  5
4977
  8
0
 10
56.433272994405279
 20
162.9241161921976
 30
0.0
 70
    32
  0
SEQEND
  5
4978
  8
0
  0
POLYLINE
  5
4979
  8
0
 66
     1
 10
0.0
 20
0.0
 30
0.0
 70
     8
  0
VERTEX
  5
497A
  8
0
 10
56.433272994405279
 20
162.9241161921976
 30
0.0
 70
    32
  0
VERTEX
  5
497B
  8
0
 10
56.434773983699813
 20
162.9298101119509
 30
0.0
 70
    32
  0
VERTEX
  5
497C
  8
0
 10
56.486876503176802
 20
162.95504398344639
 30
0.0
 70
    32
  0
VERTEX
  5
497D
  8
0
 10
56.615010706736051
 20
162.97505580394679
 30
0.0
 70
    32
  0
VERTEX
  5
497E
  8
0
 10
56.819204475467927
 20
162.9893214895279
 30
0.0
 70
    32
  0
VERTEX
  5
497F
  8
0
 10
57.099999999995532
 20
162.99766780056919
 30
0.0
 70
    32
  0
SEQEND
  5
4980
  8
0
  0
LINE
  5
4981
  8
0
 10
40.370121835380921
 20
162.3647365276596
 30
0.0
 11
40.370121835380921
 21
162.5945767326148
 31
0.0
  0
POLYLINE
  5
4982
  8
0
 66
     1
 10
0.0
 20
0.0
 30
0.0
 70
     8
  0
VERTEX
  5
4983
  8
0
 10
42.89999999999565
 20
162.99766780056919
 30
0.0
 70
    32
  0
VERTEX
  5
4984
  8
0
 10
43.053004982510572
 20
162.99415488001961
 30
0.0
 70
    32
  0
VERTEX
  5
4985
  8
0
 10
43.186234374934138
 20
162.9890647919824
 30
0.0
 70
    32
  0
VERTEX
  5
4986
  8
0
 10
43.299887642176763
 20
162.982389025602
 30
0.0
 70
    32
  0
VERTEX
  5
4987
  8
0
 10
43.393475382351141
 20
162.974160374615
 30
0.0
 70
    32
  0
VERTEX
  5
4988
  8
0
 10
43.46706076292881
 20
162.9643840950319
 30
0.0
 70
    32
  0
VERTEX
  5
4989
  8
0
 10
43.520446166204181
 20
162.95310410493391
 30
0.0
 70
    32
  0
VERTEX
  5
498A
  8
0
 10
43.553882375661829
 20
162.9401939129431
 30
0.0
 70
    32
  0
VERTEX
  5
498B
  8
0
 10
43.56659432434639
 20
162.9258296047183
 30
0.0
 70
    32
  0
VERTEX
  5
498C
  8
0
 10
43.566727005626369
 20
162.9241153457146
 30
0.0
 70
    32
  0
SEQEND
  5
498D
  8
0
  0
POLYLINE
  5
498F
  8
0
 66
     1
 10
0.0
 20
0.0
 30
0.0
 70
     8
  0
VERTEX
  5
4990
  8
0
 10
43.566727005626369
 20
162.9241153457146
 30
0.0
 70
    32
  0
VERTEX
  5
4991
  8
0
 10
43.55854207532203
 20
162.91003886389049
 30
0.0
 70
    32
  0
VERTEX
  5
4992
  8
0
 10
43.529695426194593
 20
162.8929176940058
 30
0.0
 70
    32
  0
VERTEX
  5
4993
  8
0
 10
43.479334544823892
 20
162.87431811439041
 30
0.0
 70
    32
  0
VERTEX
  5
4994
  8
0
 10
43.407709371232833
 20
162.8545489365747
 30
0.0
 70
    32
  0
VERTEX
  5
4995
  8
0
 10
43.314666766214138
 20
162.83369614853379
 30
0.0
 70
    32
  0
VERTEX
  5
4996
  8
0
 10
43.200359557144161
 20
162.8119518742304
 30
0.0
 70
    32
  0
VERTEX
  5
4997
  8
0
 10
43.064353938354849
 20
162.7894216546751
 30
0.0
 70
    32
  0
VERTEX
  5
4998
  8
0
 10
42.906978261937461
 20
162.76638941428789
 30
0.0
 70
    32
  0
VERTEX
  5
4999
  8
0
 10
42.576823909522894
 20
162.7253122114075
 30
0.0
 70
    32
  0
VERTEX
  5
499A
  8
0
 10
42.180126557547567
 20
162.68536081535831
 30
0.0
 70
    32
  0
VERTEX
  5
499B
  8
0
 10
41.877764755922321
 20
162.6604497575625
 30
0.0
 70
    32
  0
VERTEX
  5
499C
  8
0
 10
41.545947046844951
 20
162.63799213818581
 30
0.0
 70
    32
  0
VERTEX
  5
499D
  8
0
 10
40.991127620116032
 20
162.6108840444343
 30
0.0
 70
    32
  0
VERTEX
  5
499E
  8
0
 10
40.3701218353809
 20
162.59457673261491
 30
0.0
 70
    32
  0
SEQEND
  5
499F
  8
0
  0
ARC
  5
49A0
  8
0
 10
50.000000000002132
 20
148.300000000024
 30
0.0
 40
13.99999999997514
 50
74.253080160521662
 51
78.11736299207989
  0
ARC
  5
49A1
  8
0
 10
49.999999999989228
 20
148.300000000024
 30
0.0
 40
13.99999999997514
 50
101.8826370079201
 51
105.7469198394781
  0
LINE
  5
49A2
  8
0
 10
52.882707061075713
 20
161.99999999999989
 30
0.0
 11
47.11729293891576
 21
161.99999999999989
 31
0.0
  0
POLYLINE
  5
49A3
  8
0
 66
     1
 10
0.0
 20
0.0
 30
0.0
 70
     8
  0
VERTEX
  5
49A4
  8
0
 10
44.61354105960703
 20
161.78000262208559
 30
0.0
 70
    32
  0
VERTEX
  5
49A5
  8
0
 10
44.620032764440793
 20
161.7957690738846
 30
0.0
 70
    32
  0
VERTEX
  5
49A6
  8
0
 10
44.661745051030088
 20
161.82525534784571
 30
0.0
 70
    32
  0
VERTEX
  5
49A7
  8
0
 10
44.742467085438733
 20
161.8585419554253
 30
0.0
 70
    32
  0
VERTEX
  5
49A8
  8
0
 10
44.857062795566122
 20
161.8938145591475
 30
0.0
 70
    32
  0
VERTEX
  5
49A9
  8
0
 10
45.007817466555359
 20
161.931869511325
 30
0.0
 70
    32
  0
VERTEX
  5
49AA
  8
0
 10
45.197346669734827
 20
161.97279209116661
 30
0.0
 70
    32
  0
VERTEX
  5
49AB
  8
0
 10
45.423175210142233
 20
162.01543072166871
 30
0.0
 70
    32
  0
VERTEX
  5
49AC
  8
0
 10
45.674636184685248
 20
162.05751832612751
 30
0.0
 70
    32
  0
VERTEX
  5
49AD
  8
0
 10
45.958014248268512
 20
162.09981016407821
 30
0.0
 70
    32
  0
VERTEX
  5
49AE
  8
0
 10
46.276822682302161
 20
162.14213322251871
 30
0.0
 70
    32
  0
VERTEX
  5
49AF
  8
0
 10
46.62563707313322
 20
162.1830291243599
 30
0.0
 70
    32
  0
VERTEX
  5
49B0
  8
0
 10
46.986506033538433
 20
162.22008492289709
 30
0.0
 70
    32
  0
VERTEX
  5
49B1
  8
0
 10
47.371265848386678
 20
162.25423717729791
 30
0.0
 70
    32
  0
VERTEX
  5
49B2
  8
0
 10
47.783942604733021
 20
162.2851450304355
 30
0.0
 70
    32
  0
VERTEX
  5
49B3
  8
0
 10
48.216541935260999
 20
162.31152238626319
 30
0.0
 70
    32
  0
VERTEX
  5
49B4
  8
0
 10
48.642527806791229
 20
162.33170888382429
 30
0.0
 70
    32
  0
VERTEX
  5
49B5
  8
0
 10
49.081131812257148
 20
162.34666103382929
 30
0.0
 70
    32
  0
VERTEX
  5
49B6
  8
0
 10
49.53624166601449
 20
162.35603848176649
 30
0.0
 70
    32
  0
VERTEX
  5
49B7
  8
0
 10
49.998283118808267
 20
162.3592356736828
 30
0.0
 70
    32
  0
VERTEX
  5
49B8
  8
0
 10
50.438904765055661
 20
162.35637217521591
 30
0.0
 70
    32
  0
VERTEX
  5
49B9
  8
0
 10
50.879538363761242
 20
162.34771685719011
 30
0.0
 70
    32
  0
VERTEX
  5
49BA
  8
0
 10
51.32342046628991
 20
162.33307985754891
 30
0.0
 70
    32
  0
VERTEX
  5
49BB
  8
0
 10
51.76084318162529
 20
162.31273669336721
 30
0.0
 70
    32
  0
VERTEX
  5
49BC
  8
0
 10
52.170601033917279
 20
162.28820165644549
 30
0.0
 70
    32
  0
VERTEX
  5
49BD
  8
0
 10
52.568249821625407
 20
162.2591291872929
 30
0.0
 70
    32
  0
VERTEX
  5
49BE
  8
0
 10
52.956168341255477
 20
162.2255133427166
 30
0.0
 70
    32
  0
VERTEX
  5
49BF
  8
0
 10
53.32557471537703
 20
162.1883389028518
 30
0.0
 70
    32
  0
VERTEX
  5
49C0
  8
0
 10
53.663058882169757
 20
162.1495634328312
 30
0.0
 70
    32
  0
VERTEX
  5
49C1
  8
0
 10
53.977591657945908
 20
162.10877590549219
 30
0.0
 70
    32
  0
VERTEX
  5
49C2
  8
0
 10
54.270510430672232
 20
162.06609156004521
 30
0.0
 70
    32
  0
VERTEX
  5
49C3
  8
0
 10
54.534563742239392
 20
162.02285472435949
 30
0.0
 70
    32
  0
VERTEX
  5
49C4
  8
0
 10
54.760285683692871
 20
161.98122047795019
 30
0.0
 70
    32
  0
VERTEX
  5
49C5
  8
0
 10
54.954381405041943
 20
161.9405236245463
 30
0.0
 70
    32
  0
VERTEX
  5
49C6
  8
0
 10
55.116892200866118
 20
161.90089244493319
 30
0.0
 70
    32
  0
VERTEX
  5
49C7
  8
0
 10
55.24279240154911
 20
161.8635919963348
 30
0.0
 70
    32
  0
VERTEX
  5
49C8
  8
0
 10
55.327360458457058
 20
161.8306221398577
 30
0.0
 70
    32
  0
VERTEX
  5
49C9
  8
0
 10
55.375283653935121
 20
161.80081966145781
 30
0.0
 70
    32
  0
VERTEX
  5
49CA
  8
0
 10
55.386458875001857
 20
161.78000013924449
 30
0.0
 70
    32
  0
SEQEND
  5
49CB
  8
0
  0
LINE
  5
49CC
  8
0
 10
59.629878164610489
 20
162.3647365276596
 30
0.0
 11
59.797958971128359
 21
162.29663472427961
 31
0.0
  0
LINE
  5
49CD
  8
0
 10
59.629878164610432
 20
162.3647365276596
 30
0.0
 11
40.370121835380921
 21
162.3647365276596
 31
0.0
  0
LINE
  5
49CE
  8
0
 10
40.202041028862929
 20
162.29663472427961
 30
0.0
 11
40.370121835380871
 21
162.3647365276596
 31
0.0
  0
POLYLINE
  5
49CF
  8
0
 66
     1
 10
0.0
 20
0.0
 30
0.0
 70
     8
  0
VERTEX
  5
49D0
  8
0
 10
39.389322963954413
 20
161.70000000352579
 30
0.0
 70
    32
  0
VERTEX
  5
49D1
  8
0
 10
39.435094823518909
 20
161.70025296734491
 30
0.0
 70
    32
  0
VERTEX
  5
49D2
  8
0
 10
39.576280402614493
 20
161.7035802031879
 30
0.0
 70
    32
  0
VERTEX
  5
49D3
  8
0
 10
39.736981782518228
 20
161.71065334828759
 30
0.0
 70
    32
  0
VERTEX
  5
49D4
  8
0
 10
39.920780904597279
 20
161.7215523429708
 30
0.0
 70
    32
  0
VERTEX
  5
49D5
  8
0
 10
40.124422041235981
 20
161.7359685475009
 30
0.0
 70
    32
  0
VERTEX
  5
49D6
  8
0
 10
40.348542847402911
 20
161.7537472395704
 30
0.0
 70
    32
  0
VERTEX
  5
49D7
  8
0
 10
40.592024659892012
 20
161.77457758380231
 30
0.0
 70
    32
  0
SEQEND
  5
49D8
  8
0
  0
POLYLINE
  5
49D9
  8
0
 66
     1
 10
0.0
 20
0.0
 30
0.0
 70
     8
  0
VERTEX
  5
49DA
  8
0
 10
60.610701812992318
 20
161.70000000255459
 30
0.0
 70
    32
  0
VERTEX
  5
49DB
  8
0
 10
60.644056076073923
 20
161.70014705544509
 30
0.0
 70
    32
  0
VERTEX
  5
49DC
  8
0
 10
60.751880123240483
 20
161.70316306117431
 30
0.0
 70
    32
  0
VERTEX
  5
49DD
  8
0
 10
60.905367911870542
 20
161.7202725227078
 30
0.0
 70
    32
  0
VERTEX
  5
49DE
  8
0
 10
60.987013473667787
 20
161.75322348380001
 30
0.0
 70
    32
  0
VERTEX
  5
49DF
  8
0
 10
60.999999998655163
 20
161.78001329078549
 30
0.0
 70
    32
  0
SEQEND
  5
49E0
  8
0
  0
LINE
  5
49E1
  8
0
 10
59.407975340099341
 20
161.77457758380231
 30
0.0
 11
40.592024659892012
 21
161.77457758380231
 31
0.0
  0
LINE
  5
49E2
  8
0
 10
41.99999999999568
 20
134.99999999999989
 30
0.0
 11
41.99999999999568
 21
125.40000000000001
 31
0.0
  0
LINE
  5
49E3
  8
0
 10
57.99999999999568
 20
125.40000000000001
 30
0.0
 11
57.99999999999568
 21
134.99999999999989
 31
0.0
  0
LINE
  5
49E4
  8
0
 10
57.599999999995681
 20
125.0
 30
0.0
 11
57.99999999999568
 21
125.40000000000001
 31
0.0
  0
LINE
  5
49E5
  8
0
 10
41.99999999999568
 20
125.40000000000001
 30
0.0
 11
42.399999999995678
 21
125.0
 31
0.0
  0
LINE
  5
49E6
  8
0
 10
57.599999999995681
 20
125.0
 30
0.0
 11
42.399999999995678
 21
125.0
 31
0.0
  0
LINE
  5
49E7
  8
0
 10
57.99999999999568
 20
125.40000000000001
 30
0.0
 11
41.99999999999568
 21
125.40000000000001
 31
0.0
  0
LINE
  5
49E8
  8
0
 10
60.099999999995681
 20
134.99999999999989
 30
0.0
 11
60.599999999995667
 21
135.49999999999989
 31
0.0
  0
LINE
  5
49E9
  8
0
 10
39.399999999995693
 20
135.49999999999989
 30
0.0
 11
39.899999999995678
 21
134.99999999999989
 31
0.0
  0
LINE
  5
49EA
  8
0
 10
60.099999999995681
 20
134.99999999999989
 30
0.0
 11
39.899999999995678
 21
134.99999999999989
 31
0.0
  0
LINE
  5
49EB
  8
0
 10
60.599999999995667
 20
135.49999999999989
 30
0.0
 11
60.850762391820503
 21
148.88760835311081
 31
0.0
  0
LINE
  5
49EC
  8
0
 10
39.14923760817085
 20
148.88760835311081
 30
0.0
 11
39.399999999995693
 21
135.49999999999989
 31
0.0
  0
LINE
  5
49ED
  8
0
 10
60.599999999995667
 20
135.49999999999989
 30
0.0
 11
39.399999999995693
 21
135.49999999999989
 31
0.0
  0
LINE
  5
49EF
  8
0
 10
49.99999999999568
 20
148.86346446358689
 30
0.0
 11
60.999999999995673
 21
148.88794041976141
 31
0.0
  0
LINE
  5
49F0
  8
0
 10
38.99999999999568
 20
148.88794041976141
 30
0.0
 11
49.99999999999568
 21
148.86346446358689
 31
0.0
  0
POLYLINE
  5
49F6
  8
0
 66
     1
 10
0.0
 20
0.0
 30
0.0
 70
     8
  0
VERTEX
  5
49F7
  8
0
 10
59.407975340099341
 20
161.77457758380231
 30
0.0
 70
    32
  0
VERTEX
  5
49F8
  8
0
 10
59.840689976418048
 20
161.73862348874661
 30
0.0
 70
    32
  0
VERTEX
  5
49F9
  8
0
 10
60.210534830893501
 20
161.71350947122531
 30
0.0
 70
    32
  0
VERTEX
  5
49FA
  8
0
 10
60.372965224678872
 20
161.705502615428
 30
0.0
 70
    32
  0
VERTEX
  5
49FB
  8
0
 10
60.517450364429983
 20
161.7009874555103
 30
0.0
 70
    32
  0
VERTEX
  5
49FC
  8
0
 10
60.610701812992318
 20
161.70000000255459
 30
0.0
 70
    32
  0
SEQEND
  5
49FD
  8
0
  0
POLYLINE
  5
49FE
  8
0
 66
     1
 10
0.0
 20
0.0
 30
0.0
 70
     8
  0
VERTEX
  5
49FF
  8
0
 10
58.874119674645051
 20
161.69061582680129
 30
0.0
 70
    32
  0
VERTEX
  5
4A00
  8
0
 10
59.406863297972791
 20
161.7743849916817
 30
0.0
 70
    32
  0
VERTEX
  5
4A01
  8
0
 10
59.407975340099341
 20
161.77457758380231
 30
0.0
 70
    32
  0
SEQEND
  5
4A02
  8
0
  0
LINE
  5
4A03
  8
0
 10
60.999999999995673
 20
148.88794041976141
 30
0.0
 11
60.999999999995673
 21
161.78194882425021
 31
0.0
  0
POLYLINE
  5
4A04
  8
0
 66
     1
 10
0.0
 20
0.0
 30
0.0
 70
     8
  0
VERTEX
  5
4A05
  8
0
 10
60.999999998655163
 20
161.78001329078549
 30
0.0
 70
    32
  0
VERTEX
  5
4A06
  8
0
 10
60.993415429538338
 20
161.80240004288041
 30
0.0
 70
    32
  0
VERTEX
  5
4A07
  8
0
 10
60.967625880588287
 20
161.8333669618371
 30
0.0
 70
    32
  0
VERTEX
  5
4A08
  8
0
 10
60.922296801525079
 20
161.86836201544801
 30
0.0
 70
    32
  0
VERTEX
  5
4A09
  8
0
 10
60.855531880636903
 20
161.90833592720821
 30
0.0
 70
    32
  0
VERTEX
  5
4A0A
  8
0
 10
60.768282651309669
 20
161.95231941203249
 30
0.0
 70
    32
  0
VERTEX
  5
4A0B
  8
0
 10
60.660183599052509
 20
162.00034426793621
 30
0.0
 70
    32
  0
VERTEX
  5
4A0C
  8
0
 10
60.531670475153703
 20
162.05205194101711
 30
0.0
 70
    32
  0
VERTEX
  5
4A0D
  8
0
 10
60.379698070697032
 20
162.10836886650031
 30
0.0
 70
    32
  0
VERTEX
  5
4A0E
  8
0
 10
60.20687727865208
 20
162.16801831165489
 30
0.0
 70
    32
  0
VERTEX
  5
4A0F
  8
0
 10
60.012644884714739
 20
162.2309617254179
 30
0.0
 70
    32
  0
VERTEX
  5
4A10
  8
0
 10
59.797958971128359
 20
162.29663472427961
 30
0.0
 70
    32
  0
SEQEND
  5
4A11
  8
0
  0
LINE
  5
4A17
  8
0
 10
40.592024659892012
 20
161.77457758380231
 30
0.0
 11
41.125880325346309
 21
161.69061582680129
 31
0.0
  0
POLYLINE
  5
4A18
  8
0
 66
     1
 10
0.0
 20
0.0
 30
0.0
 70
     8
  0
VERTEX
  5
4A19
  8
0
 10
40.202041028862929
 20
162.29663472427961
 30
0.0
 70
    32
  0
VERTEX
  5
4A1A
  8
0
 10
39.826560836353821
 20
162.17913146890211
 30
0.0
 70
    32
  0
VERTEX
  5
4A1B
  8
0
 10
39.516784924464467
 20
162.0704851856166
 30
0.0
 70
    32
  0
VERTEX
  5
4A1C
  8
0
 10
39.385881381407927
 20
162.01941878345059
 30
0.0
 70
    32
  0
VERTEX
  5
4A1D
  8
0
 10
39.273511591310474
 20
161.97152958377049
 30
0.0
 70
    32
  0
VERTEX
  5
4A1E
  8
0
 10
39.179711292945171
 20
161.92688425335439
 30
0.0
 70
    32
  0
VERTEX
  5
4A1F
  8
0
 10
39.105245945027747
 20
161.88586787270069
 30
0.0
 70
    32
  0
VERTEX
  5
4A20
  8
0
 10
39.017396365014122
 20
161.81780427556839
 30
0.0
 70
    32
  0
VERTEX
  5
4A21
  8
0
 10
39.000000000023647
 20
161.7800024386091
 30
0.0
 70
    32
  0
SEQEND
  5
4A22
  8
0
  0
LINE
  5
4A23
  8
0
 10
38.99999999999568
 20
161.7817667410728
 30
0.0
 11
38.99999999999568
 21
148.88794041976141
 31
0.0
  0
POLYLINE
  5
4A24
  8
0
 66
     1
 10
0.0
 20
0.0
 30
0.0
 70
     8
  0
VERTEX
  5
4A25
  8
0
 10
39.000000000023647
 20
161.7800024386091
 30
0.0
 70
    32
  0
VERTEX
  5
4A26
  8
0
 10
39.004081726466637
 20
161.76431590334121
 30
0.0
 70
    32
  0
VERTEX
  5
4A27
  8
0
 10
39.026426403983749
 20
161.74347251228241
 30
0.0
 70
    32
  0
VERTEX
  5
4A28
  8
0
 10
39.068209930059993
 20
161.7267368734455
 30
0.0
 70
    32
  0
VERTEX
  5
4A29
  8
0
 10
39.130385226857157
 20
161.71395066020889
 30
0.0
 70
    32
  0
VERTEX
  5
4A2A
  8
0
 10
39.212570162314307
 20
161.70531791039349
 30
0.0
 70
    32
  0
VERTEX
  5
4A2B
  8
0
 10
39.314010571550568
 20
161.70080204699391
 30
0.0
 70
    32
  0
VERTEX
  5
4A2C
  8
0
 10
39.389322963954413
 20
161.70000000352579
 30
0.0
 70
    32
  0
SEQEND
  5
4A2D
  8
0
  0
LINE
  5
4A2E
  8
0
 10
58.874119674645051
 20
161.69061582680129
 30
0.0
 11
41.125880325346309
 21
161.69061582680129
 31
0.0
  0
LINE
  5
4A6F
  8
1
 10
113.99999999999569
 20
212.0
 30
0.0
 11
214.99999999999571
 21
212.0
 31
0.0
  0
ARC
  5
4D44
  8
0
 10
129.99999999999559
 20
212.0
 30
0.0
 40
2.6855911825890351
 50
191.2732141259103
 51
348.72678587408961
  0
LINE
  5
4D45
  8
0
 10
127.24999999999569
 20
212.52500000000001
 30
0.0
 11
127.24999999999569
 21
211.47499999999999
 31
0.0
  0
LINE
  5
4D46
  8
0
 10
132.74999999999571
 20
212.52499999999989
 30
0.0
 11
132.74999999999571
 21
211.47499999999999
 31
0.0
  0
ARC
  5
4D47
  8
0
 10
129.99999999999559
 20
212.0
 30
0.0
 40
2.6855911825890351
 50
11.27321412591029
 51
168.7267858740897
  0
CIRCLE
  5
4D48
  8
0
 10
129.99999999999559
 20
212.0
 30
0.0
 40
5.0
  0
ARC
  5
4D49
  8
0
 10
128.1693380939837
 20
213.05693314423121
 30
0.0
 40
0.6912500000000005
 50
309.68887794065358
 51
16.658241772777011
  0
ARC
  5
4D4A
  8
0
 10
129.20999999999569
 20
213.36832013797951
 30
0.0
 40
0.3949999999999998
 50
43.341758227223288
 51
196.6582417727769
  0
ARC
  5
4D4B
  8
0
 10
129.99999999999571
 20
214.1138662884625
 30
0.0
 40
0.6912499999999989
 50
223.34175822722329
 51
316.65824177277671
  0
ARC
  5
4D4C
  8
0
 10
130.78999999999559
 20
213.36832013797951
 30
0.0
 40
0.3950000000000002
 50
343.34175822722301
 51
136.65824177277671
  0
ARC
  5
4D4D
  8
0
 10
128.1693380939837
 20
210.94306685576879
 30
0.0
 40
0.691250000000001
 50
343.34175822722301
 51
50.31112205933141
  0
ARC
  5
4D4E
  8
0
 10
129.20999999999569
 20
210.6316798620206
 30
0.0
 40
0.3950000000000001
 50
163.34175822722301
 51
316.65824177277671
  0
ARC
  5
4D4F
  8
0
 10
129.99999999999571
 20
209.88613371153761
 30
0.0
 40
0.6912500000000003
 50
43.341758227223288
 51
136.65824177277639
  0
ARC
  5
4D50
  8
0
 10
130.78999999999559
 20
210.6316798620206
 30
0.0
 40
0.3949999999999998
 50
223.34175822722329
 51
16.658241772777011
  0
ARC
  5
4D51
  8
0
 10
131.83066190600761
 20
210.94306685576879
 30
0.0
 40
0.6912500000000003
 50
129.6888779406685
 51
196.6582417727769
  0
ARC
  5
4D52
  8
0
 10
131.83066190600761
 20
213.05693314423121
 30
0.0
 40
0.6912500000000011
 50
163.34175822722301
 51
230.31112205934619
  0
LINE
  5
4D53
  8
0
 10
127.24999999999569
 20
211.47499999999999
 30
0.0
 11
128.61078309912969
 21
211.47499999999999
 31
0.0
  0
LINE
  5
4D54
  8
0
 10
127.24999999999569
 20
212.52500000000001
 30
0.0
 11
128.61078309912961
 21
212.52500000000001
 31
0.0
  0
LINE
  5
4D55
  8
0
 10
131.3892169008617
 20
212.52499999999989
 30
0.0
 11
132.74999999999571
 21
212.52499999999989
 31
0.0
  0
LINE
  5
4D56
  8
0
 10
131.38921690086161
 20
211.47499999999999
 30
0.0
 11
132.74999999999571
 21
211.47499999999999
 31
0.0
  0
LINE
  5
4D72
  8
0
 10
140.85031015424579
 20
148.8634644635863
 30
0.0
 11
134.99999999999719
 21
148.88794041976141
 31
0.0
  0
POLYLINE
  5
4D7B
  8
0
 66
     1
 10
0.0
 20
0.0
 30
0.0
 70
     8
  0
VERTEX
  5
4D7D
  8
0
 10
209.98162577691409
 20
158.95344842250151
 30
0.0
 70
    32
  0
VERTEX
  5
4D7E
  8
0
 10
209.9502252234509
 20
159.10577495999561
 30
0.0
 70
    32
  0
VERTEX
  5
4D7F
  8
0
 10
209.90067209267531
 20
159.37237020394741
 30
0.0
 70
    32
  0
SEQEND
  5
4D7C
  8
0
  0
CIRCLE
  5
4E95
  8
0
 10
129.99999999999559
 20
212.0
 30
0.0
 40
5.3819490470175131
  0
LINE
  5
5144
  8
0
 10
133.49999999999571
 20
99.999999999999943
 30
0.0
 11
126.49999999999569
 21
100.0
 31
0.0
  0
LINE
  5
5145
  8
0
 10
124.99999999999569
 20
125.0
 30
0.0
 11
124.99999999999569
 21
101.5
 31
0.0
  0
LINE
  5
5146
  8
3
 10
125.81199999999561
 20
121.0
 30
0.0
 11
125.81199999999561
 21
100.6880000000001
 31
0.0
  0
LINE
  5
5147
  8
3
 10
134.18799999999581
 20
120.9999999999999
 30
0.0
 11
134.18799999999581
 21
100.688
 31
0.0
  0
LINE
  5
5148
  8
0
 10
134.99999999999571
 20
125.0
 30
0.0
 11
134.99999999999571
 21
101.4999999999999
 31
0.0
  0
LINE
  5
5149
  8
0
 10
134.99999999999571
 20
101.4999999999999
 30
0.0
 11
133.49999999999571
 21
99.999999999999943
 31
0.0
  0
LINE
  5
514A
  8
0
 10
126.49999999999569
 20
100.0
 30
0.0
 11
124.99999999999569
 21
101.5
 31
0.0
  0
LINE
  5
514B
  8
0
 10
134.99999999999571
 20
120.9999999999999
 30
0.0
 11
124.99999999999569
 21
121.0
 31
0.0
  0
LINE
  5
514C
  8
3
 10
134.18799999999581
 20
120.9999999999999
 30
0.0
 11
134.99999999999571
 21
122.4064252557457
 31
0.0
  0
LINE
  5
514D
  8
3
 10
125.81199999999561
 20
120.9999999999999
 30
0.0
 11
124.99999999999569
 21
122.4064252557457
 31
0.0
  0
LINE
  5
514E
  8
0
 10
134.99999999999571
 20
101.4999999999999
 30
0.0
 11
124.99999999999569
 21
101.5
 31
0.0
  0
LINE
  5
5151
  8
0
 10
53.499999999995708
 20
99.999999999999943
 30
0.0
 11
46.499999999995708
 21
100.0
 31
0.0
  0
LINE
  5
5152
  8
0
 10
44.999999999995708
 20
125.0
 30
0.0
 11
44.999999999995708
 21
101.5
 31
0.0
  0
LINE
  5
5153
  8
3
 10
45.811999999995606
 20
121.0
 30
0.0
 11
45.811999999995642
 21
100.6880000000001
 31
0.0
  0
LINE
  5
5154
  8
3
 10
54.18799999999581
 20
120.9999999999999
 30
0.0
 11
54.18799999999581
 21
100.688
 31
0.0
  0
LINE
  5
5155
  8
0
 10
54.999999999995708
 20
125.0
 30
0.0
 11
54.999999999995708
 21
101.4999999999999
 31
0.0
  0
LINE
  5
5156
  8
0
 10
54.999999999995708
 20
101.4999999999999
 30
0.0
 11
53.499999999995708
 21
99.999999999999943
 31
0.0
  0
LINE
  5
5157
  8
0
 10
46.499999999995708
 20
100.0
 30
0.0
 11
44.999999999995708
 21
101.5
 31
0.0
  0
LINE
  5
5158
  8
0
 10
54.999999999995708
 20
120.9999999999999
 30
0.0
 11
44.999999999995708
 21
121.0
 31
0.0
  0
LINE
  5
5159
  8
3
 10
54.18799999999581
 20
120.9999999999999
 30
0.0
 11
54.99999999999573
 21
122.4064252557457
 31
0.0
  0
LINE
  5
515A
  8
3
 10
45.811999999995628
 20
120.9999999999999
 30
0.0
 11
44.99999999999573
 21
122.4064252557457
 31
0.0
  0
LINE
  5
515B
  8
0
 10
54.999999999995708
 20
101.4999999999999
 30
0.0
 11
44.999999999995708
 21
101.5
 31
0.0
  0
LINE
  5
515C
  8
0
 10
273.49999999999568
 20
99.999999999999943
 30
0.0
 11
266.49999999999568
 21
100.0
 31
0.0
  0
LINE
  5
515D
  8
0
 10
264.99999999999568
 20
125.0
 30
0.0
 11
264.99999999999568
 21
101.5
 31
0.0
  0
LINE
  5
515E
  8
3
 10
265.81199999999558
 20
121.0
 30
0.0
 11
265.81199999999558
 21
100.6880000000001
 31
0.0
  0
LINE
  5
515F
  8
3
 10
274.18799999999578
 20
120.9999999999999
 30
0.0
 11
274.18799999999578
 21
100.688
 31
0.0
  0
LINE
  5
5160
  8
0
 10
274.99999999999568
 20
125.0
 30
0.0
 11
274.99999999999568
 21
101.4999999999999
 31
0.0
  0
LINE
  5
5161
  8
0
 10
274.99999999999568
 20
101.4999999999999
 30
0.0
 11
273.49999999999568
 21
99.999999999999943
 31
0.0
  0
LINE
  5
5162
  8
0
 10
266.49999999999568
 20
100.0
 30
0.0
 11
264.99999999999568
 21
101.5
 31
0.0
  0
LINE
  5
5163
  8
0
 10
274.99999999999568
 20
120.9999999999999
 30
0.0
 11
264.99999999999568
 21
121.0
 31
0.0
  0
LINE
  5
5164
  8
3
 10
274.18799999999578
 20
120.9999999999999
 30
0.0
 11
274.99999999999568
 21
122.4064252557457
 31
0.0
  0
LINE
  5
5165
  8
3
 10
265.81199999999558
 20
120.9999999999999
 30
0.0
 11
264.99999999999568
 21
122.4064252557457
 31
0.0
  0
LINE
  5
5166
  8
0
 10
274.99999999999568
 20
101.4999999999999
 30
0.0
 11
264.99999999999568
 21
101.5
 31
0.0
  0
LINE
  5
5222
  8
1
 10
129.99999999999559
 20
33.99999999999995
 30
0.0
 11
129.99999999999559
 21
66.0
 31
0.0
  0
LINE
  5
522A
  8
1
 10
129.99999999999559
 20
195.99999999999989
 30
0.0
 11
129.99999999999559
 21
228.0
 31
0.0
  0
ARC
  5
5CE7
  8
0
 10
205.19999999999621
 20
213.0500000000018
 30
0.0
 40
4.7999999999981569
 50
65.23287475947852
 51
88.179611942731853
  0
ARC
  5
5CE8
  8
0
 10
205.19999999999521
 20
210.9500000000011
 30
0.0
 40
4.8000000000011651
 50
271.82038805727473
 51
294.76712524051788
  0
LINE
  5
5CE9
  8
0
 10
162.79999999999561
 20
204.7999999999999
 30
0.0
 11
205.35247881707329
 21
206.15242246437401
 31
0.0
  0
ARC
  5
5CEA
  8
0
 10
162.36792456627339
 20
214.690566759272
 30
0.0
 40
9.9000000000021693
 50
261.47301441054481
 51
272.50141058108312
  0
ARC
  5
5CEB
  8
0
 10
152.8442739835634
 20
156.56672700563149
 30
0.0
 40
48.999999999999631
 50
80.537469584681531
 51
110.8100845896347
  0
ARC
  5
5CEC
  8
0
 10
152.8442739835634
 20
267.43327299436839
 30
0.0
 40
48.999999999999687
 50
249.18991541036519
 51
279.46253041532179
  0
ARC
  5
5CED
  8
0
 10
162.36792456627319
 20
209.30943324072609
 30
0.0
 40
9.900000000004022
 50
87.498589418916964
 51
98.526985589448657
  0
LINE
  5
5CEE
  8
0
 10
205.35247881707349
 20
217.8475775356259
 30
0.0
 11
162.79999999999561
 21
219.19999999999999
 31
0.0
  0
ARC
  5
5CEF
  8
0
 10
129.99999999999559
 20
212.0
 30
0.0
 40
10.999999999999959
 50
62.964308210588626
 51
121.21037029251271
  0
ARC
  5
5CF0
  8
0
 10
129.99999999999551
 20
212.0
 30
0.0
 40
11.00000000000002
 50
238.789629707491
 51
297.03569178941501
  0
LINE
  5
5CF1
  8
0
 10
135.4359707328251
 20
202.37012183538511
 30
0.0
 11
134.99999999999571
 21
202.20204102886731
 31
0.0
  0
LINE
  5
5CF2
  8
0
 10
135.4359707328251
 20
221.62987816461469
 30
0.0
 11
134.99999999999551
 21
221.79795897113269
 31
0.0
  0
ARC
  5
5CF3
  8
0
 10
129.99999999999559
 20
212.0
 30
0.0
 40
11.000000000000011
 50
233.77845338016681
 51
238.789629707491
  0
ARC
  5
5CF4
  8
0
 10
129.99999999999559
 20
212.0
 30
0.0
 40
11.000000000000011
 50
121.21037029251271
 51
126.2215466198373
  0
ARC
  5
5CF5
  8
0
 10
130.00016018330501
 20
212.0000812277633
 30
0.0
 40
11.000160183609379
 50
180.00042308547791
 51
233.7780302946903
  0
ARC
  5
5CF6
  8
0
 10
129.99999999999559
 20
212.0
 30
0.0
 40
11.000000000000011
 50
126.2215466198373
 51
180.00000098571019
  0
ARC
  5
5CF7
  8
0
 10
129.99999999999559
 20
212.0
 30
0.0
 40
80.000000000000057
 50
359.0041724440149
 51
0.9958275559867317
  0
ARC
  5
5CF8
  8
0
 10
205.19999999999521
 20
210.9500000000001
 30
0.0
 40
4.8000000000002361
 50
294.76712524052152
 51
355.93374890305103
  0
ARC
  5
5CF9
  8
0
 10
205.19999999999621
 20
213.0500000000003
 30
0.0
 40
4.7999999999994607
 50
4.0662510969801229
 51
65.232874759485625
  0
LINE
  5
5D15
  8
0
 10
277.20943324072567
 20
162.99999999999989
 30
0.0
 11
262.7905667592654
 21
163.0
 31
0.0
  0
LINE
  5
5D16
  8
0
 10
280.99999999999551
 20
148.88794041976141
 30
0.0
 11
280.85031015424943
 21
148.86346446358681
 31
0.0
  0
LINE
  5
5D17
  8
0
 10
259.14968984574199
 20
148.86346446358681
 30
0.0
 11
258.99999999999591
 21
148.88794041976141
 31
0.0
  0
LINE
  5
5D18
  8
0
 10
277.20943324072567
 20
151.33253396044699
 30
0.0
 11
277.20943324072567
 21
163.0
 31
0.0
  0
LINE
  5
5D19
  8
0
 10
262.7905667592654
 20
163.0
 30
0.0
 11
262.79056675926529
 21
151.33253396044699
 31
0.0
  0
LINE
  5
5D22
  8
0
 10
258.99999999999562
 20
161.7841789414334
 30
0.0
 11
258.99999999999562
 21
148.88794041976141
 31
0.0
  0
LINE
  5
5D23
  8
0
 10
280.99999999999562
 20
148.88794041976141
 30
0.0
 11
280.99999999999562
 21
161.78668210800799
 31
0.0
  0
ARC
  5
5D24
  8
0
 10
269.87943606309523
 20
149.47614912088949
 30
0.0
 40
5.7997648822789261
 50
20.955458894538189
 51
51.261116429698447
  0
ARC
  5
5D25
  8
0
 10
276.35476217585972
 20
160.00507672126341
 30
0.0
 40
6.6453466970243467
 50
221.664669116315
 51
244.64225488298069
  0
LINE
  5
5D26
  8
0
 10
271.39036756771242
 20
158.63320158460479
 30
0.0
 11
271.39036756771333
 21
155.58745078663861
 31
0.0
  0
POLYLINE
  5
5D27
  8
0
 66
     1
 10
0.0
 20
0.0
 30
0.0
 70
   128
  0
VERTEX
  5
5EFE
  8
0
 10
275.40848639656741
 20
161.4260449197383
 30
0.0
  0
VERTEX
  5
5EFF
  8
0
 10
275.13672246862251
 20
161.34755069646241
 30
0.0
  0
VERTEX
  5
5F00
  8
0
 10
274.80414632311442
 20
161.19129119056549
 30
0.0
  0
VERTEX
  5
5F01
  8
0
 10
274.33090242081238
 20
160.9150265378334
 30
0.0
  0
VERTEX
  5
5F02
  8
0
 10
273.79679596592928
 20
160.5644191153545
 30
0.0
  0
VERTEX
  5
5F03
  8
0
 10
273.0376316937639
 20
160.0293445955412
 30
0.0
  0
VERTEX
  5
5F04
  8
0
 10
272.22246177276662
 20
159.42563957235021
 30
0.0
  0
VERTEX
  5
5F05
  8
0
 10
271.85955569084939
 20
159.14479308205671
 30
0.0
  0
VERTEX
  5
5F06
  8
0
 10
271.63864427359221
 20
158.9625961480871
 30
0.0
  0
VERTEX
  5
5F07
  8
0
 10
271.5098769486986
 20
158.842450228942
 30
0.0
  0
VERTEX
  5
5F08
  8
0
 10
271.40443108329669
 20
158.6990634269512
 30
0.0
  0
VERTEX
  5
5F09
  8
0
 10
271.39036756771287
 20
158.63320158460479
 30
0.0
  0
SEQEND
  5
5F0A
  8
0
  0
ARC
  5
5D28
  8
0
 10
275.39533771797971
 20
162.28979201282439
 30
0.0
 40
0.8638471673643277
 50
270.87213677460392
 51
301.56855072852051
  0
LINE
  5
5D29
  8
0
 10
275.84757753562161
 20
149.63956961559481
 30
0.0
 11
275.84757753562138
 21
161.5537817711139
 31
0.0
  0
ARC
  5
5D2A
  8
0
 10
269.37076333146058
 20
148.80374104970389
 30
0.0
 40
6.5305230745155383
 50
7.3533417699656143
 51
24.87160420344777
  0
LINE
  5
5D2B
  8
0
 10
268.60963243227968
 20
155.5874507866487
 30
0.0
 11
268.609632432279
 21
158.63320158460479
 31
0.0
  0
LINE
  5
5D2C
  8
0
 10
268.609632432279
 20
158.63320158460479
 30
0.0
 11
271.39036756771242
 21
158.63320158460479
 31
0.0
  0
LINE
  5
5D2D
  8
0
 10
271.39036756771333
 20
155.58745078663861
 30
0.0
 11
268.60963243227968
 21
155.5874507866487
 31
0.0
  0
POLYLINE
  5
5D2E
  8
0
 66
     1
 10
0.0
 20
0.0
 30
0.0
 70
   128
  0
VERTEX
  5
5F0B
  8
0
 10
264.59151360342349
 20
161.4260449197383
 30
0.0
  0
VERTEX
  5
5F0C
  8
0
 10
264.86327753136851
 20
161.34755069646241
 30
0.0
  0
VERTEX
  5
5F0D
  8
0
 10
265.19585367687648
 20
161.19129119056549
 30
0.0
  0
VERTEX
  5
5F0E
  8
0
 10
265.66909757917853
 20
160.9150265378334
 30
0.0
  0
VERTEX
  5
5F0F
  8
0
 10
266.20320403406163
 20
160.56441911535461
 30
0.0
  0
VERTEX
  5
5F10
  8
0
 10
266.96236830622729
 20
160.02934459554129
 30
0.0
  0
VERTEX
  5
5F11
  8
0
 10
267.7775382272248
 20
159.42563957235041
 30
0.0
  0
VERTEX
  5
5F12
  8
0
 10
268.14044430914208
 20
159.14479308205699
 30
0.0
  0
VERTEX
  5
5F13
  8
0
 10
268.36135572640001
 20
158.96259614808719
 30
0.0
  0
VERTEX
  5
5F14
  8
0
 10
268.49012305129412
 20
158.84245022894231
 30
0.0
  0
VERTEX
  5
5F15
  8
0
 10
268.59556891669661
 20
158.69906342695171
 30
0.0
  0
VERTEX
  5
5F16
  8
0
 10
268.60963243228059
 20
158.63320158460471
 30
0.0
  0
SEQEND
  5
5F17
  8
0
  0
LINE
  5
5D2F
  8
0
 10
264.59151360342349
 20
161.4260449197383
 30
0.0
 11
275.40848639656741
 21
161.4260449197383
 31
0.0
  0
POLYLINE
  5
5D30
  8
0
 66
     1
 10
0.0
 20
0.0
 30
0.0
 70
   128
  0
VERTEX
  5
5F18
  8
0
 10
266.49123260546747
 20
154.0
 30
0.0
  0
VERTEX
  5
5F19
  8
0
 10
267.27210893939713
 20
154.5063811473496
 30
0.0
  0
VERTEX
  5
5F1A
  8
0
 10
268.07501282740162
 20
155.06639859735881
 30
0.0
  0
VERTEX
  5
5F1B
  8
0
 10
268.31327241310453
 20
155.24449775798399
 30
0.0
  0
VERTEX
  5
5F1C
  8
0
 10
268.4563522730881
 20
155.36260645444739
 30
0.0
  0
VERTEX
  5
5F1D
  8
0
 10
268.58201314769337
 20
155.5009753793926
 30
0.0
  0
VERTEX
  5
5F1E
  8
0
 10
268.60494456005819
 20
155.5525415011337
 30
0.0
  0
VERTEX
  5
5F1F
  8
0
 10
268.60963243227928
 20
155.5874507866487
 30
0.0
  0
SEQEND
  5
5F20
  8
0
  0
ARC
  5
5D31
  8
0
 10
269.95820790592188
 20
149.59457715089681
 30
0.0
 40
5.6060385490434816
 50
128.20200281759591
 51
159.58142185815959
  0
ARC
  5
5D32
  8
0
 10
271.30918834641318
 20
148.60732271872121
 30
0.0
 40
7.2308250944480603
 50
155.9824355149224
 51
171.7926185116055
  0
LINE
  5
5D33
  8
0
 10
264.15242246436941
 20
161.5537817711139
 30
0.0
 11
264.15242246436941
 21
149.6395696155991
 31
0.0
  0
ARC
  5
5D34
  8
0
 10
264.5983399664658
 20
162.26805926534931
 30
0.0
 40
0.8420420164380715
 50
238.023809598539
 51
269.53550289835158
  0
LINE
  5
5D35
  8
0
 10
275.29559716314827
 20
151.55038913303559
 30
0.0
 11
264.70440283684269
 21
151.55038913303559
 31
0.0
  0
ARC
  5
5D36
  8
0
 10
280.49155333275172
 20
149.57680046086551
 30
0.0
 40
4.6443999796653683
 50
179.22562286658689
 51
193.40596688450529
  0
ARC
  5
5D37
  8
0
 10
260.78426866121589
 20
149.43559239466589
 30
0.0
 40
3.3743246358874992
 50
343.90277945850181
 51
3.465630790437451
  0
ARC
  5
5D38
  8
0
 10
262.13722983594658
 20
161.0247140040465
 30
0.0
 40
2.083486028702755
 50
14.710423880985431
 51
71.451555633835625
  0
ARC
  5
5D39
  8
0
 10
260.29242177462692
 20
182.3634559006305
 30
0.0
 40
19.76903186448547
 50
270.22519549980291
 51
277.25968100870239
  0
ARC
  5
5D3A
  8
0
 10
279.79337809798642
 20
183.73981944382001
 30
0.0
 40
21.145874811508481
 50
262.98113335925649
 51
269.55698453905569
  0
ARC
  5
5D3B
  8
0
 10
277.80873624350772
 20
161.07524443565919
 30
0.0
 40
2.0186979612964562
 50
107.5506602140937
 51
166.2873602710718
  0
LINE
  5
5D3C
  8
0
 10
276.06073279540573
 20
148.49999999999989
 30
0.0
 11
263.93926720458501
 21
148.49999999999989
 31
0.0
  0
POLYLINE
  5
5D3D
  8
0
 66
     1
 10
0.0
 20
0.0
 30
0.0
 70
   128
  0
VERTEX
  5
5F21
  8
0
 10
277.1999999999955
 20
151.3589611284454
 30
0.0
  0
VERTEX
  5
5F22
  8
0
 10
276.99266282633857
 20
151.62302211834671
 30
0.0
  0
VERTEX
  5
5F23
  8
0
 10
276.78499940285582
 20
151.69899920481839
 30
0.0
  0
VERTEX
  5
5F24
  8
0
 10
276.5768231865589
 20
151.5823926495857
 30
0.0
  0
VERTEX
  5
5F25
  8
0
 10
276.36866558218549
 20
151.27043032457851
 30
0.0
  0
SEQEND
  5
5F26
  8
0
  0
ARC
  5
5D3E
  8
0
 10
283.39764867757879
 20
149.9560664434145
 30
0.0
 40
7.1508150421776842
 50
169.4084628912054
 51
178.28215582313021
  0
ARC
  5
5D3F
  8
0
 10
271.5233874347694
 20
149.86017318207811
 30
0.0
 40
4.7368316422407037
 50
343.3126939506958
 51
3.7554976029064759
  0
LINE
  5
5D40
  8
0
 10
258.99999999999591
 20
148.88794041976141
 30
0.0
 11
260.2020410288635
 21
148.88794041976149
 31
0.0
  0
POLYLINE
  5
5D41
  8
0
 66
     1
 10
0.0
 20
0.0
 30
0.0
 70
   128
  0
VERTEX
  5
5F27
  8
0
 10
277.1999999999955
 20
151.35896112844529
 30
0.0
  0
VERTEX
  5
5F28
  8
0
 10
277.20943324072567
 20
151.33253396044699
 30
0.0
  0
VERTEX
  5
5F29
  8
0
 10
277.19597337214958
 20
151.30478271374329
 30
0.0
  0
VERTEX
  5
5F2A
  8
0
 10
277.15954346537887
 20
151.2755868206178
 30
0.0
  0
VERTEX
  5
5F2B
  8
0
 10
277.09999999999548
 20
151.24510155377561
 30
0.0
  0
SEQEND
  5
5F2C
  8
0
  0
POLYLINE
  5
5D42
  8
0
 66
     1
 10
0.0
 20
0.0
 30
0.0
 70
   128
  0
VERTEX
  5
5F2D
  8
0
 10
279.79795897112848
 20
148.88794041976149
 30
0.0
  0
VERTEX
  5
5F2E
  8
0
 10
278.86323136884829
 20
148.99757948021181
 30
0.0
  0
VERTEX
  5
5F2F
  8
0
 10
278.07525134837778
 20
149.21399638779849
 30
0.0
  0
VERTEX
  5
5F30
  8
0
 10
277.43367267365528
 20
149.49766556236241
 30
0.0
  0
VERTEX
  5
5F31
  8
0
 10
276.94811625157638
 20
149.810246613961
 30
0.0
  0
VERTEX
  5
5F32
  8
0
 10
276.54928711909628
 20
150.22695183548629
 30
0.0
  0
VERTEX
  5
5F33
  8
0
 10
276.43482108699362
 20
150.61560818728179
 30
0.0
  0
VERTEX
  5
5F34
  8
0
 10
276.61540686395119
 20
150.96045520718209
 30
0.0
  0
VERTEX
  5
5F35
  8
0
 10
277.09999999999559
 20
151.24510155377561
 30
0.0
  0
SEQEND
  5
5F36
  8
0
  0
LINE
  5
5D43
  8
0
 10
279.79795897112848
 20
148.88794041976141
 30
0.0
 11
280.99999999999551
 21
148.88794041976141
 31
0.0
  0
LINE
  5
5D44
  8
0
 10
280.85031015424943
 20
148.86346446358681
 30
0.0
 11
276.15416984570351
 21
148.86346446358689
 31
0.0
  0
LINE
  5
5D45
  8
0
 10
263.84583015428751
 20
148.86346446358689
 30
0.0
 11
259.14968984574188
 21
148.86346446358681
 31
0.0
  0
LINE
  5
5D46
  8
0
 10
279.79795897112848
 20
162.29663472427961
 30
0.0
 11
279.79795897112848
 21
148.88794041976141
 31
0.0
  0
LINE
  5
5D47
  8
0
 10
279.62987816461049
 20
162.59457673261491
 30
0.0
 11
279.62987816461049
 21
162.3647365276596
 31
0.0
  0
LINE
  5
5D48
  8
0
 10
279.62987816461049
 20
162.3647365276596
 30
0.0
 11
279.79795897112848
 21
162.29663472427961
 31
0.0
  0
LINE
  5
5D49
  8
0
 10
260.37012183538093
 20
162.3647365276596
 30
0.0
 11
260.37012183538093
 21
162.59457673261511
 31
0.0
  0
LINE
  5
5D4A
  8
0
 10
260.2020410288635
 20
148.88794041976149
 30
0.0
 11
260.20204102886299
 21
162.29663472427961
 31
0.0
  0
LINE
  5
5D4B
  8
0
 10
260.37012183538093
 20
162.3647365276596
 30
0.0
 11
260.20204102886299
 21
162.29663472427961
 31
0.0
  0
ARC
  5
5D50
  8
0
 10
279.62632326283932
 20
160.2203823773765
 30
0.0
 40
2.0833344965176699
 50
48.748578670780411
 51
85.274325739405469
  0
ARC
  5
5D51
  8
0
 10
260.49657584222211
 20
159.93974901288061
 30
0.0
 40
2.3752180979601509
 50
97.123199589317011
 51
129.05597605130731
  0
POLYLINE
  5
5D52
  8
0
 66
     1
 10
0.0
 20
0.0
 30
0.0
 70
   128
  0
VERTEX
  5
5F37
  8
0
 10
262.79999999999552
 20
151.3589611284454
 30
0.0
  0
VERTEX
  5
5F38
  8
0
 10
263.00733717365239
 20
151.62302211834671
 30
0.0
  0
VERTEX
  5
5F39
  8
0
 10
263.2150005971352
 20
151.69899920481839
 30
0.0
  0
VERTEX
  5
5F3A
  8
0
 10
263.42317681343212
 20
151.5823926495857
 30
0.0
  0
VERTEX
  5
5F3B
  8
0
 10
263.63133441780548
 20
151.27043032457851
 30
0.0
  0
SEQEND
  5
5F3C
  8
0
  0
ARC
  5
5D53
  8
0
 10
256.60235132241218
 20
149.9560664434145
 30
0.0
 40
7.1508150421776842
 50
1.7178441768696899
 51
10.59153710879457
  0
ARC
  5
5D54
  8
0
 10
268.47661256522161
 20
149.86017318207811
 30
0.0
 40
4.7368316422407037
 50
176.2445023970935
 51
196.6873060493042
  0
POLYLINE
  5
5D55
  8
0
 66
     1
 10
0.0
 20
0.0
 30
0.0
 70
   128
  0
VERTEX
  5
5F3D
  8
0
 10
262.79999999999552
 20
151.35896112844529
 30
0.0
  0
VERTEX
  5
5F3E
  8
0
 10
262.79056675926529
 20
151.33253396044699
 30
0.0
  0
VERTEX
  5
5F3F
  8
0
 10
262.80402662784138
 20
151.30478271374329
 30
0.0
  0
VERTEX
  5
5F40
  8
0
 10
262.84045653461209
 20
151.2755868206178
 30
0.0
  0
VERTEX
  5
5F41
  8
0
 10
262.89999999999549
 20
151.24510155377561
 30
0.0
  0
SEQEND
  5
5F42
  8
0
  0
POLYLINE
  5
5D56
  8
0
 66
     1
 10
0.0
 20
0.0
 30
0.0
 70
   128
  0
VERTEX
  5
5F43
  8
0
 10
260.20204102886248
 20
148.88794041976149
 30
0.0
  0
VERTEX
  5
5F44
  8
0
 10
261.13676863114267
 20
148.99757948021181
 30
0.0
  0
VERTEX
  5
5F45
  8
0
 10
261.92474865161319
 20
149.21399638779849
 30
0.0
  0
VERTEX
  5
5F46
  8
0
 10
262.5663273263358
 20
149.49766556236241
 30
0.0
  0
VERTEX
  5
5F47
  8
0
 10
263.05188374841458
 20
149.810246613961
 30
0.0
  0
VERTEX
  5
5F48
  8
0
 10
263.4507128808948
 20
150.22695183548629
 30
0.0
  0
VERTEX
  5
5F49
  8
0
 10
263.5651789129974
 20
150.61560818728179
 30
0.0
  0
VERTEX
  5
5F4A
  8
0
 10
263.38459313603983
 20
150.96045520718209
 30
0.0
  0
VERTEX
  5
5F4B
  8
0
 10
262.89999999999537
 20
151.24510155377561
 30
0.0
  0
SEQEND
  5
5F4C
  8
0
  0
ARC
  5
5D74
  8
0
 10
129.99999999999559
 20
49.999999999999893
 30
0.0
 40
11.00000000000019
 50
62.964308210577713
 51
170.5514842655553
  0
ARC
  5
5D75
  8
0
 10
152.84427398356351
 20
105.4332729943691
 30
0.0
 40
49.000000000000412
 50
248.64355831468029
 51
279.46253041531838
  0
LINE
  5
5D76
  8
0
 10
160.89999999999469
 20
57.099999999999717
 30
0.0
 11
162.79999999999561
 21
57.199999999999882
 31
0.0
  0
LINE
  5
5D77
  8
0
 10
188.95701907919221
 20
56.368665582189898
 30
0.0
 11
162.79999999999561
 21
57.199999999999882
 31
0.0
  0
LINE
  5
5D78
  8
0
 10
162.79999999999561
 20
42.799999999999883
 30
0.0
 11
188.95701907919221
 21
43.631334417809853
 31
0.0
  0
ARC
  5
5D79
  8
0
 10
162.36792456627299
 20
52.690566759270673
 30
0.0
 40
9.9000000000009472
 50
261.47301441055129
 51
272.5014105810863
  0
ARC
  5
5D7A
  8
0
 10
152.8442739835634
 20
-5.4332729943691538
 30
0.0
 40
49.000000000000249
 50
80.537469584681531
 51
111.3564416853232
  0
ARC
  5
5D7B
  8
0
 10
129.99999999999559
 20
49.999999999999893
 30
0.0
 40
11.0
 50
189.44851573444549
 51
297.03569178941137
  0
ARC
  5
5D7C
  8
0
 10
205.1999999999955
 20
51.049999999999869
 30
0.0
 40
4.800000000000038
 50
62.189981218984542
 51
88.179611942728584
  0
ARC
  5
5D7D
  8
0
 10
205.19999999999601
 20
48.94999999999893
 30
0.0
 40
4.799999999999053
 50
271.82038805718668
 51
297.8100187810154
  0
LINE
  5
5D7E
  8
0
 10
205.35247881707329
 20
55.84757753562581
 30
0.0
 11
201.3840118455488
 21
55.973705179199477
 31
0.0
  0
LINE
  5
5D7F
  8
0
 10
201.38401184554871
 20
44.026294820800302
 30
0.0
 11
205.35247881706661
 21
44.1524224643737
 31
0.0
  0
ARC
  5
5D80
  8
0
 10
129.99999999999559
 20
50.000000000001911
 30
0.0
 40
10.999999999999959
 50
170.55148426556519
 51
179.29115390220039
  0
ARC
  5
5D81
  8
0
 10
129.99999999999559
 20
50.000000000001911
 30
0.0
 40
11.00000000000032
 50
180.70884609782149
 51
189.44851573445581
  0
LINE
  5
5D82
  8
0
 10
201.3840118455488
 20
55.973705179199477
 30
0.0
 11
188.95701907919221
 21
56.368665582189919
 31
0.0
  0
ARC
  5
5D83
  8
0
 10
205.1999999999957
 20
51.050000000000068
 30
0.0
 40
4.7999999999997884
 50
30.81336449792208
 51
62.189981218984542
  0
ARC
  5
5D84
  8
0
 10
205.1999999999955
 20
48.950000000000038
 30
0.0
 40
4.8000000000002334
 50
297.8100187810154
 51
329.18663550207242
  0
ARC
  5
5D85
  8
0
 10
129.99999999999559
 20
49.999999999999851
 30
0.0
 40
80.000000000000028
 50
359.00417244401331
 51
0.9958275559859176
  0
ARC
  5
5D86
  8
0
 10
205.19999999996909
 20
51.049999999991513
 30
0.0
 40
4.80000000002698
 50
4.0662510970432972
 51
30.813364497846472
  0
ARC
  5
5D87
  8
0
 10
205.19999999999879
 20
48.949999999999001
 30
0.0
 40
4.7999999999969276
 50
329.18663550206549
 51
355.93374890300771
  0
LINE
  5
5D88
  8
0
 10
118.99999999999569
 20
50.000000189242513
 30
0.0
 11
119.0008418133114
 21
50.136085209692538
 31
0.0
  0
LINE
  5
5D89
  8
0
 10
119.0008418133114
 20
49.863914790307177
 30
0.0
 11
118.99999999999569
 21
49.999999999999851
 31
0.0
  0
LINE
  5
5D8A
  8
0
 10
201.3840118455488
 20
44.026294820800231
 30
0.0
 11
188.95701907919221
 21
43.631334417809803
 31
0.0
  0
ENDSEC
  0
EOF
