  0
SECTION
  2
HEADER
  9
$ACADVER
  1
AC1009
  9
$INSBASE
 10
0.0
 20
0.0
 30
0.0
  9
$EXTMIN
 10
0.0
 20
-2.960436562073669
 30
0.0
  9
$EXTMAX
 10
209.5500000000003
 20
233.05000000000001
 30
0.0
  9
$LIMMIN
 10
0.0
 20
0.0
  9
$LIMMAX
 10
187.5
 20
135.0
  9
$ORTHOMODE
 70
     1
  9
$REGENMODE
 70
     1
  9
$FILLMODE
 70
     1
  9
$QTEXTMODE
 70
     0
  9
$MIRRTEXT
 70
     0
  9
$DRAGMODE
 70
     2
  9
$LTSCALE
 40
5.0
  9
$OSMODE
 70
    37
  9
$ATTMODE
 70
     1
  9
$TEXTSIZE
 40
4.0
  9
$TRACEWID
 40
0.05
  9
$TEXTSTYLE
  7
STANDARD
  9
$CLAYER
  8
0
  9
$CELTYPE
  6
BYLAYER
  9
$CECOLOR
 62
   256
  9
$DIMSCALE
 40
0.5
  9
$DIMASZ
 40
3.0
  9
$DIMEXO
 40
2.0
  9
$DIMDLI
 40
0.38
  9
$DIMRND
 40
0.0
  9
$DIMDLE
 40
0.0
  9
$DIMEXE
 40
2.0
  9
$DIMTP
 40
0.0
  9
$DIMTM
 40
0.0
  9
$DIMTXT
 40
3.0
  9
$DIMCEN
 40
0.0
  9
$DIMTSZ
 40
0.0
  9
$DIMTOL
 70
     0
  9
$DIMLIM
 70
     0
  9
$DIMTIH
 70
     0
  9
$DIMTOH
 70
     0
  9
$DIMSE1
 70
     0
  9
$DIMSE2
 70
     0
  9
$DIMTAD
 70
     1
  9
$DIMZIN
 70
     0
  9
$DIMBLK
  1

  9
$DIMASO
 70
     0
  9
$DIMSHO
 70
     0
  9
$DIMPOST
  1

  9
$DIMAPOST
  1

  9
$DIMALT
 70
     0
  9
$DIMALTD
 70
     2
  9
$DIMALTF
 40
25.399999999999999
  9
$DIMLFAC
 40
1.0
  9
$DIMTOFL
 70
     0
  9
$DIMTVP
 40
1.6000000000000001
  9
$DIMTIX
 70
     1
  9
$DIMSOXD
 70
     0
  9
$DIMSAH
 70
     0
  9
$DIMBLK1
  1

  9
$DIMBLK2
  1

  9
$DIMSTYLE
  2
STANDARD
  9
$DIMCLRD
 70
     0
  9
$DIMCLRE
 70
     0
  9
$DIMCLRT
 70
     0
  9
$DIMTFAC
 40
1.0
  9
$DIMGAP
 40
0.09
  9
$LUNITS
 70
     2
  9
$LUPREC
 70
     1
  9
$SKETCHINC
 40
0.1
  9
$FILLETRAD
 40
1.25
  9
$AUNITS
 70
     0
  9
$AUPREC
 70
     0
  9
$MENU
  1
E:\r13\win\SUPPORT\ACAD
  9
$ELEVATION
 40
0.0
  9
$PELEVATION
 40
0.0
  9
$THICKNESS
 40
0.0
  9
$LIMCHECK
 70
     0
  9
$BLIPMODE
 70
     0
  9
$CHAMFERA
 40
0.0
  9
$CHAMFERB
 40
0.0
  9
$SKPOLY
 70
     0
  9
$TDCREATE
 40
2449840.6143865739
  9
$TDUPDATE
 40
2456800.6047256128
  9
$TDINDWG
 40
0.3627165046
  9
$TDUSRTIMER
 40
0.3627165046
  9
$USRTIMER
 70
     1
  9
$ANGBASE
 50
0.0
  9
$ANGDIR
 70
     0
  9
$PDMODE
 70
     0
  9
$PDSIZE
 40
0.0
  9
$PLINEWID
 40
0.0
  9
$COORDS
 70
     1
  9
$SPLFRAME
 70
     0
  9
$SPLINETYPE
 70
     6
  9
$SPLINESEGS
 70
     8
  9
$ATTDIA
 70
     0
  9
$ATTREQ
 70
     1
  9
$HANDLING
 70
     1
  9
$HANDSEED
  5
48E4
  9
$SURFTAB1
 70
     6
  9
$SURFTAB2
 70
     6
  9
$SURFTYPE
 70
     6
  9
$SURFU
 70
     6
  9
$SURFV
 70
     6
  9
$UCSNAME
  2

  9
$UCSORG
 10
0.0
 20
0.0
 30
0.0
  9
$UCSXDIR
 10
1.0
 20
0.0
 30
0.0
  9
$UCSYDIR
 10
0.0
 20
1.0
 30
0.0
  9
$PUCSNAME
  2

  9
$PUCSORG
 10
0.0
 20
0.0
 30
0.0
  9
$PUCSXDIR
 10
1.0
 20
0.0
 30
0.0
  9
$PUCSYDIR
 10
0.0
 20
1.0
 30
0.0
  9
$USERI1
 70
     0
  9
$USERI2
 70
     1
  9
$USERI3
 70
     1
  9
$USERI4
 70
     0
  9
$USERI5
 70
     0
  9
$USERR1
 40
0.0
  9
$USERR2
 40
0.0
  9
$USERR3
 40
0.0
  9
$USERR4
 40
0.0
  9
$USERR5
 40
0.0
  9
$WORLDVIEW
 70
     1
  9
$SHADEDGE
 70
     3
  9
$SHADEDIF
 70
    70
  9
$TILEMODE
 70
     1
  9
$MAXACTVP
 70
    16
  9
$PLIMCHECK
 70
     0
  9
$PEXTMIN
 10
1.0000000000000000E+020
 20
1.0000000000000000E+020
 30
1.0000000000000000E+020
  9
$PEXTMAX
 10
-1.0000000000000000E+020
 20
-1.0000000000000000E+020
 30
-1.0000000000000000E+020
  9
$PLIMMIN
 10
0.0
 20
0.0
  9
$PLIMMAX
 10
12.0
 20
9.0
  9
$UNITMODE
 70
     0
  9
$VISRETAIN
 70
     0
  9
$PLINEGEN
 70
     0
  9
$PSLTSCALE
 70
     0
  0
ENDSEC
  0
SECTION
  2
TABLES
  0
TABLE
  2
VPORT
 70
     1
  0
VPORT
  2
*ACTIVE
 70
     0
 10
0.0
 20
0.0
 11
1.0
 21
1.0
 12
235.65372313246411
 22
135.0
 13
0.0
 23
0.0
 14
5.0
 24
5.0
 15
5.0
 25
5.0
 16
0.0
 26
0.0
 36
1.0
 17
0.0
 27
0.0
 37
0.0
 40
270.14075884266219
 41
1.7454798331015291
 42
50.0
 43
0.0
 44
0.0
 50
0.0
 51
0.0
 71
     0
 72
   100
 73
     1
 74
     0
 75
     0
 76
     0
 77
     0
 78
     0
  0
ENDTAB
  0
TABLE
  2
LTYPE
 70
     3
  0
LTYPE
  2
CONTINUOUS
 70
     0
  3
Solid Line
 72
    65
 73
     0
 40
0.0
  0
LTYPE
  2
CENTER
 70
     0
  3
____ _ ____ _ ____ _ ____ _ ____ _ ____ _ ____
 72
    65
 73
     4
 40
2.0
 49
1.25
 49
-0.25
 49
0.25
 49
-0.25
  0
LTYPE
  2
PHANTOM2
 70
     0
  3
___ _ _ ___ _ _ ___ _ _ ___ _ _
 72
    65
 73
     6
 40
1.25
 49
0.625
 49
-0.125
 49
0.125
 49
-0.125
 49
0.125
 49
-0.125
  0
ENDTAB
  0
TABLE
  2
LAYER
 70
     3
  0
LAYER
  2
0
 70
     0
 62
     7
  6
CONTINUOUS
  0
LAYER
  2
1
 70
     0
 62
     1
  6
CENTER
  0
LAYER
  2
3
 70
     0
 62
     3
  6
CONTINUOUS
  0
ENDTAB
  0
TABLE
  2
STYLE
 70
     2
  0
STYLE
  2
STANDARD
 70
     0
 40
0.0
 41
1.0
 50
0.0
 71
     0
 42
4.0
  3
TXT
  4
BIGFONT
  0
STYLE
  2
STANDARD1
 70
     0
 40
0.0
 41
1.0
 50
0.0
 71
     0
 42
3.0
  3
txt
  4

  0
ENDTAB
  0
TABLE
  2
VIEW
 70
     1
  0
VIEW
  2
ALL
 70
     0
 40
179.66152299999999
 10
141.903918
 20
89.830760999999995
 41
0.0
 11
0.0
 21
0.0
 31
1.0
 12
0.0
 22
0.0
 32
0.0
 42
0.0
 43
0.0
 44
0.0
 50
0.0
 71
     0
  0
ENDTAB
  0
TABLE
  2
UCS
 70
     0
  0
ENDTAB
  0
TABLE
  2
APPID
 70
     5
  0
APPID
  2
ACAD
 70
     0
  0
APPID
  2
DCO15
 70
     0
  0
APPID
  2
ACAD_MLEADERVER
 70
     0
  0
APPID
  2
ACAD_NAV_VCDISPLAY
 70
     0
  0
APPID
  2
ACAD_EXEMPT_FROM_CAD_STANDARDS
 70
     0
  0
ENDTAB
  0
TABLE
  2
DIMSTYLE
 70
     1
  0
DIMSTYLE
  2
STANDARD
 70
     0
  3

  4

  5

  6

  7

 40
1.0
 41
0.18
 42
0.0625
 43
0.38
 44
0.18
 45
0.0
 46
0.0
 47
0.0
 48
0.0
140
0.18
141
0.09
142
0.0
143
25.399999999999999
144
1.0
145
0.0
146
1.0
147
0.09
 71
     0
 72
     0
 73
     1
 74
     1
 75
     0
 76
     0
 77
     0
 78
     0
170
     0
171
     2
172
     0
173
     0
174
     0
175
     0
176
     0
177
     0
178
     0
  0
ENDTAB
  0
ENDSEC
  0
SECTION
  2
BLOCKS
  0
BLOCK
  8
0
  2
$MODEL_SPACE
 70
     0
 10
0.0
 20
0.0
 30
0.0
  3
$MODEL_SPACE
  1

  0
ENDBLK
  5
1BD
  8
0
  0
BLOCK
 67
     1
  8
0
  2
$PAPER_SPACE
 70
     0
 10
0.0
 20
0.0
 30
0.0
  3
$PAPER_SPACE
  1

  0
ENDBLK
  5
1BB
 67
     1
  8
0
  0
ENDSEC
  0
SECTION
  2
ENTITIES
  0
TEXT
  5
DC5
  8
0
 62
     3
 10
0.0
 20
0.0
 30
0.0
 40
10.0
  1
HKR8X40-OG
  7
STANDARD1
  0
LINE
  5
F83
  8
1
 10
100.0
 20
173.49999999999989
 30
0.0
 11
100.0
 21
94.999999999999986
 31
0.0
  0
LINE
  5
F84
  8
0
 10
165.0
 20
163.40000000000001
 30
0.0
 11
165.0
 21
165.5534224723346
 31
0.0
  0
ARC
  5
F85
  8
0
 10
162.4999999999996
 20
163.40000000000009
 30
0.0
 40
2.5000000000003371
 50
323.13010235418488
 51
0.0
  0
ARC
  5
F87
  8
0
 10
99.999999999996319
 20
160.99999999999011
 30
0.0
 40
8.0000000000105551
 50
68.984897038977834
 51
69.63586519368198
  0
ARC
  5
F88
  8
0
 10
100.00000000000711
 20
160.99999999998499
 30
0.0
 40
8.0000000000164402
 50
110.3641348063275
 51
116.230972132389
  0
LINE
  5
F89
  8
0
 10
102.783882181415
 20
168.5
 30
0.0
 11
97.21611781858509
 21
168.5
 31
0.0
  0
LINE
  5
F96
  8
0
 10
163.1001621460594
 20
159.97328848624511
 30
0.0
 11
164.50000000000071
 21
161.90000000000089
 31
0.0
  0
ARC
  5
FA8
  8
0
 10
162.60000000000011
 20
165.55342247233469
 30
0.0
 40
2.3999999999999351
 50
0.0
 51
85.943534391419945
  0
LINE
  5
FAF
  8
0
 10
158.2460601798098
 20
157.5
 30
0.0
 11
155.56124767773159
 21
157.5
 31
0.0
  0
ARC
  5
FB0
  8
0
 10
158.2460601798098
 20
163.49999999999989
 30
0.0
 40
5.999999999999968
 50
273.13632042633202
 51
323.99999999999892
  0
ARC
  5
FB1
  8
0
 10
158.2460601798098
 20
163.50000000002939
 30
0.0
 40
6.000000000029444
 50
269.9999999999992
 51
273.1363204263165
  0
POLYLINE
  5
FB3
  8
0
 66
     1
 10
0.0
 20
0.0
 30
0.0
 70
     8
  0
VERTEX
  5
FB4
  8
0
 10
150.8846596460923
 20
158.75394355696619
 30
0.0
 70
    32
  0
VERTEX
  5
FB5
  8
0
 10
150.35690187716659
 20
159.0227765927917
 30
0.0
 70
    32
  0
VERTEX
  5
FB6
  8
0
 10
149.80864115487651
 20
159.2467021405439
 30
0.0
 70
    32
  0
VERTEX
  5
FB7
  8
0
 10
149.22697371124781
 20
159.42858523195201
 30
0.0
 70
    32
  0
VERTEX
  5
FB8
  8
0
 10
148.63194723640419
 20
159.56017264915059
 30
0.0
 70
    32
  0
VERTEX
  5
FB9
  8
0
 10
147.85399924873329
 20
159.6539435569662
 30
0.0
 70
    32
  0
SEQEND
  5
FBA
  8
0
  0
POLYLINE
  5
FBB
  8
0
 66
     1
 10
0.0
 20
0.0
 30
0.0
 70
     8
  0
VERTEX
  5
FBC
  8
0
 10
150.8846596460923
 20
158.75394355696619
 30
0.0
 70
    32
  0
VERTEX
  5
FBD
  8
0
 10
151.57364356660969
 20
158.39319578896999
 30
0.0
 70
    32
  0
VERTEX
  5
FBE
  8
0
 10
152.2901479828692
 20
158.0909731693009
 30
0.0
 70
    32
  0
VERTEX
  5
FBF
  8
0
 10
153.05106280020669
 20
157.8433976637111
 30
0.0
 70
    32
  0
VERTEX
  5
FC0
  8
0
 10
153.8302771355398
 20
157.66168134011519
 30
0.0
 70
    32
  0
VERTEX
  5
FC1
  8
0
 10
154.68825455201949
 20
157.54086630056909
 30
0.0
 70
    32
  0
VERTEX
  5
FC2
  8
0
 10
155.56124767773159
 20
157.5
 30
0.0
 70
    32
  0
SEQEND
  5
FC3
  8
0
  0
LINE
  5
FD2
  8
0
 10
106.45
 20
139.99999999999989
 30
0.0
 11
106.75
 21
140.30000000000001
 31
0.0
  0
LINE
  5
FD3
  8
0
 10
93.249999999999986
 20
140.30000000000001
 30
0.0
 11
93.549999999999983
 21
139.99999999999989
 31
0.0
  0
LINE
  5
FD4
  8
0
 10
106.45
 20
139.99999999999989
 30
0.0
 11
93.549999999999983
 21
139.99999999999989
 31
0.0
  0
LINE
  5
FD5
  8
0
 10
93.249999999999986
 20
146.49999999999989
 30
0.0
 11
93.249999999999986
 21
140.30000000000001
 31
0.0
  0
LINE
  5
FD6
  8
0
 10
106.75
 20
140.30000000000001
 30
0.0
 11
106.75
 21
146.49999999999989
 31
0.0
  0
LINE
  5
FD7
  8
0
 10
106.75
 20
140.30000000000001
 30
0.0
 11
93.249999999999986
 21
140.30000000000001
 31
0.0
  0
LINE
  5
FD8
  8
0
 10
104.3763951615144
 20
168.66963233037609
 30
0.0
 11
104.2000000000012
 21
168.64238051648931
 31
0.0
  0
LINE
  5
FD9
  8
0
 10
104.3763951615144
 20
168.88134928423861
 30
0.0
 11
104.3763951615144
 21
168.66963233037609
 31
0.0
  0
LINE
  5
FDB
  8
0
 10
108.75
 20
146.49999999999989
 30
0.0
 11
109.25
 21
146.99999999999989
 31
0.0
  0
LINE
  5
FDC
  8
0
 10
90.749999999999986
 20
146.99999999999989
 30
0.0
 11
91.249999999999986
 21
146.49999999999989
 31
0.0
  0
LINE
  5
FDD
  8
0
 10
108.75
 20
146.49999999999989
 30
0.0
 11
91.249999999999986
 21
146.49999999999989
 31
0.0
  0
LINE
  5
FDE
  8
0
 10
109.25
 20
146.99999999999989
 30
0.0
 11
109.42922749272969
 21
157.79851952158299
 31
0.0
  0
LINE
  5
FDF
  8
0
 10
90.570452236937598
 20
157.8178159218545
 30
0.0
 11
90.749999999999986
 21
146.99999999999989
 31
0.0
  0
LINE
  5
FE0
  8
0
 10
109.25
 20
146.99999999999989
 30
0.0
 11
90.749999999999986
 21
146.99999999999989
 31
0.0
  0
LINE
  5
FE1
  8
0
 10
90.570452236937584
 20
157.81781592185459
 30
0.0
 11
90.449999999999989
 21
165.09999999999999
 31
0.0
  0
POLYLINE
  5
FE3
  8
0
 66
     1
 10
0.0
 20
0.0
 30
0.0
 70
     8
  0
VERTEX
  5
FE4
  8
0
 10
95.299999999999926
 20
168.2167956159247
 30
0.0
 70
    32
  0
VERTEX
  5
FE5
  8
0
 10
95.992832232932869
 20
168.1838013115057
 30
0.0
 70
    32
  0
VERTEX
  5
FE6
  8
0
 10
96.712595287327403
 20
168.16129890766999
 30
0.0
 70
    32
  0
VERTEX
  5
FE7
  8
0
 10
97.476220963512233
 20
168.15060417433151
 30
0.0
 70
    32
  0
VERTEX
  5
FE8
  8
0
 10
98.257656637781011
 20
168.15360363744909
 30
0.0
 70
    32
  0
VERTEX
  5
FE9
  8
0
 10
99.028908045272445
 20
168.17049191735771
 30
0.0
 70
    32
  0
VERTEX
  5
FEA
  8
0
 10
99.806180876739376
 20
168.20143271390029
 30
0.0
 70
    32
  0
VERTEX
  5
FEB
  8
0
 10
100.6067708906112
 20
168.248044110618
 30
0.0
 70
    32
  0
VERTEX
  5
FEC
  8
0
 10
101.402148123674
 20
168.30911027589241
 30
0.0
 70
    32
  0
VERTEX
  5
FED
  8
0
 10
102.1175053999264
 20
168.37673452259591
 30
0.0
 70
    32
  0
VERTEX
  5
FEE
  8
0
 10
102.8195911581649
 20
168.4547868907944
 30
0.0
 70
    32
  0
VERTEX
  5
FEF
  8
0
 10
103.5209183432905
 20
168.5444378954781
 30
0.0
 70
    32
  0
VERTEX
  5
FF0
  8
0
 10
104.2000000000012
 20
168.64238051648931
 30
0.0
 70
    32
  0
SEQEND
  5
FF1
  8
0
  0
LINE
  5
FF2
  8
0
 10
93.300000000000736
 20
168.09624765331569
 30
0.0
 11
95.299999999999883
 21
168.2167956159247
 31
0.0
  0
POLYLINE
  5
FF3
  8
0
 66
     1
 10
0.0
 20
0.0
 30
0.0
 70
     8
  0
VERTEX
  5
FF4
  8
0
 10
93.300000000000736
 20
168.09624765331569
 30
0.0
 70
    32
  0
VERTEX
  5
FF5
  8
0
 10
92.957275878821747
 20
168.05925695463739
 30
0.0
 70
    32
  0
VERTEX
  5
FF6
  8
0
 10
92.635697873725803
 20
167.9873711308291
 30
0.0
 70
    32
  0
VERTEX
  5
FF7
  8
0
 10
92.32878300153611
 20
167.88260711540801
 30
0.0
 70
    32
  0
VERTEX
  5
FF8
  8
0
 10
92.046156414484045
 20
167.7512682224561
 30
0.0
 70
    32
  0
VERTEX
  5
FF9
  8
0
 10
91.681382610454364
 20
167.5232463082877
 30
0.0
 70
    32
  0
VERTEX
  5
FFA
  8
0
 10
91.366494528426884
 20
167.25847282816451
 30
0.0
 70
    32
  0
VERTEX
  5
FFB
  8
0
 10
91.09377232799126
 20
166.95695151155641
 30
0.0
 70
    32
  0
VERTEX
  5
FFC
  8
0
 10
90.870789001859634
 20
166.6322110256331
 30
0.0
 70
    32
  0
VERTEX
  5
FFD
  8
0
 10
90.689714922639652
 20
166.27509924938599
 30
0.0
 70
    32
  0
VERTEX
  5
FFE
  8
0
 10
90.559868549339939
 20
165.90445024576141
 30
0.0
 70
    32
  0
VERTEX
  5
FFF
  8
0
 10
90.479297235409902
 20
165.518244776317
 30
0.0
 70
    32
  0
VERTEX
  5
1000
  8
0
 10
90.450125641863295
 20
165.1274560630898
 30
0.0
 70
    32
  0
VERTEX
  5
1001
  8
0
 10
90.450015219141946
 20
165.10955586836241
 30
0.0
 70
    32
  0
VERTEX
  5
1002
  8
0
 10
90.449999999999989
 20
165.09999999999999
 30
0.0
 70
    32
  0
SEQEND
  5
1003
  8
0
  0
POLYLINE
  5
1004
  8
0
 66
     1
 10
0.0
 20
0.0
 30
0.0
 70
     8
  0
VERTEX
  5
1005
  8
0
 10
147.85399924873329
 20
159.6539435569662
 30
0.0
 70
    32
  0
VERTEX
  5
1006
  8
0
 10
144.22115365082951
 20
159.8429947637359
 30
0.0
 70
    32
  0
VERTEX
  5
1007
  8
0
 10
140.58484562599551
 20
159.95813062653721
 30
0.0
 70
    32
  0
VERTEX
  5
1008
  8
0
 10
136.9473254957303
 20
159.99981966976929
 30
0.0
 70
    32
  0
VERTEX
  5
1009
  8
0
 10
136.9473254957303
 20
159.99981966976929
 30
0.0
 70
    32
  0
SEQEND
  5
100A
  8
0
  0
LINE
  5
101D
  8
0
 10
104.2000000000051
 20
157.81781592185459
 30
0.0
 11
90.570452236937584
 21
157.81781592185459
 31
0.0
  0
ARC
  5
101E
  8
0
 10
137.09782236219411
 20
-14.98181918599472
 30
0.0
 40
174.98170357484759
 50
90.049278502639154
 51
99.097952905035015
  0
LINE
  5
1026
  8
0
 10
104.3763951615144
 20
168.88134928423861
 30
0.0
 11
126.7109513646237
 21
169.19999989320911
 31
0.0
  0
POLYLINE
  5
1027
  8
0
 66
     1
 10
0.0
 20
0.0
 30
0.0
 70
     8
  0
VERTEX
  5
1028
  8
0
 10
150.24335288712089
 20
168.67790864949609
 30
0.0
 70
    32
  0
VERTEX
  5
1029
  8
0
 10
150.24335288712089
 20
168.67790864949609
 30
0.0
 70
    32
  0
VERTEX
  5
102A
  8
0
 10
150.13176336358271
 20
168.672794883568
 30
0.0
 70
    32
  0
VERTEX
  5
102B
  8
0
 10
144.1073397711429
 20
168.9109870286473
 30
0.0
 70
    32
  0
VERTEX
  5
102C
  8
0
 10
138.0728947418537
 20
169.077600468626
 30
0.0
 70
    32
  0
VERTEX
  5
102D
  8
0
 10
132.03670017261189
 20
169.1733013120795
 30
0.0
 70
    32
  0
VERTEX
  5
102E
  8
0
 10
130.46087675638179
 20
169.19063094570291
 30
0.0
 70
    32
  0
SEQEND
  5
102F
  8
0
  0
LINE
  5
1031
  8
0
 10
127.4000000000004
 20
169.19999999999979
 30
0.0
 11
126.72104812268211
 21
169.19999999999979
 31
0.0
  0
ARC
  5
1032
  8
0
 10
127.3999999999392
 20
-330.80000001967181
 30
0.0
 40
500.00000001967157
 50
89.649247169688479
 51
90.0
  0
ARC
  5
1033
  8
0
 10
127.400000000025
 20
-330.79999999958142
 30
0.0
 40
499.99999999958061
 50
85.94353439142219
 51
87.381433095064367
  0
LINE
  5
1195
  8
1
 10
85.450413125845742
 20
218.5
 30
0.0
 11
170.00000000000011
 21
218.5
 31
0.0
  0
LINE
  5
1196
  8
1
 10
100.0
 20
203.94999999999999
 30
0.0
 11
100.0
 21
233.05000000000001
 31
0.0
  0
LINE
  5
1430
  8
1
 10
85.450413125845742
 20
49.999999999999972
 30
0.0
 11
170.00000000000011
 21
49.999999999999972
 31
0.0
  0
LINE
  5
1431
  8
1
 10
100.0
 20
35.449999999999989
 30
0.0
 11
100.0
 21
64.549999999999983
 31
0.0
  0
LINE
  5
1485
  8
0
 10
90.570452236937584
 20
48.488004965575328
 30
0.0
 11
90.570452236937584
 21
51.511995034424622
 31
0.0
  0
CIRCLE
  5
14C3
  8
0
 10
100.0
 20
49.999999999999972
 30
0.0
 40
9.25
  0
CIRCLE
  5
14C5
  8
3
 10
100.0
 20
49.999999999999972
 30
0.0
 40
3.3235000000000801
  0
CIRCLE
  5
14C7
  8
0
 10
100.0
 20
49.999999999999972
 30
0.0
 40
6.75
  0
LINE
  5
186E
  8
1
 10
200.0
 20
173.49999999999989
 30
0.0
 11
200.0
 21
94.999999999999986
 31
0.0
  0
LINE
  5
1887
  8
0
 10
193.55000000000001
 20
139.99999999999989
 30
0.0
 11
206.44999999999999
 21
139.99999999999989
 31
0.0
  0
LINE
  5
1888
  8
0
 10
193.55000000000001
 20
139.99999999999989
 30
0.0
 11
193.25
 21
140.30000000000001
 31
0.0
  0
LINE
  5
1889
  8
0
 10
206.75
 20
140.30000000000001
 30
0.0
 11
206.44999999999999
 21
139.99999999999989
 31
0.0
  0
LINE
  5
188A
  8
0
 10
193.25
 20
140.30000000000001
 30
0.0
 11
206.75
 21
140.30000000000001
 31
0.0
  0
LINE
  5
188B
  8
0
 10
206.75
 20
146.49999999999989
 30
0.0
 11
206.75
 21
140.30000000000001
 31
0.0
  0
LINE
  5
188C
  8
0
 10
193.25
 20
140.30000000000001
 30
0.0
 11
193.25
 21
146.49999999999989
 31
0.0
  0
LINE
  5
188D
  8
0
 10
191.25
 20
146.49999999999989
 30
0.0
 11
208.75
 21
146.49999999999989
 31
0.0
  0
LINE
  5
188E
  8
0
 10
191.25
 20
146.49999999999989
 30
0.0
 11
190.75
 21
146.99999999999989
 31
0.0
  0
LINE
  5
188F
  8
0
 10
209.25
 20
146.99999999999989
 30
0.0
 11
208.75
 21
146.49999999999989
 31
0.0
  0
LINE
  5
1890
  8
0
 10
190.75
 20
146.99999999999989
 30
0.0
 11
209.25
 21
146.99999999999989
 31
0.0
  0
LINE
  5
1891
  8
0
 10
190.75
 20
146.99999999999989
 30
0.0
 11
190.57077250727019
 21
157.7985195215829
 31
0.0
  0
LINE
  5
1892
  8
0
 10
209.42922749272981
 20
157.79851952158299
 30
0.0
 11
209.25
 21
146.99999999999989
 31
0.0
  0
LINE
  5
1E51
  8
1
 10
49.999999999995687
 20
173.49999999999989
 30
0.0
 11
49.99999999999568
 21
94.999999999999986
 31
0.0
  0
LINE
  5
1E52
  8
0
 10
43.882257208375229
 20
168.98555902619341
 30
0.0
 11
43.882257208375229
 21
169.19851610376321
 31
0.0
  0
POLYLINE
  5
1E53
  8
0
 66
     1
 10
0.0
 20
0.0
 30
0.0
 70
     8
  0
VERTEX
  5
1E54
  8
0
 10
43.882257208448841
 20
169.19854076025501
 30
0.0
 70
    32
  0
VERTEX
  5
1E55
  8
0
 10
43.892960230742553
 20
169.19739945388889
 30
0.0
 70
    32
  0
VERTEX
  5
1E56
  8
0
 10
43.932066848719849
 20
169.1956492943911
 30
0.0
 70
    32
  0
VERTEX
  5
1E57
  8
0
 10
43.999999999995509
 20
169.1934241163336
 30
0.0
 70
    32
  0
SEQEND
  5
1E58
  8
0
  0
LINE
  5
1E59
  8
0
 10
56.117742791616152
 20
169.19851886206141
 30
0.0
 11
56.117742791616152
 21
168.98538727628241
 31
0.0
  0
LINE
  5
1E5A
  8
0
 10
56.117742791616152
 20
169.19851886206141
 30
0.0
 11
56.059489129092512
 21
169.19999993156929
 31
0.0
  0
POLYLINE
  5
1E5B
  8
0
 66
     1
 10
0.0
 20
0.0
 30
0.0
 70
     8
  0
VERTEX
  5
1E5C
  8
0
 10
55.999999999995708
 20
169.1934241163336
 30
0.0
 70
    32
  0
VERTEX
  5
1E5D
  8
0
 10
56.06698215798481
 20
169.19561408244741
 30
0.0
 70
    32
  0
VERTEX
  5
1E5E
  8
0
 10
56.106325007178839
 20
169.19735617555631
 30
0.0
 70
    32
  0
VERTEX
  5
1E5F
  8
0
 10
56.117742791550242
 20
169.19854075564311
 30
0.0
 70
    32
  0
SEQEND
  5
1E60
  8
0
  0
LINE
  5
1E67
  8
0
 10
43.938777558240027
 20
169.19999999999979
 30
0.0
 11
56.061324092811233
 21
169.19999999999979
 31
0.0
  0
LINE
  5
1E68
  8
0
 10
43.940526278075602
 20
169.19999993582061
 30
0.0
 11
43.882257208375229
 21
169.19851610376321
 31
0.0
  0
LINE
  5
1E6A
  8
0
 10
58.4905182668573
 20
168.66963233037609
 30
0.0
 11
58.490518266857329
 21
168.88134928423861
 31
0.0
  0
POLYLINE
  5
1E6B
  8
0
 66
     1
 10
0.0
 20
0.0
 30
0.0
 70
     8
  0
VERTEX
  5
1E6C
  8
0
 10
55.999999999995708
 20
169.1934241163336
 30
0.0
 70
    32
  0
VERTEX
  5
1E6D
  8
0
 10
55.822833789239823
 20
169.18757893694371
 30
0.0
 70
    32
  0
VERTEX
  5
1E6E
  8
0
 10
55.675063436592779
 20
169.17991466558041
 30
0.0
 70
    32
  0
VERTEX
  5
1E6F
  8
0
 10
55.556442672087627
 20
169.17041733079401
 30
0.0
 70
    32
  0
VERTEX
  5
1E70
  8
0
 10
55.467702949338822
 20
169.15915770370941
 30
0.0
 70
    32
  0
VERTEX
  5
1E71
  8
0
 10
55.395444870454163
 20
169.14125258978581
 30
0.0
 70
    32
  0
VERTEX
  5
1E72
  8
0
 10
55.37707686163953
 20
169.1244107692431
 30
0.0
 70
    32
  0
SEQEND
  5
1E73
  8
0
  0
POLYLINE
  5
1E75
  8
0
 66
     1
 10
0.0
 20
0.0
 30
0.0
 70
     8
  0
VERTEX
  5
1E76
  8
0
 10
55.37707686163953
 20
169.1244107692431
 30
0.0
 70
    32
  0
VERTEX
  5
1E77
  8
0
 10
55.377996976506502
 20
169.12038818175799
 30
0.0
 70
    32
  0
VERTEX
  5
1E78
  8
0
 10
55.4163900241047
 20
169.0965498962214
 30
0.0
 70
    32
  0
VERTEX
  5
1E79
  8
0
 10
55.511346700975992
 20
169.0703172194917
 30
0.0
 70
    32
  0
VERTEX
  5
1E7A
  8
0
 10
55.663329932693728
 20
169.0421465665828
 30
0.0
 70
    32
  0
VERTEX
  5
1E7B
  8
0
 10
55.798954951420143
 20
169.02228713368669
 30
0.0
 70
    32
  0
VERTEX
  5
1E7C
  8
0
 10
55.960579766048973
 20
169.0021776649389
 30
0.0
 70
    32
  0
VERTEX
  5
1E7D
  8
0
 10
56.148764585254611
 20
168.98207308727299
 30
0.0
 70
    32
  0
VERTEX
  5
1E7E
  8
0
 10
56.362831336621248
 20
168.96244855578661
 30
0.0
 70
    32
  0
VERTEX
  5
1E7F
  8
0
 10
56.692167840176047
 20
168.93755510584691
 30
0.0
 70
    32
  0
VERTEX
  5
1E80
  8
0
 10
57.06837024591141
 20
168.91562595740399
 30
0.0
 70
    32
  0
VERTEX
  5
1E81
  8
0
 10
57.495335857172428
 20
168.89794384416371
 30
0.0
 70
    32
  0
VERTEX
  5
1E82
  8
0
 10
57.96926735682343
 20
168.88615150682341
 30
0.0
 70
    32
  0
VERTEX
  5
1E83
  8
0
 10
58.490518266857329
 20
168.88134928423861
 30
0.0
 70
    32
  0
SEQEND
  5
1E84
  8
0
  0
LINE
  5
1E85
  8
0
 10
41.509481733134074
 20
168.88134928423861
 30
0.0
 11
41.509481733134074
 21
168.66963233037609
 31
0.0
  0
POLYLINE
  5
1E87
  8
0
 66
     1
 10
0.0
 20
0.0
 30
0.0
 70
     8
  0
VERTEX
  5
1E88
  8
0
 10
41.509481733134074
 20
168.88134928423861
 30
0.0
 70
    32
  0
VERTEX
  5
1E89
  8
0
 10
42.000948827438357
 20
168.88566004366791
 30
0.0
 70
    32
  0
VERTEX
  5
1E8A
  8
0
 10
42.453173157343777
 20
168.89628295514709
 30
0.0
 70
    32
  0
VERTEX
  5
1E8B
  8
0
 10
42.864574281216079
 20
168.91236714401111
 30
0.0
 70
    32
  0
VERTEX
  5
1E8C
  8
0
 10
43.237518676454677
 20
168.9329631252071
 30
0.0
 70
    32
  0
VERTEX
  5
1E8D
  8
0
 10
43.567392898909219
 20
168.95667704432589
 30
0.0
 70
    32
  0
VERTEX
  5
1E8E
  8
0
 10
43.788086453247651
 20
168.97596046093739
 30
0.0
 70
    32
  0
VERTEX
  5
1E8F
  8
0
 10
43.98323791830672
 20
168.99585171135411
 30
0.0
 70
    32
  0
VERTEX
  5
1E90
  8
0
 10
44.153207068846861
 20
169.01599999980289
 30
0.0
 70
    32
  0
VERTEX
  5
1E91
  8
0
 10
44.297152787813623
 20
169.03599601852841
 30
0.0
 70
    32
  0
VERTEX
  5
1E92
  8
0
 10
44.424234657945341
 20
169.0572585495394
 30
0.0
 70
    32
  0
VERTEX
  5
1E93
  8
0
 10
44.520136939501619
 20
169.0776747927936
 30
0.0
 70
    32
  0
VERTEX
  5
1E94
  8
0
 10
44.584944830007402
 20
169.0970563300464
 30
0.0
 70
    32
  0
VERTEX
  5
1E95
  8
0
 10
44.618150533182899
 20
169.11511842159129
 30
0.0
 70
    32
  0
VERTEX
  5
1E96
  8
0
 10
44.62292313838816
 20
169.1244111752541
 30
0.0
 70
    32
  0
SEQEND
  5
1E97
  8
0
  0
POLYLINE
  5
1E98
  8
0
 66
     1
 10
0.0
 20
0.0
 30
0.0
 70
     8
  0
VERTEX
  5
1E99
  8
0
 10
44.62292313838816
 20
169.1244111752541
 30
0.0
 70
    32
  0
VERTEX
  5
1E9A
  8
0
 10
44.612733093045968
 20
169.1371361153179
 30
0.0
 70
    32
  0
VERTEX
  5
1E9B
  8
0
 10
44.549344857778408
 20
169.15615938420279
 30
0.0
 70
    32
  0
VERTEX
  5
1E9C
  8
0
 10
44.426042827663537
 20
169.17210794028711
 30
0.0
 70
    32
  0
VERTEX
  5
1E9D
  8
0
 10
44.243103234953203
 20
169.18456648916381
 30
0.0
 70
    32
  0
VERTEX
  5
1E9E
  8
0
 10
43.999999999995538
 20
169.1934241163336
 30
0.0
 70
    32
  0
SEQEND
  5
1E9F
  8
0
  0
ARC
  5
1EA0
  8
0
 10
50.0
 20
160.99999999999059
 30
0.0
 40
8.0000000000102602
 50
110.36413480632319
 51
115.5645820700214
  0
ARC
  5
1EA1
  8
0
 10
49.99999999999136
 20
160.99999999999059
 30
0.0
 40
8.0000000000102496
 50
64.435417929978541
 51
69.635865193676779
  0
LINE
  5
1EA2
  8
0
 10
47.216117818580727
 20
168.5
 30
0.0
 11
52.783882181410704
 21
168.5
 31
0.0
  0
POLYLINE
  5
1EA3
  8
0
 66
     1
 10
0.0
 20
0.0
 30
0.0
 70
     8
  0
VERTEX
  5
1EA4
  8
0
 10
54.3748950260835
 20
168.21133871181669
 30
0.0
 70
    32
  0
VERTEX
  5
1EA5
  8
0
 10
54.363311574870067
 20
168.22993197487111
 30
0.0
 70
    32
  0
VERTEX
  5
1EA6
  8
0
 10
54.322240748666033
 20
168.25331916882101
 30
0.0
 70
    32
  0
VERTEX
  5
1EA7
  8
0
 10
54.251213834434601
 20
168.27953261429539
 30
0.0
 70
    32
  0
VERTEX
  5
1EA8
  8
0
 10
54.148463963065844
 20
168.3087335823823
 30
0.0
 70
    32
  0
VERTEX
  5
1EA9
  8
0
 10
54.014895252608227
 20
168.34019659974911
 30
0.0
 70
    32
  0
VERTEX
  5
1EAA
  8
0
 10
53.857280445179853
 20
168.37223727959599
 30
0.0
 70
    32
  0
VERTEX
  5
1EAB
  8
0
 10
53.671867676209757
 20
168.40546443491289
 30
0.0
 70
    32
  0
VERTEX
  5
1EAC
  8
0
 10
53.456098038770058
 20
168.4398225447199
 30
0.0
 70
    32
  0
VERTEX
  5
1EAD
  8
0
 10
53.21335790662571
 20
168.47421628669301
 30
0.0
 70
    32
  0
VERTEX
  5
1EAE
  8
0
 10
52.955361705591891
 20
168.50672067989569
 30
0.0
 70
    32
  0
VERTEX
  5
1EAF
  8
0
 10
52.674749756471932
 20
168.53799619860649
 30
0.0
 70
    32
  0
VERTEX
  5
1EB0
  8
0
 10
52.368380448371781
 20
168.5678130999122
 30
0.0
 70
    32
  0
VERTEX
  5
1EB1
  8
0
 10
52.041897282074991
 20
168.5950306416336
 30
0.0
 70
    32
  0
VERTEX
  5
1EB2
  8
0
 10
51.713986536590539
 20
168.61793690843581
 30
0.0
 70
    32
  0
VERTEX
  5
1EB3
  8
0
 10
51.371597515932002
 20
168.6373432748166
 30
0.0
 70
    32
  0
VERTEX
  5
1EB4
  8
0
 10
51.011461117187373
 20
168.6529583910592
 30
0.0
 70
    32
  0
VERTEX
  5
1EB5
  8
0
 10
50.640926528185567
 20
168.66402222161631
 30
0.0
 70
    32
  0
VERTEX
  5
1EB6
  8
0
 10
50.314811302967001
 20
168.6696312212668
 30
0.0
 70
    32
  0
SEQEND
  5
1EB7
  8
0
  0
POLYLINE
  5
1EB8
  8
0
 66
     1
 10
0.0
 20
0.0
 30
0.0
 70
     8
  0
VERTEX
  5
1EB9
  8
0
 10
49.685188697023598
 20
168.66963122126671
 30
0.0
 70
    32
  0
VERTEX
  5
1EBA
  8
0
 10
49.32836529564171
 20
168.6632957462682
 30
0.0
 70
    32
  0
VERTEX
  5
1EBB
  8
0
 10
48.973741582773791
 20
168.6524119230144
 30
0.0
 70
    32
  0
VERTEX
  5
1EBC
  8
0
 10
48.618800577808258
 20
168.63686028769541
 30
0.0
 70
    32
  0
VERTEX
  5
1EBD
  8
0
 10
48.271412671633868
 20
168.6170082228534
 30
0.0
 70
    32
  0
VERTEX
  5
1EBE
  8
0
 10
47.947689152576352
 20
168.5942317923062
 30
0.0
 70
    32
  0
VERTEX
  5
1EBF
  8
0
 10
47.635916539950792
 20
168.56820109080871
 30
0.0
 70
    32
  0
VERTEX
  5
1EC0
  8
0
 10
47.334318455645622
 20
168.5389415272964
 30
0.0
 70
    32
  0
VERTEX
  5
1EC1
  8
0
 10
47.04986076651798
 20
168.5073399244051
 30
0.0
 70
    32
  0
VERTEX
  5
1EC2
  8
0
 10
46.793389039104028
 20
168.47511645043431
 30
0.0
 70
    32
  0
VERTEX
  5
1EC3
  8
0
 10
46.55732572416867
 20
168.44183338945879
 30
0.0
 70
    32
  0
VERTEX
  5
1EC4
  8
0
 10
46.340803774019889
 20
168.40759775176369
 30
0.0
 70
    32
  0
VERTEX
  5
1EC5
  8
0
 10
46.149369288745987
 20
168.37350204388511
 30
0.0
 70
    32
  0
VERTEX
  5
1EC6
  8
0
 10
45.990122362523472
 20
168.34128739780729
 30
0.0
 70
    32
  0
VERTEX
  5
1EC7
  8
0
 10
45.857766717102471
 20
168.3103284182157
 30
0.0
 70
    32
  0
VERTEX
  5
1EC8
  8
0
 10
45.752520113434713
 20
168.28072122838131
 30
0.0
 70
    32
  0
VERTEX
  5
1EC9
  8
0
 10
45.6779611278819
 20
168.253408613993
 30
0.0
 70
    32
  0
VERTEX
  5
1ECA
  8
0
 10
45.636586953974309
 20
168.22984688342049
 30
0.0
 70
    32
  0
VERTEX
  5
1ECB
  8
0
 10
45.625104965442723
 20
168.21133901268129
 30
0.0
 70
    32
  0
SEQEND
  5
1ECC
  8
0
  0
LINE
  5
1ECD
  8
0
 10
41.509481733134074
 20
168.66963233037609
 30
0.0
 11
58.4905182668573
 21
168.66963233037609
 31
0.0
  0
LINE
  5
1ECE
  8
0
 10
58.576858399198763
 20
168.64238051648951
 30
0.0
 11
58.4905182668573
 21
168.66963233037609
 31
0.0
  0
LINE
  5
1ECF
  8
0
 10
41.509481733134102
 20
168.66963233037609
 30
0.0
 11
41.423141600792043
 21
168.64238051648931
 31
0.0
  0
POLYLINE
  5
1ED0
  8
0
 66
     1
 10
0.0
 20
0.0
 30
0.0
 70
     8
  0
VERTEX
  5
1ED1
  8
0
 10
59.268510876231097
 20
168.15000002841731
 30
0.0
 70
    32
  0
VERTEX
  5
1ED2
  8
0
 10
59.16141353928252
 20
168.15182154520721
 30
0.0
 70
    32
  0
VERTEX
  5
1ED3
  8
0
 10
58.931840741075042
 20
168.1635189492919
 30
0.0
 70
    32
  0
VERTEX
  5
1ED4
  8
0
 10
58.649623110728847
 20
168.1854212277492
 30
0.0
 70
    32
  0
VERTEX
  5
1ED5
  8
0
 10
58.313392809192102
 20
168.2167956159247
 30
0.0
 70
    32
  0
SEQEND
  5
1ED6
  8
0
  0
POLYLINE
  5
1ED7
  8
0
 66
     1
 10
0.0
 20
0.0
 30
0.0
 70
     8
  0
VERTEX
  5
1ED8
  8
0
 10
40.731223476990358
 20
168.15000000285039
 30
0.0
 70
    32
  0
VERTEX
  5
1ED9
  8
0
 10
40.692110112243597
 20
168.15030882714819
 30
0.0
 70
    32
  0
VERTEX
  5
1EDA
  8
0
 10
40.610285435210898
 20
168.15360363744909
 30
0.0
 70
    32
  0
VERTEX
  5
1EDB
  8
0
 10
40.499778833426546
 20
168.17038478015129
 30
0.0
 70
    32
  0
VERTEX
  5
1EDC
  8
0
 10
40.451967001128402
 20
168.20143271390029
 30
0.0
 70
    32
  0
VERTEX
  5
1EDD
  8
0
 10
40.450000000024353
 20
168.21134264833671
 30
0.0
 70
    32
  0
SEQEND
  5
1EDE
  8
0
  0
LINE
  5
1EDF
  8
0
 10
41.686607190799243
 20
168.2167956159247
 30
0.0
 11
58.313392809192131
 21
168.2167956159247
 31
0.0
  0
LINE
  5
1EE0
  8
0
 10
56.749999999995687
 20
146.49999999999989
 30
0.0
 11
56.749999999995687
 21
140.30000000000001
 31
0.0
  0
LINE
  5
1EE1
  8
0
 10
43.24999999999568
 20
140.30000000000001
 30
0.0
 11
43.24999999999568
 21
146.49999999999989
 31
0.0
  0
LINE
  5
1EE2
  8
0
 10
43.549999999995691
 20
139.99999999999989
 30
0.0
 11
43.24999999999568
 21
140.30000000000001
 31
0.0
  0
LINE
  5
1EE3
  8
0
 10
56.749999999995687
 20
140.30000000000001
 30
0.0
 11
56.449999999995669
 21
139.99999999999989
 31
0.0
  0
LINE
  5
1EE4
  8
0
 10
43.549999999995691
 20
139.99999999999989
 30
0.0
 11
56.449999999995669
 21
139.99999999999989
 31
0.0
  0
LINE
  5
1EE5
  8
0
 10
43.24999999999568
 20
140.30000000000001
 30
0.0
 11
56.749999999995687
 21
140.30000000000001
 31
0.0
  0
LINE
  5
1EE6
  8
0
 10
41.249999999995687
 20
146.49999999999989
 30
0.0
 11
40.74999999999568
 21
146.99999999999989
 31
0.0
  0
LINE
  5
1EE7
  8
0
 10
59.249999999995687
 20
146.99999999999989
 30
0.0
 11
58.749999999995687
 21
146.49999999999989
 31
0.0
  0
LINE
  5
1EE8
  8
0
 10
41.249999999995687
 20
146.49999999999989
 30
0.0
 11
58.749999999995687
 21
146.49999999999989
 31
0.0
  0
LINE
  5
1EE9
  8
0
 10
40.74999999999568
 20
146.99999999999989
 30
0.0
 11
40.570456276574333
 21
157.81757253206101
 31
0.0
  0
LINE
  5
1EEA
  8
0
 10
59.429543723417041
 20
157.81757253206089
 30
0.0
 11
59.249999999995687
 21
146.99999999999989
 31
0.0
  0
LINE
  5
1EEB
  8
0
 10
40.74999999999568
 20
146.99999999999989
 30
0.0
 11
59.249999999995687
 21
146.99999999999989
 31
0.0
  0
LINE
  5
1EED
  8
0
 10
49.999999999995687
 20
157.7985195215829
 30
0.0
 11
40.449999999995669
 21
157.8178159218545
 31
0.0
  0
LINE
  5
1EEE
  8
0
 10
59.549999999995713
 20
157.8178159218545
 30
0.0
 11
49.999999999995687
 21
157.7985195215829
 31
0.0
  0
POLYLINE
  5
1EF5
  8
0
 66
     1
 10
0.0
 20
0.0
 30
0.0
 70
     8
  0
VERTEX
  5
1EF6
  8
0
 10
41.686607190799243
 20
168.2167956159247
 30
0.0
 70
    32
  0
VERTEX
  5
1EF7
  8
0
 10
41.332501112825732
 20
168.1838807681165
 30
0.0
 70
    32
  0
VERTEX
  5
1EF8
  8
0
 10
41.033647884720608
 20
168.16129890766999
 30
0.0
 70
    32
  0
VERTEX
  5
1EF9
  8
0
 10
40.904133944395852
 20
168.15431099742909
 30
0.0
 70
    32
  0
VERTEX
  5
1EFA
  8
0
 10
40.790299490203381
 20
168.15059521038879
 30
0.0
 70
    32
  0
VERTEX
  5
1EFB
  8
0
 10
40.731223476990358
 20
168.15000000285039
 30
0.0
 70
    32
  0
SEQEND
  5
1EFC
  8
0
  0
POLYLINE
  5
1EFD
  8
0
 66
     1
 10
0.0
 20
0.0
 30
0.0
 70
     8
  0
VERTEX
  5
1EFE
  8
0
 10
43.19467120558685
 20
168.09624765331569
 30
0.0
 70
    32
  0
VERTEX
  5
1EFF
  8
0
 10
42.636624059825273
 20
168.1335342838689
 30
0.0
 70
    32
  0
VERTEX
  5
1F00
  8
0
 10
42.134616651096337
 20
168.1736105739767
 30
0.0
 70
    32
  0
VERTEX
  5
1F01
  8
0
 10
41.692469558900861
 20
168.2161715188727
 30
0.0
 70
    32
  0
VERTEX
  5
1F02
  8
0
 10
41.686607190799243
 20
168.2167956159247
 30
0.0
 70
    32
  0
SEQEND
  5
1F03
  8
0
  0
LINE
  5
1F05
  8
0
 10
40.449999999995669
 20
157.8178159218545
 30
0.0
 11
40.449999999995669
 21
168.21180357060919
 31
0.0
  0
POLYLINE
  5
1F06
  8
0
 66
     1
 10
0.0
 20
0.0
 30
0.0
 70
     8
  0
VERTEX
  5
1F07
  8
0
 10
40.450000000024353
 20
168.21134264833671
 30
0.0
 70
    32
  0
VERTEX
  5
1F08
  8
0
 10
40.452199119723453
 20
168.22276934749411
 30
0.0
 70
    32
  0
VERTEX
  5
1F09
  8
0
 10
40.469109704626739
 20
168.24782029311189
 30
0.0
 70
    32
  0
VERTEX
  5
1F0A
  8
0
 10
40.502885623265293
 20
168.2766530871352
 30
0.0
 70
    32
  0
VERTEX
  5
1F0B
  8
0
 10
40.55349373369399
 20
168.30911027589241
 30
0.0
 70
    32
  0
VERTEX
  5
1F0C
  8
0
 10
40.687235881435512
 20
168.37650145226041
 30
0.0
 70
    32
  0
VERTEX
  5
1F0D
  8
0
 10
40.87705213437426
 20
168.455300091819
 30
0.0
 70
    32
  0
VERTEX
  5
1F0E
  8
0
 10
41.121918047499982
 20
168.54413813768431
 30
0.0
 70
    32
  0
VERTEX
  5
1F0F
  8
0
 10
41.423141600792071
 20
168.64238051648931
 30
0.0
 70
    32
  0
SEQEND
  5
1F10
  8
0
  0
LINE
  5
1F11
  8
0
 10
43.19467120558685
 20
168.09624765331569
 30
0.0
 11
56.805328794404517
 21
168.09624765331569
 31
0.0
  0
POLYLINE
  5
1F3C
  8
0
 66
     1
 10
0.0
 20
0.0
 30
0.0
 70
     8
  0
VERTEX
  5
1F3D
  8
0
 10
58.313392809192131
 20
168.2167956159247
 30
0.0
 70
    32
  0
VERTEX
  5
1F3E
  8
0
 10
57.872125848757207
 20
168.1742014998205
 30
0.0
 70
    32
  0
VERTEX
  5
1F3F
  8
0
 10
57.3709472572937
 20
168.13408754120189
 30
0.0
 70
    32
  0
VERTEX
  5
1F40
  8
0
 10
56.813671306502471
 20
168.09675903151569
 30
0.0
 70
    32
  0
VERTEX
  5
1F41
  8
0
 10
56.805328794404517
 20
168.09624765331569
 30
0.0
 70
    32
  0
SEQEND
  5
1F42
  8
0
  0
POLYLINE
  5
1F43
  8
0
 66
     1
 10
0.0
 20
0.0
 30
0.0
 70
     8
  0
VERTEX
  5
1F44
  8
0
 10
58.576858399198791
 20
168.64238051648951
 30
0.0
 70
    32
  0
VERTEX
  5
1F45
  8
0
 10
58.89025808686754
 20
168.539947283288
 30
0.0
 70
    32
  0
VERTEX
  5
1F46
  8
0
 10
59.146510184638579
 20
168.44612905278569
 30
0.0
 70
    32
  0
VERTEX
  5
1F47
  8
0
 10
59.253695384481958
 20
168.40241372621941
 30
0.0
 70
    32
  0
VERTEX
  5
1F48
  8
0
 10
59.34479941038294
 20
168.36170044310549
 30
0.0
 70
    32
  0
VERTEX
  5
1F49
  8
0
 10
59.41977682510749
 20
168.32404995518499
 30
0.0
 70
    32
  0
VERTEX
  5
1F4A
  8
0
 10
59.477996461587978
 20
168.2897908430204
 30
0.0
 70
    32
  0
VERTEX
  5
1F4B
  8
0
 10
59.542016928671167
 20
168.23395487726029
 30
0.0
 70
    32
  0
VERTEX
  5
1F4C
  8
0
 10
59.549999999995677
 20
168.21134136505711
 30
0.0
 70
    32
  0
SEQEND
  5
1F4D
  8
0
  0
LINE
  5
1F4E
  8
0
 10
59.549999999995713
 20
168.2113582943112
 30
0.0
 11
59.549999999995713
 21
157.8178159218545
 31
0.0
  0
POLYLINE
  5
1F4F
  8
0
 66
     1
 10
0.0
 20
0.0
 30
0.0
 70
     8
  0
VERTEX
  5
1F50
  8
0
 10
59.549999999995677
 20
168.21134136505711
 30
0.0
 70
    32
  0
VERTEX
  5
1F51
  8
0
 10
59.549999268976599
 20
168.21114210642591
 30
0.0
 70
    32
  0
VERTEX
  5
1F52
  8
0
 10
59.541671052240858
 20
168.19190556866249
 30
0.0
 70
    32
  0
VERTEX
  5
1F53
  8
0
 10
59.516319789365603
 20
168.1760328772385
 30
0.0
 70
    32
  0
VERTEX
  5
1F54
  8
0
 10
59.473878371773658
 20
168.1639370214541
 30
0.0
 70
    32
  0
VERTEX
  5
1F55
  8
0
 10
59.414056807739321
 20
168.15558733089989
 30
0.0
 70
    32
  0
VERTEX
  5
1F56
  8
0
 10
59.336989228011483
 20
168.15100312319959
 30
0.0
 70
    32
  0
VERTEX
  5
1F57
  8
0
 10
59.268510876231097
 20
168.15000002841731
 30
0.0
 70
    32
  0
SEQEND
  5
1F58
  8
0
  0
LINE
  5
208E
  8
0
 10
109.42922749272969
 20
157.79851952158299
 30
0.0
 11
104.2000000000051
 21
157.81781592185459
 31
0.0
  0
CIRCLE
  5
2104
  8
0
 10
100.0
 20
49.999999999999972
 30
0.0
 40
4.0000000000001128
  0
CIRCLE
  5
2150
  8
0
 10
100.0
 20
218.5
 30
0.0
 40
4.0
  0
ARC
  5
2151
  8
0
 10
98.169338093988117
 20
219.55693314423129
 30
0.0
 40
0.6912500000000005
 50
309.68887794066188
 51
16.658241772776979
  0
ARC
  5
2152
  8
0
 10
99.210000000000079
 20
219.86832013797951
 30
0.0
 40
0.3949999999999998
 50
43.341758227219479
 51
196.65824177277699
  0
ARC
  5
2153
  8
0
 10
100.0
 20
220.6138662884625
 30
0.0
 40
0.6912499999999989
 50
223.34175822721949
 51
316.65824177278029
  0
ARC
  5
2154
  8
0
 10
100.79000000000001
 20
219.86832013797951
 30
0.0
 40
0.3950000000000002
 50
343.34175822722301
 51
136.6582417727804
  0
ARC
  5
2155
  8
0
 10
98.169338093988117
 20
217.44306685576879
 30
0.0
 40
0.691250000000001
 50
343.34175822722301
 51
50.31112205933379
  0
ARC
  5
2156
  8
0
 10
99.210000000000079
 20
217.13167986202069
 30
0.0
 40
0.3950000000000001
 50
163.34175822722301
 51
316.65824177278029
  0
ARC
  5
2157
  8
0
 10
100.0
 20
216.3861337115377
 30
0.0
 40
0.6912500000000003
 50
43.341758227219479
 51
136.65824177277881
  0
ARC
  5
2158
  8
0
 10
100.79000000000001
 20
217.13167986202069
 30
0.0
 40
0.3949999999999998
 50
223.34175822721949
 51
16.658241772776979
  0
ARC
  5
2159
  8
0
 10
101.830661906012
 20
217.44306685576879
 30
0.0
 40
0.6912500000000003
 50
129.6888779406662
 51
196.65824177277699
  0
ARC
  5
215A
  8
0
 10
101.830661906012
 20
219.55693314423129
 30
0.0
 40
0.6912500000000011
 50
163.34175822722301
 51
230.31112205934409
  0
LINE
  5
215B
  8
0
 10
97.250000000000043
 20
217.97500000000011
 30
0.0
 11
98.61078309913411
 21
217.97500000000011
 31
0.0
  0
LINE
  5
215C
  8
0
 10
97.250000000000043
 20
219.02500000000009
 30
0.0
 11
98.610783099134025
 21
219.02500000000009
 31
0.0
  0
LINE
  5
215D
  8
0
 10
101.3892169008661
 20
219.02500000000009
 30
0.0
 11
102.75
 21
219.02500000000009
 31
0.0
  0
LINE
  5
215E
  8
0
 10
101.389216900866
 20
217.97500000000011
 30
0.0
 11
102.75
 21
217.97500000000011
 31
0.0
  0
ARC
  5
215F
  8
0
 10
100.0
 20
218.5
 30
0.0
 40
2.7567916134521511
 50
355.97735839170429
 51
4.0226416083022789
  0
LINE
  5
2160
  8
0
 10
102.75
 20
219.02500000000009
 30
0.0
 11
102.75
 21
217.97500000000011
 31
0.0
  0
LINE
  5
2161
  8
0
 10
97.250000000000085
 20
219.02500000000009
 30
0.0
 11
97.250000000000085
 21
217.97500000000011
 31
0.0
  0
ARC
  5
2162
  8
0
 10
100.0
 20
218.5
 30
0.0
 40
2.7567916134521511
 50
10.97839132993631
 51
169.0216086700637
  0
ARC
  5
2163
  8
0
 10
100.0
 20
218.5
 30
0.0
 40
2.7567916134521511
 50
190.9783913299363
 51
349.0216086700637
  0
ARC
  5
2164
  8
0
 10
100.0
 20
218.5
 30
0.0
 40
2.7567916134521511
 50
175.97735839169769
 51
184.02264160830231
  0
CIRCLE
  5
3DB0
  8
0
 10
100.0
 20
218.5
 30
0.0
 40
4.3730786381446762
  0
LINE
  5
3E80
  8
0
 10
102.8
 20
99.999999999999943
 30
0.0
 11
97.200000000000003
 21
100.0
 31
0.0
  0
LINE
  5
3E81
  8
0
 10
96.000000000000014
 20
139.99999999999989
 30
0.0
 11
95.999999999999986
 21
101.2
 31
0.0
  0
LINE
  5
3E82
  8
3
 10
96.676499999999905
 20
137.0
 30
0.0
 11
96.676499999999905
 21
100.5235000000001
 31
0.0
  0
LINE
  5
3E83
  8
3
 10
103.3235000000001
 20
136.99999999999989
 30
0.0
 11
103.3235000000001
 21
100.5235
 31
0.0
  0
LINE
  5
3E84
  8
0
 10
104.0
 20
139.99999999999989
 30
0.0
 11
104.0
 21
101.1999999999999
 31
0.0
  0
LINE
  5
3E85
  8
0
 10
104.0
 20
101.1999999999999
 30
0.0
 11
102.8
 21
99.999999999999943
 31
0.0
  0
LINE
  5
3E86
  8
0
 10
97.200000000000003
 20
100.0
 30
0.0
 11
95.999999999999986
 21
101.2
 31
0.0
  0
LINE
  5
3E87
  8
0
 10
104.0
 20
101.1999999999999
 30
0.0
 11
95.999999999999986
 21
101.2
 31
0.0
  0
LINE
  5
3E88
  8
0
 10
104.0
 20
136.99999999999989
 30
0.0
 11
95.999999999999986
 21
137.0
 31
0.0
  0
LINE
  5
3E89
  8
3
 10
103.3235000000001
 20
136.99999999999989
 30
0.0
 11
104.0
 21
138.17173237131999
 31
0.0
  0
LINE
  5
3E8A
  8
3
 10
96.676499999999905
 20
136.99999999999989
 30
0.0
 11
96.000000000000043
 21
138.17173237131999
 31
0.0
  0
LINE
  5
3EDF
  8
0
 10
52.799999999995698
 20
99.999999999999943
 30
0.0
 11
47.199999999995697
 21
100.0
 31
0.0
  0
LINE
  5
3EE0
  8
0
 10
45.999999999995723
 20
139.99999999999989
 30
0.0
 11
45.99999999999568
 21
101.2
 31
0.0
  0
LINE
  5
3EE1
  8
3
 10
46.676499999995613
 20
137.0
 30
0.0
 11
46.676499999995599
 21
100.5235000000001
 31
0.0
  0
LINE
  5
3EE2
  8
3
 10
53.323499999995832
 20
136.99999999999989
 30
0.0
 11
53.323499999995789
 21
100.5235
 31
0.0
  0
LINE
  5
3EE3
  8
0
 10
53.999999999995723
 20
139.99999999999989
 30
0.0
 11
53.99999999999568
 21
101.1999999999999
 31
0.0
  0
LINE
  5
3EE4
  8
0
 10
53.99999999999568
 20
101.1999999999999
 30
0.0
 11
52.799999999995698
 21
99.999999999999943
 31
0.0
  0
LINE
  5
3EE5
  8
0
 10
47.199999999995697
 20
100.0
 30
0.0
 11
45.99999999999568
 21
101.2
 31
0.0
  0
LINE
  5
3EE6
  8
0
 10
53.999999999995723
 20
101.1999999999999
 30
0.0
 11
45.99999999999568
 21
101.2
 31
0.0
  0
LINE
  5
3EE7
  8
0
 10
53.999999999995723
 20
136.99999999999989
 30
0.0
 11
45.999999999995687
 21
137.0
 31
0.0
  0
LINE
  5
3EE8
  8
3
 10
53.323499999995832
 20
136.99999999999989
 30
0.0
 11
53.999999999995723
 21
138.17173237131999
 31
0.0
  0
LINE
  5
3EE9
  8
3
 10
46.676499999995613
 20
136.99999999999989
 30
0.0
 11
45.999999999995751
 21
138.17173237131999
 31
0.0
  0
LINE
  5
3EEA
  8
0
 10
202.80000000000001
 20
99.999999999999943
 30
0.0
 11
197.19999999999999
 21
100.0
 31
0.0
  0
LINE
  5
3EEB
  8
0
 10
196.0
 20
139.99999999999989
 30
0.0
 11
196.0
 21
101.2
 31
0.0
  0
LINE
  5
3EEC
  8
3
 10
196.67649999999989
 20
137.0
 30
0.0
 11
196.67649999999989
 21
100.5235000000001
 31
0.0
  0
LINE
  5
3EED
  8
3
 10
203.32350000000011
 20
136.99999999999989
 30
0.0
 11
203.32350000000011
 21
100.5235
 31
0.0
  0
LINE
  5
3EEE
  8
0
 10
204.0
 20
139.99999999999989
 30
0.0
 11
204.0
 21
101.1999999999999
 31
0.0
  0
LINE
  5
3EEF
  8
0
 10
204.0
 20
101.1999999999999
 30
0.0
 11
202.80000000000001
 21
99.999999999999943
 31
0.0
  0
LINE
  5
3EF0
  8
0
 10
197.19999999999999
 20
100.0
 30
0.0
 11
196.0
 21
101.2
 31
0.0
  0
LINE
  5
3EF1
  8
0
 10
204.0
 20
101.1999999999999
 30
0.0
 11
196.0
 21
101.2
 31
0.0
  0
LINE
  5
3EF2
  8
0
 10
204.0
 20
136.99999999999989
 30
0.0
 11
196.0
 21
137.0
 31
0.0
  0
LINE
  5
3EF3
  8
3
 10
203.32350000000011
 20
136.99999999999989
 30
0.0
 11
204.0
 21
138.17173237131999
 31
0.0
  0
LINE
  5
3EF4
  8
3
 10
196.67649999999989
 20
136.99999999999989
 30
0.0
 11
196.0
 21
138.17173237131999
 31
0.0
  0
LINE
  5
46D3
  8
0
 10
206.1177427916204
 20
169.1999999999999
 30
0.0
 11
193.8822572083796
 21
169.19999999999999
 31
0.0
  0
LINE
  5
46D4
  8
0
 10
209.5499999999999
 20
157.8178159218545
 30
0.0
 11
209.42922749272961
 21
157.7985195215829
 31
0.0
  0
LINE
  5
46D5
  8
0
 10
190.57077250727031
 20
157.7985195215829
 30
0.0
 11
190.4500000000001
 21
157.8178159218545
 31
0.0
  0
LINE
  5
46D6
  8
0
 10
193.88225720837951
 20
169.19999999999999
 30
0.0
 11
193.88225720837951
 21
159.6633548542502
 31
0.0
  0
LINE
  5
46D7
  8
0
 10
206.1177427916204
 20
159.6633548542502
 30
0.0
 11
206.1177427916204
 21
169.1999999999999
 31
0.0
  0
LINE
  5
46E0
  8
0
 10
209.5499999999999
 20
157.8178159218545
 30
0.0
 11
209.5499999999999
 21
168.20242845710331
 31
0.0
  0
LINE
  5
46E1
  8
0
 10
190.44999999999999
 20
168.19382734727361
 30
0.0
 11
190.4499999999999
 21
157.8178159218545
 31
0.0
  0
ARC
  5
46E2
  8
0
 10
201.02876123833511
 20
159.12658641925049
 30
0.0
 40
3.9715406153846811
 50
12.309497880916121
 51
44.292520188600207
  0
ARC
  5
46E3
  8
0
 10
206.82447582812509
 20
165.66975882464661
 30
0.0
 40
4.7886317237007576
 50
208.29354516188499
 51
231.92748188296949
  0
LINE
  5
46E4
  8
0
 10
202.60793830746019
 20
165.55342247233469
 30
0.0
 11
202.60793830746019
 21
163.40000000000001
 31
0.0
  0
ARC
  5
46E5
  8
0
 10
208.9509899444804
 20
161.61543495366911
 30
0.0
 40
7.4660598555773294
 50
121.99424679398869
 51
148.166548341636
  0
ARC
  5
46E6
  8
0
 10
204.9757881124558
 20
168.03770843496699
 30
0.0
 40
0.0923648930435558
 50
282.14268636860572
 51
322.15666678226228
  0
LINE
  5
46E7
  8
0
 10
205.04872785940739
 20
159.0696484494469
 30
0.0
 11
205.04872785940731
 21
167.98104215944451
 31
0.0
  0
ARC
  5
46E8
  8
0
 10
200.38755393654179
 20
158.8115099344169
 30
0.0
 40
4.6683163808963508
 50
3.1698355058530541
 51
14.41033350476515
  0
ARC
  5
46E9
  8
0
 10
194.2111630680248
 20
164.79734505767979
 30
0.0
 40
3.4742897503896928
 50
303.49449907082521
 51
336.2844738843155
  0
ARC
  5
46EA
  8
0
 10
198.81682579633201
 20
159.20973274259001
 30
0.0
 40
3.8032583071209061
 50
134.97959643635619
 51
168.4183854941231
  0
ARC
  5
46EB
  8
0
 10
199.6240730491721
 20
158.8097120422392
 30
0.0
 40
4.680025135297579
 50
165.60377265750759
 51
176.8160583317804
  0
LINE
  5
46EC
  8
0
 10
194.95127214059249
 20
167.9810421594446
 30
0.0
 11
194.95127214059249
 21
159.0696484494527
 31
0.0
  0
ARC
  5
46ED
  8
0
 10
195.02434148452409
 20
168.03791463289571
 30
0.0
 40
0.0925937754875216
 50
217.8948932213145
 51
257.80575362756292
  0
ARC
  5
46EE
  8
0
 10
191.6935058907539
 20
162.2581246061209
 30
0.0
 40
6.5827445836167229
 50
30.03946159175624
 51
59.799743272626117
  0
LINE
  5
46EF
  8
0
 10
197.39206169254001
 20
163.40000000000001
 30
0.0
 11
197.39206169254001
 21
165.55342247233469
 31
0.0
  0
LINE
  5
46F0
  8
0
 10
197.39206169254001
 20
165.55342247233469
 30
0.0
 11
202.60793830746019
 21
165.55342247233469
 31
0.0
  0
LINE
  5
46F1
  8
0
 10
197.39206169254001
 20
163.40000000000001
 30
0.0
 11
202.60793830746019
 21
163.40000000000001
 31
0.0
  0
LINE
  5
46F2
  8
0
 10
195.00478321211571
 20
167.94741004052909
 30
0.0
 11
204.99521678788429
 21
167.94741004052921
 31
0.0
  0
LINE
  5
46F3
  8
0
 10
204.90899711639679
 20
159.97328848624511
 30
0.0
 11
195.09100288360321
 21
159.97328848624511
 31
0.0
  0
ARC
  5
46F4
  8
0
 10
215.01541413863171
 20
159.03336207300401
 30
0.0
 40
9.9667523341152329
 50
179.79140037322949
 51
188.84997362618759
  0
ARC
  5
46F5
  8
0
 10
188.91961383431109
 20
158.7360569957018
 30
0.0
 40
6.0408761932148511
 50
348.1930073831636
 51
3.1656186174400118
  0
ARC
  5
46F6
  8
0
 10
191.6311444003176
 20
193.23848515212251
 30
0.0
 40
24.357439715436811
 50
269.71381284646952
 51
275.30283911073531
  0
ARC
  5
46F7
  8
0
 10
208.35467645761071
 20
192.7888152608183
 30
0.0
 40
23.907851898873059
 50
264.63127834961853
 51
270.32555012735918
  0
POLYLINE
  5
46F8
  8
0
 66
     1
 10
0.0
 20
0.0
 30
0.0
 70
   128
  0
VERTEX
  5
48A9
  8
0
 10
205.04872785940731
 20
167.9810421594446
 30
0.0
  0
VERTEX
  5
48AA
  8
0
 10
205.31105871531241
 20
168.52628506334079
 30
0.0
  0
VERTEX
  5
48AB
  8
0
 10
205.57371592649989
 20
168.9103370555429
 30
0.0
  0
VERTEX
  5
48AC
  8
0
 10
205.8367804095349
 20
169.1340858233325
 30
0.0
  0
VERTEX
  5
48AD
  8
0
 10
206.1177427916204
 20
169.1999999999999
 30
0.0
  0
SEQEND
  5
48AE
  8
0
  0
POLYLINE
  5
46F9
  8
0
 66
     1
 10
0.0
 20
0.0
 30
0.0
 70
   128
  0
VERTEX
  5
48AF
  8
0
 10
193.8822572083796
 20
169.19999999999999
 30
0.0
  0
VERTEX
  5
48B0
  8
0
 10
194.09441425165409
 20
169.1663225278491
 30
0.0
  0
VERTEX
  5
48B1
  8
0
 10
194.2888318595227
 20
169.04721015511859
 30
0.0
  0
VERTEX
  5
48B2
  8
0
 10
194.4832858439068
 20
168.84068862780649
 30
0.0
  0
VERTEX
  5
48B3
  8
0
 10
194.67767734566959
 20
168.5460706851234
 30
0.0
  0
VERTEX
  5
48B4
  8
0
 10
194.95127214059249
 20
167.9810421594446
 30
0.0
  0
SEQEND
  5
48B5
  8
0
  0
LINE
  5
46FA
  8
0
 10
205.24092100213281
 20
157.5
 30
0.0
 11
194.75907899786699
 21
157.5
 31
0.0
  0
POLYLINE
  5
46FB
  8
0
 66
     1
 10
0.0
 20
0.0
 30
0.0
 70
   128
  0
VERTEX
  5
48B6
  8
0
 10
206.09999999999999
 20
159.6910547060389
 30
0.0
  0
VERTEX
  5
48B7
  8
0
 10
205.94165747816911
 20
159.9252939025352
 30
0.0
  0
VERTEX
  5
48B8
  8
0
 10
205.7831843295555
 20
159.99985385159169
 30
0.0
  0
VERTEX
  5
48B9
  8
0
 10
205.62415133456179
 20
159.91011652171031
 30
0.0
  0
VERTEX
  5
48BA
  8
0
 10
205.46527233525771
 20
159.6539435569662
 30
0.0
  0
SEQEND
  5
48BB
  8
0
  0
ARC
  5
46FC
  8
0
 10
211.87371673646891
 20
158.57156532961221
 30
0.0
 40
6.4992078186858047
 50
170.4132907008235
 51
178.39197716135001
  0
ARC
  5
46FD
  8
0
 10
201.8455359604111
 20
158.5030179433185
 30
0.0
 40
3.5404356477935011
 50
343.54253048569439
 51
4.064201034163931
  0
LINE
  5
46FE
  8
0
 10
190.4500000000001
 20
157.8178159218545
 30
0.0
 11
191.42314160079329
 21
157.8178159218545
 31
0.0
  0
POLYLINE
  5
46FF
  8
0
 66
     1
 10
0.0
 20
0.0
 30
0.0
 70
   128
  0
VERTEX
  5
48BC
  8
0
 10
206.09999999999999
 20
159.6910547060389
 30
0.0
  0
VERTEX
  5
48BD
  8
0
 10
206.1177427916204
 20
159.6633548542502
 30
0.0
  0
VERTEX
  5
48BE
  8
0
 10
206.10725573729781
 20
159.63396041691891
 30
0.0
  0
VERTEX
  5
48BF
  8
0
 10
206.06814245823699
 20
159.60266494563911
 30
0.0
  0
VERTEX
  5
48C0
  8
0
 10
206.00022649742471
 20
159.5697166194463
 30
0.0
  0
SEQEND
  5
48C1
  8
0
  0
POLYLINE
  5
4700
  8
0
 66
     1
 10
0.0
 20
0.0
 30
0.0
 70
   128
  0
VERTEX
  5
48C2
  8
0
 10
208.5768583992031
 20
157.81781592185459
 30
0.0
  0
VERTEX
  5
48C3
  8
0
 10
207.65514374787071
 20
157.87075510994899
 30
0.0
  0
VERTEX
  5
48C4
  8
0
 10
206.88104479514331
 20
158.01878699397349
 30
0.0
  0
VERTEX
  5
48C5
  8
0
 10
206.25483355930521
 20
158.2339730904707
 30
0.0
  0
VERTEX
  5
48C6
  8
0
 10
205.7929006974754
 20
158.4821324316184
 30
0.0
  0
VERTEX
  5
48C7
  8
0
 10
205.5076543817886
 20
158.72926240078061
 30
0.0
  0
VERTEX
  5
48C8
  8
0
 10
205.3867059719739
 20
158.96955227888569
 30
0.0
  0
VERTEX
  5
48C9
  8
0
 10
205.42317843258709
 20
159.19586750549121
 30
0.0
  0
VERTEX
  5
48CA
  8
0
 10
205.6339610801769
 20
159.39927932932051
 30
0.0
  0
VERTEX
  5
48CB
  8
0
 10
206.0
 20
159.5697166194463
 30
0.0
  0
SEQEND
  5
48CC
  8
0
  0
LINE
  5
4701
  8
0
 10
208.5768583992008
 20
157.8178159218545
 30
0.0
 11
209.5499999999999
 21
157.8178159218545
 31
0.0
  0
LINE
  5
4702
  8
0
 10
209.42922749272961
 20
157.7985195215829
 30
0.0
 11
205.31517089076601
 21
157.7985195215829
 31
0.0
  0
LINE
  5
4703
  8
0
 10
194.68482910923399
 20
157.7985195215829
 30
0.0
 11
190.57077250727031
 21
157.7985195215829
 31
0.0
  0
LINE
  5
4704
  8
0
 10
191.50948173106519
 20
168.66963232970741
 30
0.0
 11
191.50948173313839
 21
168.88134928423869
 31
0.0
  0
LINE
  5
4705
  8
0
 10
191.42314160079329
 20
157.8178159218545
 30
0.0
 11
191.42314160079641
 21
168.64238051648931
 31
0.0
  0
LINE
  5
4706
  8
0
 10
191.509481728992
 20
168.66963232903871
 30
0.0
 11
191.42314160079641
 21
168.64238051648931
 31
0.0
  0
LINE
  5
4707
  8
0
 10
208.5768583992031
 20
168.64238051648951
 30
0.0
 11
208.5768583992008
 21
157.8178159218545
 31
0.0
  0
LINE
  5
4708
  8
0
 10
208.49051826686161
 20
168.88134928423869
 30
0.0
 11
208.49051826893481
 21
168.66963232970741
 31
0.0
  0
ARC
  5
4709
  8
0
 10
210.72147109467201
 20
175.58741487795911
 30
0.0
 40
7.2686220080259636
 50
252.12572904667331
 51
252.8394167677971
  0
ARC
  5
470E
  8
0
 10
191.59070701630691
 20
166.9989473904144
 30
0.0
 40
1.6519535733052031
 50
95.821792881311453
 51
133.67128715151171
  0
ARC
  5
470F
  8
0
 10
208.30226395057599
 20
166.73876293289391
 30
0.0
 40
1.9233205702095111
 50
49.55328789775902
 51
81.791774607205312
  0
ARC
  5
4710
  8
0
 10
125.4674872214937
 20
220.38225720838091
 30
0.0
 40
8.0000000000013127
 50
260.15776113643631
 51
273.81666385520589
  0
ARC
  5
4711
  8
0
 10
117.91669980147149
 20
182.12292313841101
 30
0.0
 40
31.000000000000181
 50
78.494541092667404
 51
115.8988683209285
  0
ARC
  5
4712
  8
0
 10
117.91669980147149
 20
254.8770768615891
 30
0.0
 40
31.00000000000016
 50
244.10113167907139
 51
281.50545890733258
  0
ARC
  5
4713
  8
0
 10
125.4674872214939
 20
216.6177427916156
 30
0.0
 40
8.0000000000048406
 50
86.183336144797337
 51
99.842238863566976
  0
LINE
  5
4714
  8
0
 10
162.08735688418329
 20
223.54872785940739
 30
0.0
 11
126.0
 21
224.59999999999999
 31
0.0
  0
ARC
  5
4715
  8
0
 10
162.0
 20
220.55000000000021
 30
0.0
 40
2.999999999999833
 50
79.033605543529333
 51
88.331370542596716
  0
ARC
  5
4716
  8
0
 10
161.99999999999969
 20
216.4500000000009
 30
0.0
 40
3.0000000000009179
 50
271.66862945740661
 51
280.96639445647071
  0
LINE
  5
4717
  8
0
 10
126.0
 20
212.40000000000001
 30
0.0
 11
162.08735688418329
 21
213.45127214059261
 31
0.0
  0
ARC
  5
4718
  8
0
 10
100.0
 20
218.5000000000002
 30
0.0
 40
9.5500000000001872
 50
240.51823093374659
 51
296.09051982274798
  0
ARC
  5
4719
  8
0
 10
100.0
 20
218.5
 30
0.0
 40
9.5499999999999865
 50
63.909480177244667
 51
119.4817690662573
  0
ARC
  5
471A
  8
0
 10
117.9166998029613
 20
254.87707686462781
 30
0.0
 40
31.00000000338445
 50
243.73814911797271
 51
244.1011316702735
  0
LINE
  5
471B
  8
0
 10
104.37639515297489
 20
210.00948172899211
 30
0.0
 11
104.2000000000012
 21
209.92314160079641
 31
0.0
  0
ARC
  5
471C
  8
0
 10
100.0
 20
218.5
 30
0.0
 40
9.5500000000000114
 50
119.4817690662573
 51
134.55315615641939
  0
ARC
  5
471D
  8
0
 10
100.0
 20
218.5
 30
0.0
 40
9.5500000000000114
 50
225.44684384358061
 51
240.51823093374659
  0
ARC
  5
471E
  8
0
 10
100.00068150165851
 20
218.49971459429489
 30
0.0
 40
9.5506815059162982
 50
134.55486834243021
 51
179.99828915210199
  0
ARC
  5
471F
  8
0
 10
99.9999999999132
 20
218.49999999996359
 30
0.0
 40
9.5499999999131546
 50
179.99999999978181
 51
225.44684384380011
  0
ARC
  5
4720
  8
0
 10
100.0
 20
218.5
 30
0.0
 40
65.000000000000028
 50
357.70055419433578
 51
2.2994458056657998
  0
ARC
  5
4721
  8
0
 10
162.00000000000011
 20
220.55000000000001
 30
0.0
 40
2.9999999999999591
 50
10.71824098986861
 51
79.033605543532644
  0
ARC
  5
4722
  8
0
 10
161.99999999999949
 20
216.4500000000005
 30
0.0
 40
3.0000000000005969
 50
280.9663944564773
 51
349.28175901012838
  0
POLYLINE
  5
4741
  8
0
 66
     1
 10
0.0
 20
0.0
 30
0.0
 70
   128
  0
VERTEX
  5
48CD
  8
0
 10
193.90000000000001
 20
159.6910547060389
 30
0.0
  0
VERTEX
  5
48CE
  8
0
 10
193.88225720837951
 20
159.6633548542502
 30
0.0
  0
VERTEX
  5
48CF
  8
0
 10
193.89274426270219
 20
159.63396041691891
 30
0.0
  0
VERTEX
  5
48D0
  8
0
 10
193.93185754176289
 20
159.60266494563911
 30
0.0
  0
VERTEX
  5
48D1
  8
0
 10
193.99977350257529
 20
159.5697166194463
 30
0.0
  0
SEQEND
  5
48D2
  8
0
  0
POLYLINE
  5
4742
  8
0
 66
     1
 10
0.0
 20
0.0
 30
0.0
 70
   128
  0
VERTEX
  5
48D3
  8
0
 10
191.4231416007969
 20
157.81781592185459
 30
0.0
  0
VERTEX
  5
48D4
  8
0
 10
192.3448562521292
 20
157.87075510994899
 30
0.0
  0
VERTEX
  5
48D5
  8
0
 10
193.1189552048566
 20
158.01878699397349
 30
0.0
  0
VERTEX
  5
48D6
  8
0
 10
193.74516644069479
 20
158.2339730904707
 30
0.0
  0
VERTEX
  5
48D7
  8
0
 10
194.2070993025246
 20
158.4821324316184
 30
0.0
  0
VERTEX
  5
48D8
  8
0
 10
194.4923456182114
 20
158.72926240078061
 30
0.0
  0
VERTEX
  5
48D9
  8
0
 10
194.6132940280261
 20
158.96955227888569
 30
0.0
  0
VERTEX
  5
48DA
  8
0
 10
194.57682156741291
 20
159.19586750549121
 30
0.0
  0
VERTEX
  5
48DB
  8
0
 10
194.3660389198231
 20
159.39927932932051
 30
0.0
  0
VERTEX
  5
48DC
  8
0
 10
194.0
 20
159.5697166194463
 30
0.0
  0
SEQEND
  5
48DD
  8
0
  0
POLYLINE
  5
4743
  8
0
 66
     1
 10
0.0
 20
0.0
 30
0.0
 70
   128
  0
VERTEX
  5
48DE
  8
0
 10
193.90000000000001
 20
159.6910547060389
 30
0.0
  0
VERTEX
  5
48DF
  8
0
 10
194.05834252183089
 20
159.9252939025352
 30
0.0
  0
VERTEX
  5
48E0
  8
0
 10
194.2168156704445
 20
159.99985385159169
 30
0.0
  0
VERTEX
  5
48E1
  8
0
 10
194.3758486654381
 20
159.91011652171031
 30
0.0
  0
VERTEX
  5
48E2
  8
0
 10
194.53472766474221
 20
159.6539435569662
 30
0.0
  0
SEQEND
  5
48E3
  8
0
  0
ARC
  5
4744
  8
0
 10
188.12628326353101
 20
158.57156532961221
 30
0.0
 40
6.4992078186858047
 50
1.608022838649948
 51
9.5867092991748546
  0
ARC
  5
4745
  8
0
 10
198.1544640395889
 20
158.5030179433185
 30
0.0
 40
3.5404356477935011
 50
175.935798965836
 51
196.45746951430559
  0
ARC
  5
4766
  8
0
 10
100.0
 20
49.999999999999922
 30
0.0
 40
9.550000000000006
 50
63.909480177291833
 51
170.89036636894059
  0
ARC
  5
4767
  8
0
 10
117.9166998014714
 20
86.377076861588677
 30
0.0
 40
30.999999999999979
 50
243.73814911796191
 51
281.50545890733599
  0
ARC
  5
4768
  8
0
 10
125.4674872214936
 20
48.117742791622447
 30
0.0
 40
7.999999999997903
 50
86.183336144794069
 51
99.842238863570302
  0
LINE
  5
4769
  8
0
 10
147.7885006910829
 20
55.465272335257588
 30
0.0
 11
125.9999999999999
 21
56.099999999999881
 31
0.0
  0
LINE
  5
476A
  8
0
 10
125.9999999999999
 20
43.899999999999892
 30
0.0
 11
147.7885006910829
 21
44.534727664742171
 31
0.0
  0
ARC
  5
476B
  8
0
 10
125.4674872214937
 20
51.882257208380793
 30
0.0
 40
8.0000000000013411
 50
260.15776113642971
 51
273.81666385520589
  0
ARC
  5
476C
  8
0
 10
117.9166998014714
 20
13.622923138410901
 30
0.0
 40
31.000000000000099
 50
78.494541092667404
 51
116.26185088204539
  0
ARC
  5
476D
  8
0
 10
100.0
 20
49.999999999999922
 30
0.0
 40
9.550000000000006
 50
189.1096336310593
 51
296.09051982278788
  0
ARC
  5
476E
  8
0
 10
162.00000000000051
 20
52.050000000002683
 30
0.0
 40
2.9999999999972
 50
72.363724604331424
 51
88.331370542603224
  0
ARC
  5
476F
  8
0
 10
162.00000000000011
 20
47.94999999999888
 30
0.0
 40
2.9999999999989702
 50
271.6686294572828
 51
287.6362753956617
  0
LINE
  5
4770
  8
0
 10
162.08735688418349
 20
55.048727859407222
 30
0.0
 11
158.0163970588992
 21
55.167320270137942
 31
0.0
  0
LINE
  5
4771
  8
0
 10
158.01639705889909
 20
44.832679729861887
 30
0.0
 11
162.0873568841771
 21
44.951272140592373
 31
0.0
  0
ARC
  5
4773
  8
0
 10
100.0
 20
50.000000000001897
 30
0.0
 40
9.5500000000000007
 50
170.89036636895401
 51
179.46705953929359
  0
ARC
  5
4774
  8
0
 10
100.0
 20
50.000000000001897
 30
0.0
 40
9.5500000000003151
 50
180.53294046072921
 51
189.10963363107081
  0
LINE
  5
4775
  8
0
 10
158.0163970588992
 20
55.167320270137942
 30
0.0
 11
147.7885006910829
 21
55.465272335257588
 31
0.0
  0
LINE
  5
4776
  8
0
 10
147.7885006910829
 20
44.534727664742171
 30
0.0
 11
158.0163970588992
 21
44.832679729861887
 31
0.0
  0
ARC
  5
4777
  8
0
 10
162.00000000000131
 20
52.050000000001859
 30
0.0
 40
2.9999999999977152
 50
37.385542246082899
 51
72.363724604355383
  0
ARC
  5
4778
  8
0
 10
161.99999999999989
 20
47.950000000000038
 30
0.0
 40
3.0000000000001621
 50
287.63627539565829
 51
322.61445775390177
  0
ARC
  5
4779
  8
0
 10
100.0
 20
49.999999999999893
 30
0.0
 40
65.000000000000057
 50
357.70055419433578
 51
2.2994458056657998
  0
ARC
  5
477A
  8
0
 10
161.9950800999672
 20
52.047804178090672
 30
0.0
 40
3.005242700247774
 50
10.74192983479135
 51
37.361853401167039
  0
ARC
  5
477B
  8
0
 10
161.98709456975479
 20
47.955759878511941
 30
0.0
 40
3.0137532587471192
 50
322.67642069514801
 51
349.2197960688892
  0
LINE
  5
477C
  8
0
 10
90.449999999999989
 20
50.000000223035272
 30
0.0
 11
90.450413125845714
 21
50.088828672066171
 31
0.0
  0
LINE
  5
477D
  8
0
 10
90.450413125845714
 20
49.911171327933602
 30
0.0
 11
90.449999999999989
 21
49.999999999999893
 31
0.0
  0
ENDSEC
  0
EOF
