  0
SECTION
  2
HEADER
  9
$ACADVER
  1
AC1009
  9
$INSBASE
 10
0.0
 20
0.0
 30
0.0
  9
$EXTMIN
 10
0.0
 20
-2.960436562073669
 30
0.0
  9
$EXTMAX
 10
279.01680174103439
 20
245.57798157676029
 30
0.0
  9
$LIMMIN
 10
0.0
 20
0.0
  9
$LIMMAX
 10
195.0
 20
135.0
  9
$ORTHOMODE
 70
     1
  9
$REGENMODE
 70
     1
  9
$FILLMODE
 70
     1
  9
$QTEXTMODE
 70
     0
  9
$MIRRTEXT
 70
     0
  9
$DRAGMODE
 70
     2
  9
$LTSCALE
 40
5.0
  9
$OSMODE
 70
    55
  9
$ATTMODE
 70
     1
  9
$TEXTSIZE
 40
0.2
  9
$TRACEWID
 40
0.05
  9
$TEXTSTYLE
  7
KANJI104
  9
$CLAYER
  8
0
  9
$CELTYPE
  6
BYLAYER
  9
$CECOLOR
 62
   256
  9
$DIMSCALE
 40
0.5
  9
$DIMASZ
 40
3.0
  9
$DIMEXO
 40
2.0
  9
$DIMDLI
 40
0.38
  9
$DIMRND
 40
0.0
  9
$DIMDLE
 40
0.0
  9
$DIMEXE
 40
2.0
  9
$DIMTP
 40
0.0
  9
$DIMTM
 40
0.0
  9
$DIMTXT
 40
3.0
  9
$DIMCEN
 40
0.0
  9
$DIMTSZ
 40
0.0
  9
$DIMTOL
 70
     0
  9
$DIMLIM
 70
     0
  9
$DIMTIH
 70
     0
  9
$DIMTOH
 70
     0
  9
$DIMSE1
 70
     0
  9
$DIMSE2
 70
     0
  9
$DIMTAD
 70
     1
  9
$DIMZIN
 70
     0
  9
$DIMBLK
  1

  9
$DIMASO
 70
     0
  9
$DIMSHO
 70
     0
  9
$DIMPOST
  1

  9
$DIMAPOST
  1

  9
$DIMALT
 70
     0
  9
$DIMALTD
 70
     2
  9
$DIMALTF
 40
25.399999999999999
  9
$DIMLFAC
 40
1.0
  9
$DIMTOFL
 70
     1
  9
$DIMTVP
 40
0.0
  9
$DIMTIX
 70
     1
  9
$DIMSOXD
 70
     0
  9
$DIMSAH
 70
     0
  9
$DIMBLK1
  1

  9
$DIMBLK2
  1

  9
$DIMSTYLE
  2
STANDARD
  9
$DIMCLRD
 70
     0
  9
$DIMCLRE
 70
     0
  9
$DIMCLRT
 70
     0
  9
$DIMTFAC
 40
1.0
  9
$DIMGAP
 40
0.09
  9
$LUNITS
 70
     2
  9
$LUPREC
 70
     4
  9
$SKETCHINC
 40
0.1
  9
$FILLETRAD
 40
0.5
  9
$AUNITS
 70
     0
  9
$AUPREC
 70
     0
  9
$MENU
  1
E:\r13\win\SUPPORT\ACAD
  9
$ELEVATION
 40
0.0
  9
$PELEVATION
 40
0.0
  9
$THICKNESS
 40
0.0
  9
$LIMCHECK
 70
     0
  9
$BLIPMODE
 70
     0
  9
$CHAMFERA
 40
0.0
  9
$CHAMFERB
 40
0.0
  9
$SKPOLY
 70
     0
  9
$TDCREATE
 40
2449840.6489120368
  9
$TDUPDATE
 40
2456598.6888530669
  9
$TDINDWG
 40
0.0530697338
  9
$TDUSRTIMER
 40
0.0530697338
  9
$USRTIMER
 70
     1
  9
$ANGBASE
 50
0.0
  9
$ANGDIR
 70
     0
  9
$PDMODE
 70
     0
  9
$PDSIZE
 40
0.0
  9
$PLINEWID
 40
0.0
  9
$COORDS
 70
     1
  9
$SPLFRAME
 70
     0
  9
$SPLINETYPE
 70
     6
  9
$SPLINESEGS
 70
     8
  9
$ATTDIA
 70
     0
  9
$ATTREQ
 70
     1
  9
$HANDLING
 70
     1
  9
$HANDSEED
  5
802
  9
$SURFTAB1
 70
     6
  9
$SURFTAB2
 70
     6
  9
$SURFTYPE
 70
     6
  9
$SURFU
 70
     6
  9
$SURFV
 70
     6
  9
$UCSNAME
  2

  9
$UCSORG
 10
0.0
 20
0.0
 30
0.0
  9
$UCSXDIR
 10
1.0
 20
0.0
 30
0.0
  9
$UCSYDIR
 10
0.0
 20
1.0
 30
0.0
  9
$PUCSNAME
  2

  9
$PUCSORG
 10
0.0
 20
0.0
 30
0.0
  9
$PUCSXDIR
 10
1.0
 20
0.0
 30
0.0
  9
$PUCSYDIR
 10
0.0
 20
1.0
 30
0.0
  9
$USERI1
 70
     3
  9
$USERI2
 70
     1
  9
$USERI3
 70
     1
  9
$USERI4
 70
     0
  9
$USERI5
 70
     0
  9
$USERR1
 40
0.5
  9
$USERR2
 40
3.0
  9
$USERR3
 40
3.0
  9
$USERR4
 40
3.0
  9
$USERR5
 40
10.0
  9
$WORLDVIEW
 70
     1
  9
$SHADEDGE
 70
     3
  9
$SHADEDIF
 70
    70
  9
$TILEMODE
 70
     1
  9
$MAXACTVP
 70
    16
  9
$PLIMCHECK
 70
     0
  9
$PEXTMIN
 10
1.0000000000000000E+020
 20
1.0000000000000000E+020
 30
1.0000000000000000E+020
  9
$PEXTMAX
 10
-1.0000000000000000E+020
 20
-1.0000000000000000E+020
 30
-1.0000000000000000E+020
  9
$PLIMMIN
 10
0.0
 20
0.0
  9
$PLIMMAX
 10
12.0
 20
9.0
  9
$UNITMODE
 70
     0
  9
$VISRETAIN
 70
     0
  9
$PLINEGEN
 70
     0
  9
$PSLTSCALE
 70
     0
  0
ENDSEC
  0
SECTION
  2
TABLES
  0
TABLE
  2
VPORT
 70
     1
  0
VPORT
  2
*ACTIVE
 70
     0
 10
0.0
 20
0.0
 11
1.0
 21
1.0
 12
139.50840152015391
 22
159.00873195897731
 13
0.0
 23
0.0
 14
5.0
 24
5.0
 15
5.0
 25
5.0
 16
0.0
 26
0.0
 36
1.0
 17
0.0
 27
0.0
 37
0.0
 40
326.80999762103721
 41
1.7807262569832401
 42
50.0
 43
0.0
 44
0.0
 50
0.0
 51
0.0
 71
     0
 72
   100
 73
     1
 74
     0
 75
     0
 76
     0
 77
     0
 78
     0
  0
ENDTAB
  0
TABLE
  2
LTYPE
 70
     3
  0
LTYPE
  2
CONTINUOUS
 70
     0
  3
Solid Line
 72
    65
 73
     0
 40
0.0
  0
LTYPE
  2
CENTER
 70
     0
  3
____ _ ____ _ ____ _ ____ _ ____ _ ____ _ ____
 72
    65
 73
     4
 40
2.0
 49
1.25
 49
-0.25
 49
0.25
 49
-0.25
  0
LTYPE
  2
PHANTOM2
 70
     0
  3
___ _ _ ___ _ _ ___ _ _ ___ _ _
 72
    65
 73
     6
 40
1.25
 49
0.625
 49
-0.125
 49
0.125
 49
-0.125
 49
0.125
 49
-0.125
  0
ENDTAB
  0
TABLE
  2
LAYER
 70
     3
  0
LAYER
  2
0
 70
     0
 62
     7
  6
CONTINUOUS
  0
LAYER
  2
1
 70
     0
 62
     1
  6
CENTER
  0
LAYER
  2
3
 70
     0
 62
     3
  6
CONTINUOUS
  0
ENDTAB
  0
TABLE
  2
STYLE
 70
     3
  0
STYLE
  2
STANDARD
 70
     0
 40
0.0
 41
1.0
 50
0.0
 71
     0
 42
5.0
  3
TXT
  4
BIGFONT
  0
STYLE
  2
KANJI104
 70
     0
 40
6.0
 41
0.7
 50
0.0
 71
     0
 42
0.2
  3
TXT
  4
BIGFONT
  0
STYLE
  2
STANDARD1
 70
     0
 40
0.0
 41
1.0
 50
0.0
 71
     0
 42
3.0
  3
txt
  4

  0
ENDTAB
  0
TABLE
  2
VIEW
 70
     1
  0
VIEW
  2
ALL
 70
     0
 40
175.0
 10
143.23529400000001
 20
87.5
 41
0.0
 11
0.0
 21
0.0
 31
1.0
 12
0.0
 22
0.0
 32
0.0
 42
0.0
 43
0.0
 44
0.0
 50
0.0
 71
     0
  0
ENDTAB
  0
TABLE
  2
UCS
 70
     0
  0
ENDTAB
  0
TABLE
  2
APPID
 70
     5
  0
APPID
  2
ACAD
 70
     0
  0
APPID
  2
GENIUS_GENODEF_13
 70
     0
  0
APPID
  2
GENIUS_GENOBJ-N-FIL_13
 70
     0
  0
APPID
  2
ACAD_MLEADERVER
 70
     0
  0
APPID
  2
ACAD_NAV_VCDISPLAY
 70
     0
  0
ENDTAB
  0
TABLE
  2
DIMSTYLE
 70
     1
  0
DIMSTYLE
  2
STANDARD
 70
     0
  3

  4

  5

  6

  7

 40
1.0
 41
0.18
 42
0.0625
 43
0.38
 44
0.18
 45
0.0
 46
0.0
 47
0.0
 48
0.0
140
0.18
141
0.09
142
0.0
143
25.399999999999999
144
1.0
145
0.0
146
1.0
147
0.09
 71
     0
 72
     0
 73
     1
 74
     1
 75
     0
 76
     0
 77
     0
 78
     0
170
     0
171
     2
172
     0
173
     0
174
     0
175
     0
176
     0
177
     0
178
     0
  0
ENDTAB
  0
ENDSEC
  0
SECTION
  2
BLOCKS
  0
BLOCK
  8
0
  2
$MODEL_SPACE
 70
     0
 10
0.0
 20
0.0
 30
0.0
  3
$MODEL_SPACE
  1

  0
ENDBLK
  5
118
  8
0
  0
BLOCK
 67
     1
  8
0
  2
$PAPER_SPACE
 70
     0
 10
0.0
 20
0.0
 30
0.0
  3
$PAPER_SPACE
  1

  0
ENDBLK
  5
116
 67
     1
  8
0
  0
ENDSEC
  0
SECTION
  2
ENTITIES
  0
LINE
  5
68F
  8
0
 10
169.01680174103419
 20
96.077981576760294
 30
0.0
 11
169.0168017410343
 21
46.077981576760322
 31
0.0
  0
LINE
  5
690
  8
0
 10
177.01680174103441
 20
96.077981576760294
 30
0.0
 11
177.01680174103441
 21
46.077981576760322
 31
0.0
  0
LINE
  5
691
  8
0
 10
224.01680174103461
 20
132.7779815767602
 30
0.0
 11
274.01680174103461
 21
132.77798157676031
 31
0.0
  0
ARC
  5
692
  8
0
 10
169.31680174103431
 20
133.07798157676029
 30
0.0
 40
0.3
 50
180.00000000000119
 51
270.0
  0
ARC
  5
693
  8
0
 10
176.71680174103429
 20
133.07798157676029
 30
0.0
 40
0.3
 50
270.0
 51
359.99999999999881
  0
ARC
  5
694
  8
0
 10
168.51680174103419
 20
135.57798157676029
 30
0.0
 40
0.5
 50
0.0
 51
90.0
  0
LINE
  5
695
  8
0
 10
155.81680174103431
 20
136.07798157676029
 30
0.0
 11
155.81680174103431
 21
136.07798157676029
 31
0.0
  0
LINE
  5
696
  8
0
 10
168.51680174103419
 20
136.07798157676029
 30
0.0
 11
155.81680174103431
 21
136.07798157676029
 31
0.0
  0
ARC
  5
697
  8
0
 10
177.51680174103441
 20
135.57798157676029
 30
0.0
 40
0.5
 50
90.0
 51
179.99999999999901
  0
LINE
  5
698
  8
0
 10
169.0168017410343
 20
135.57798157676029
 30
0.0
 11
169.0168017410343
 21
133.07798157676029
 31
0.0
  0
LINE
  5
699
  8
0
 10
177.01680174103441
 20
135.57798157676029
 30
0.0
 11
177.01680174103441
 21
133.07798157676029
 31
0.0
  0
LINE
  5
69A
  8
0
 10
169.31680174103431
 20
132.77798157676031
 30
0.0
 11
176.71680174103429
 21
132.77798157676031
 31
0.0
  0
ARC
  5
69B
  8
0
 10
160.31680174103431
 20
140.37798157676019
 30
0.0
 40
0.5
 50
180.0
 51
270.0
  0
LINE
  5
69C
  8
0
 10
159.81680174103431
 20
143.57798157676029
 30
0.0
 11
159.81680174103431
 21
140.37798157676019
 31
0.0
  0
CIRCLE
  5
69D
  8
0
 10
152.81680174103431
 20
143.57798157676029
 30
0.0
 40
4.0
  0
ARC
  5
69E
  8
0
 10
152.81680174103431
 20
143.57798157676029
 30
0.0
 40
7.0
 50
0.0
 51
270.0
  0
LINE
  5
69F
  8
1
 10
152.81680174103431
 20
155.57798157676029
 30
0.0
 11
152.81680174103431
 21
131.57798157676029
 31
0.0
  0
LINE
  5
6A0
  8
1
 10
164.81680174103431
 20
143.57798157676029
 30
0.0
 11
140.81680174103431
 21
143.57798157676029
 31
0.0
  0
LINE
  5
6A1
  8
1
 10
173.01680174103441
 20
142.37798157676019
 30
0.0
 11
173.01680174103441
 21
130.27798157676031
 31
0.0
  0
LINE
  5
6A2
  8
0
 10
177.51680174103441
 20
136.07798157676029
 30
0.0
 11
188.51680174103441
 21
136.07798157676029
 31
0.0
  0
LINE
  5
6A3
  8
0
 10
189.01680174103441
 20
136.57798157676029
 30
0.0
 11
189.01680174103441
 21
139.37798157676019
 31
0.0
  0
LINE
  5
6A4
  8
0
 10
188.51680174103441
 20
139.87798157676019
 30
0.0
 11
160.31680174103431
 21
139.87798157676019
 31
0.0
  0
ARC
  5
6A5
  8
0
 10
188.51680174103441
 20
136.57798157676029
 30
0.0
 40
0.5
 50
270.0
 51
0.0
  0
ARC
  5
6A6
  8
0
 10
188.51680174103441
 20
139.37798157676019
 30
0.0
 40
0.5
 50
0.0
 51
90.0
  0
LINE
  5
6A7
  8
0
 10
152.81680174103431
 20
136.57798157676029
 30
0.0
 11
155.81680174103431
 21
136.07798157676029
 31
0.0
  0
LINE
  5
6A8
  8
0
 10
189.01680174103419
 20
190.57798157676029
 30
0.0
 11
189.01680174103419
 21
240.57798157676029
 31
0.0
  0
LINE
  5
6A9
  8
0
 10
159.81680174103431
 20
190.57798157676029
 30
0.0
 11
159.81680174103431
 21
240.57798157676029
 31
0.0
  0
LINE
  5
6AA
  8
0
 10
145.81680174103431
 20
190.57798157676029
 30
0.0
 11
145.81680174103431
 21
240.57798157676029
 31
0.0
  0
LINE
  5
6AB
  8
0
 10
145.81680174103431
 20
190.57798157676029
 30
0.0
 11
189.01680174103419
 21
190.57798157676029
 31
0.0
  0
LINE
  5
6AC
  8
1
 10
152.81680174103431
 20
245.57798157676029
 30
0.0
 11
152.81680174103431
 21
185.57798157676029
 31
0.0
  0
LINE
  5
6AD
  8
0
 10
145.81680174103431
 20
240.57798157676029
 30
0.0
 11
189.01680174103441
 21
240.57798157676029
 31
0.0
  0
LINE
  5
6AE
  8
0
 10
224.01680174103441
 20
136.07798157676029
 30
0.0
 11
274.01680174103439
 21
136.07798157676029
 31
0.0
  0
LINE
  5
6AF
  8
0
 10
224.01680174103441
 20
150.57798157676029
 30
0.0
 11
274.01680174103439
 21
150.57798157676029
 31
0.0
  0
LINE
  5
6B0
  8
0
 10
224.01680174103441
 20
139.87798157676019
 30
0.0
 11
274.01680174103439
 21
139.87798157676019
 31
0.0
  0
LINE
  5
6B1
  8
0
 10
224.01680174103441
 20
150.57798157676029
 30
0.0
 11
224.01680174103441
 21
132.77798157676031
 31
0.0
  0
LINE
  5
6B2
  8
0
 10
274.01680174103439
 20
150.5779815767601
 30
0.0
 11
274.01680174103439
 21
132.77798157676031
 31
0.0
  0
LINE
  5
6B3
  8
1
 10
219.0168017410345
 20
143.57798157676029
 30
0.0
 11
279.01680174103439
 21
143.57798157676029
 31
0.0
  0
LINE
  5
6B4
  8
1
 10
115.8168017410341
 20
143.57798157676029
 30
0.0
 11
55.816801741034169
 21
143.57798157676029
 31
0.0
  0
LINE
  5
6B5
  8
0
 10
60.816801741034169
 20
150.5779815767601
 30
0.0
 11
60.816801741034169
 21
132.77798157676031
 31
0.0
  0
LINE
  5
6B6
  8
0
 10
110.8168017410341
 20
150.57798157676029
 30
0.0
 11
110.8168017410342
 21
132.77798157676031
 31
0.0
  0
LINE
  5
6B7
  8
0
 10
110.8168017410341
 20
150.57798157676029
 30
0.0
 11
60.816801741034169
 21
150.57798157676029
 31
0.0
  0
LINE
  5
6B8
  8
0
 10
110.8168017410341
 20
136.07798157676029
 30
0.0
 11
60.816801741034169
 21
136.07798157676029
 31
0.0
  0
LINE
  5
6B9
  8
0
 10
145.81680174103431
 20
46.077981576760287
 30
0.0
 11
189.01680174103441
 21
46.077981576760287
 31
0.0
  0
LINE
  5
6BA
  8
1
 10
152.81680174103431
 20
41.077981576760287
 30
0.0
 11
152.81680174103431
 21
101.07798157676029
 31
0.0
  0
LINE
  5
6BB
  8
0
 10
145.81680174103431
 20
96.077981576760294
 30
0.0
 11
189.01680174103419
 21
96.077981576760294
 31
0.0
  0
LINE
  5
6BC
  8
0
 10
145.81680174103431
 20
96.077981576760294
 30
0.0
 11
145.81680174103431
 21
46.077981576760287
 31
0.0
  0
LINE
  5
6BD
  8
0
 10
189.01680174103419
 20
96.077981576760294
 30
0.0
 11
189.01680174103419
 21
46.077981576760287
 31
0.0
  0
LINE
  5
6BE
  8
1
 10
173.01680174103441
 20
245.57798157676029
 30
0.0
 11
173.01680174103441
 21
185.57798157676029
 31
0.0
  0
LINE
  5
6BF
  8
1
 10
173.0168017410345
 20
101.07798157676029
 30
0.0
 11
173.0168017410345
 21
41.077981576760287
 31
0.0
  0
LINE
  5
6C0
  8
3
 10
173.0168017410345
 20
46.077981576760287
 30
0.0
 11
173.0168017410345
 21
96.077981576760294
 31
0.0
  0
LINE
  5
6C2
  8
0
 10
110.8168017410342
 20
132.77798157676031
 30
0.0
 11
60.816801741034169
 21
132.77798157676031
 31
0.0
  0
TEXT
  5
76B
  8
0
 62
     3
 10
0.0
 20
0.0
 30
0.0
 40
10.0
  1
HPF40-3M
  7
STANDARD1
  0
ENDSEC
  0
EOF
