  0
SECTION
  2
HEADER
  9
$ACADVER
  1
AC1009
  9
$INSBASE
 10
0.0
 20
0.0
 30
0.0
  9
$EXTMIN
 10
0.0
 20
-1.4802182810368341
 30
0.0
  9
$EXTMAX
 10
253.13745705931819
 20
142.47559223614709
 30
0.0
  9
$LIMMIN
 10
0.0
 20
0.0
  9
$LIMMAX
 10
385.0
 20
270.0
  9
$ORTHOMODE
 70
     1
  9
$REGENMODE
 70
     1
  9
$FILLMODE
 70
     1
  9
$QTEXTMODE
 70
     0
  9
$MIRRTEXT
 70
     0
  9
$DRAGMODE
 70
     2
  9
$LTSCALE
 40
10.0
  9
$OSMODE
 70
    37
  9
$ATTMODE
 70
     1
  9
$TEXTSIZE
 40
4.000000000000048
  9
$TRACEWID
 40
0.05
  9
$TEXTSTYLE
  7
STANDARD
  9
$CLAYER
  8
0
  9
$CELTYPE
  6
BYLAYER
  9
$CECOLOR
 62
   256
  9
$DIMSCALE
 40
1.0
  9
$DIMASZ
 40
3.0
  9
$DIMEXO
 40
2.0
  9
$DIMDLI
 40
0.38
  9
$DIMRND
 40
0.0
  9
$DIMDLE
 40
0.0
  9
$DIMEXE
 40
2.0
  9
$DIMTP
 40
0.0
  9
$DIMTM
 40
0.0
  9
$DIMTXT
 40
3.0
  9
$DIMCEN
 40
0.0
  9
$DIMTSZ
 40
0.0
  9
$DIMTOL
 70
     0
  9
$DIMLIM
 70
     0
  9
$DIMTIH
 70
     0
  9
$DIMTOH
 70
     0
  9
$DIMSE1
 70
     0
  9
$DIMSE2
 70
     0
  9
$DIMTAD
 70
     1
  9
$DIMZIN
 70
     0
  9
$DIMBLK
  1

  9
$DIMASO
 70
     0
  9
$DIMSHO
 70
     0
  9
$DIMPOST
  1

  9
$DIMAPOST
  1

  9
$DIMALT
 70
     0
  9
$DIMALTD
 70
     2
  9
$DIMALTF
 40
25.399999999999999
  9
$DIMLFAC
 40
1.0
  9
$DIMTOFL
 70
     1
  9
$DIMTVP
 40
1.6000000000000001
  9
$DIMTIX
 70
     1
  9
$DIMSOXD
 70
     0
  9
$DIMSAH
 70
     0
  9
$DIMBLK1
  1

  9
$DIMBLK2
  1

  9
$DIMSTYLE
  2
STANDARD
  9
$DIMCLRD
 70
     0
  9
$DIMCLRE
 70
     0
  9
$DIMCLRT
 70
     0
  9
$DIMTFAC
 40
1.0
  9
$DIMGAP
 40
1.0
  9
$LUNITS
 70
     2
  9
$LUPREC
 70
     4
  9
$SKETCHINC
 40
0.1
  9
$FILLETRAD
 40
0.0
  9
$AUNITS
 70
     0
  9
$AUPREC
 70
     4
  9
$MENU
  1
E:\r13\win\SUPPORT\ACAD
  9
$ELEVATION
 40
0.0
  9
$PELEVATION
 40
0.0
  9
$THICKNESS
 40
0.0
  9
$LIMCHECK
 70
     0
  9
$BLIPMODE
 70
     0
  9
$CHAMFERA
 40
0.0
  9
$CHAMFERB
 40
0.0
  9
$SKPOLY
 70
     0
  9
$TDCREATE
 40
2450280.598206134
  9
$TDUPDATE
 40
2457163.6080620722
  9
$TDINDWG
 40
0.0762834491
  9
$TDUSRTIMER
 40
0.0762834491
  9
$USRTIMER
 70
     1
  9
$ANGBASE
 50
0.0
  9
$ANGDIR
 70
     0
  9
$PDMODE
 70
     0
  9
$PDSIZE
 40
0.0
  9
$PLINEWID
 40
0.0
  9
$COORDS
 70
     1
  9
$SPLFRAME
 70
     0
  9
$SPLINETYPE
 70
     6
  9
$SPLINESEGS
 70
     8
  9
$ATTDIA
 70
     0
  9
$ATTREQ
 70
     1
  9
$HANDLING
 70
     1
  9
$HANDSEED
  5
BDF
  9
$SURFTAB1
 70
     6
  9
$SURFTAB2
 70
     6
  9
$SURFTYPE
 70
     6
  9
$SURFU
 70
     6
  9
$SURFV
 70
     6
  9
$UCSNAME
  2

  9
$UCSORG
 10
0.0
 20
0.0
 30
0.0
  9
$UCSXDIR
 10
1.0
 20
0.0
 30
0.0
  9
$UCSYDIR
 10
0.0
 20
1.0
 30
0.0
  9
$PUCSNAME
  2

  9
$PUCSORG
 10
0.0
 20
0.0
 30
0.0
  9
$PUCSXDIR
 10
1.0
 20
0.0
 30
0.0
  9
$PUCSYDIR
 10
0.0
 20
1.0
 30
0.0
  9
$USERI1
 70
     3
  9
$USERI2
 70
     1
  9
$USERI3
 70
     0
  9
$USERI4
 70
     0
  9
$USERI5
 70
     0
  9
$USERR1
 40
1.0
  9
$USERR2
 40
3.0
  9
$USERR3
 40
3.0
  9
$USERR4
 40
3.0
  9
$USERR5
 40
10.0
  9
$WORLDVIEW
 70
     1
  9
$SHADEDGE
 70
     3
  9
$SHADEDIF
 70
    70
  9
$TILEMODE
 70
     1
  9
$MAXACTVP
 70
    16
  9
$PLIMCHECK
 70
     0
  9
$PEXTMIN
 10
1.0000000000000000E+020
 20
1.0000000000000000E+020
 30
1.0000000000000000E+020
  9
$PEXTMAX
 10
-1.0000000000000000E+020
 20
-1.0000000000000000E+020
 30
-1.0000000000000000E+020
  9
$PLIMMIN
 10
0.0
 20
0.0
  9
$PLIMMAX
 10
12.0
 20
9.0
  9
$UNITMODE
 70
     0
  9
$VISRETAIN
 70
     0
  9
$PLINEGEN
 70
     0
  9
$PSLTSCALE
 70
     0
  0
ENDSEC
  0
SECTION
  2
TABLES
  0
TABLE
  2
VPORT
 70
     1
  0
VPORT
  2
*ACTIVE
 70
     0
 10
0.0
 20
0.0
 11
1.0
 21
1.0
 12
127.7330851937827
 22
70.503501714978924
 13
0.0
 23
0.0
 14
5.0
 24
5.0
 15
10.0
 25
10.0
 16
0.0
 26
0.0
 36
1.0
 17
0.0
 27
0.0
 37
0.0
 40
187.8060420914444
 41
1.368715083798882
 42
50.0
 43
0.0
 44
0.0
 50
0.0
 51
0.0
 71
     0
 72
   500
 73
     1
 74
     0
 75
     0
 76
     0
 77
     0
 78
     2
  0
ENDTAB
  0
TABLE
  2
LTYPE
 70
     4
  0
LTYPE
  2
CONTINUOUS
 70
     0
  3
Solid Line
 72
    65
 73
     0
 40
0.0
  0
LTYPE
  2
CENTER
 70
     0
  3
____ _ ____ _ ____ _ ____ _ ____ _ ____ _ ____
 72
    65
 73
     4
 40
2.0
 49
1.25
 49
-0.25
 49
0.25
 49
-0.25
  0
LTYPE
  2
HIDDEN
 70
     0
  3
_ _ _ _ _ _ _ _ _ _ _ _ _ _ _ _ _ _ _ _ _ _ _
 72
    65
 73
     2
 40
0.375
 49
0.25
 49
-0.125
  0
LTYPE
  2
PHANTOM2
 70
     0
  3
___ _ _ ___ _ _ ___ _ _ ___ _ _
 72
    65
 73
     6
 40
1.25
 49
0.625
 49
-0.125
 49
0.125
 49
-0.125
 49
0.125
 49
-0.125
  0
ENDTAB
  0
TABLE
  2
LAYER
 70
     4
  0
LAYER
  2
0
 70
     0
 62
     7
  6
CONTINUOUS
  0
LAYER
  2
1
 70
     0
 62
     1
  6
CENTER
  0
LAYER
  2
3
 70
     0
 62
     3
  6
CONTINUOUS
  0
LAYER
  2
2
 70
     0
 62
     2
  6
HIDDEN
  0
ENDTAB
  0
TABLE
  2
STYLE
 70
     2
  0
STYLE
  2
STANDARD
 70
     0
 40
0.0
 41
1.0
 50
0.0
 71
     0
 42
4.000000000000048
  3
SIMPLEX
  4
BIGFONT
  0
STYLE
  2
STANDARD1
 70
     0
 40
0.0
 41
1.0
 50
0.0
 71
     0
 42
3.0
  3
txt
  4

  0
ENDTAB
  0
TABLE
  2
VIEW
 70
     0
  0
ENDTAB
  0
TABLE
  2
UCS
 70
     0
  0
ENDTAB
  0
TABLE
  2
APPID
 70
     4
  0
APPID
  2
ACAD
 70
     0
  0
APPID
  2
ACAD_MLEADERVER
 70
     0
  0
APPID
  2
ACAD_NAV_VCDISPLAY
 70
     0
  0
APPID
  2
ACAD_EXEMPT_FROM_CAD_STANDARDS
 70
     0
  0
ENDTAB
  0
TABLE
  2
DIMSTYLE
 70
     2
  0
DIMSTYLE
  2
STANDARD
 70
     0
  3

  4

  5

  6

  7

 40
1.0
 41
0.18
 42
0.0625
 43
0.38
 44
0.18
 45
0.0
 46
0.0
 47
0.0
 48
0.0
140
0.18
141
0.09
142
0.0
143
25.399999999999999
144
1.0
145
0.0
146
1.0
147
0.09
 71
     0
 72
     0
 73
     1
 74
     1
 75
     0
 76
     0
 77
     0
 78
     0
170
     0
171
     2
172
     0
173
     0
174
     0
175
     0
176
     0
177
     0
178
     0
  0
DIMSTYLE
  2
ISO-25
 70
     0
  3

  4

  5

  6

  7

 40
1.0
 41
2.5
 42
0.625
 43
3.75
 44
1.25
 45
0.0
 46
0.0
 47
0.0
 48
0.0
140
2.5
141
2.5
142
0.0
143
0.0393700787
144
1.0
145
0.0
146
1.0
147
0.625
 71
     0
 72
     0
 73
     0
 74
     0
 75
     0
 76
     0
 77
     1
 78
     8
170
     0
171
     3
172
     1
173
     0
174
     0
175
     0
176
     0
177
     0
178
     0
  0
ENDTAB
  0
ENDSEC
  0
SECTION
  2
BLOCKS
  0
BLOCK
  8
0
  2
$MODEL_SPACE
 70
     0
 10
0.0
 20
0.0
 30
0.0
  3
$MODEL_SPACE
  1

  0
ENDBLK
  5
3B1
  8
0
  0
BLOCK
 67
     1
  8
0
  2
$PAPER_SPACE
 70
     0
 10
0.0
 20
0.0
 30
0.0
  3
$PAPER_SPACE
  1

  0
ENDBLK
  5
3AF
 67
     1
  8
0
  0
BLOCK
  8
0
  2
SW_CENTERMARKSYMBOL_0
 70
     0
 10
0.0
 20
0.0
 30
0.0
  3
SW_CENTERMARKSYMBOL_0
  1

  0
LINE
  5
5F9
  8
0
  6
CONTINUOUS
 62
     0
 10
0.0
 20
0.0
 30
0.0
 11
0.0
 21
2.0
 31
0.0
  0
LINE
  5
5FA
  8
0
  6
CONTINUOUS
 62
     0
 10
0.0
 20
0.0
 30
0.0
 11
-2.0
 21
0.0
 31
0.0
  0
LINE
  5
5FB
  8
0
  6
CONTINUOUS
 62
     0
 10
0.0
 20
0.0
 30
0.0
 11
0.0
 21
-2.0
 31
0.0
  0
LINE
  5
5FC
  8
0
  6
CONTINUOUS
 62
     0
 10
0.0
 20
0.0
 30
0.0
 11
2.0
 21
0.0
 31
0.0
  0
LINE
  5
5FD
  8
0
  6
CONTINUOUS
 62
     0
 10
0.0
 20
4.0
 30
0.0
 11
0.0
 21
14.5
 31
0.0
  0
LINE
  5
5FE
  8
0
  6
CONTINUOUS
 62
     0
 10
-4.0
 20
0.0
 30
0.0
 11
-14.5
 21
0.0
 31
0.0
  0
LINE
  5
5FF
  8
0
  6
CONTINUOUS
 62
     0
 10
0.0
 20
-4.0
 30
0.0
 11
0.0
 21
-14.5
 31
0.0
  0
LINE
  5
600
  8
0
  6
CONTINUOUS
 62
     0
 10
4.0
 20
0.0
 30
0.0
 11
14.5
 21
0.0
 31
0.0
  0
ENDBLK
  5
601
  8
0
  0
BLOCK
  8
0
  2
SW_CENTERMARKSYMBOL_1
 70
     0
 10
0.0
 20
0.0
 30
0.0
  3
SW_CENTERMARKSYMBOL_1
  1

  0
LINE
  5
604
  8
0
  6
CONTINUOUS
 62
     0
 10
0.0
 20
0.0
 30
0.0
 11
0.0
 21
2.0
 31
0.0
  0
LINE
  5
605
  8
0
  6
CONTINUOUS
 62
     0
 10
0.0
 20
0.0
 30
0.0
 11
-2.0
 21
0.0
 31
0.0
  0
LINE
  5
606
  8
0
  6
CONTINUOUS
 62
     0
 10
0.0
 20
0.0
 30
0.0
 11
0.0
 21
-2.0
 31
0.0
  0
LINE
  5
607
  8
0
  6
CONTINUOUS
 62
     0
 10
0.0
 20
0.0
 30
0.0
 11
2.0
 21
0.0
 31
0.0
  0
LINE
  5
608
  8
0
  6
CONTINUOUS
 62
     0
 10
0.0
 20
4.0
 30
0.0
 11
0.0
 21
14.5
 31
0.0
  0
LINE
  5
609
  8
0
  6
CONTINUOUS
 62
     0
 10
-4.0
 20
0.0
 30
0.0
 11
-14.5
 21
0.0
 31
0.0
  0
LINE
  5
60A
  8
0
  6
CONTINUOUS
 62
     0
 10
0.0
 20
-4.0
 30
0.0
 11
0.0
 21
-14.5
 31
0.0
  0
LINE
  5
60B
  8
0
  6
CONTINUOUS
 62
     0
 10
4.0
 20
0.0
 30
0.0
 11
14.5
 21
0.0
 31
0.0
  0
ENDBLK
  5
60C
  8
0
  0
ENDSEC
  0
SECTION
  2
ENTITIES
  0
TEXT
  5
5B0
  8
0
 62
     3
 10
0.0
 20
0.0
 30
0.0
 40
5.0
  1
HPNDX12S
  7
STANDARD1
  0
ARC
  5
72F
  8
0
 10
167.34185155587971
 20
56.661433426356631
 30
0.0
 40
1.999999999999984
 50
276.90185434709929
 51
330.4782807048004
  0
ARC
  5
730
  8
0
 10
167.34185155587971
 20
77.690419613456669
 30
0.0
 40
1.999999999999984
 50
29.521719295199588
 51
83.098145652900627
  0
LINE
  5
731
  8
0
 10
167.58218949357979
 20
79.675926519856674
 30
0.0
 11
167.28218949357981
 21
79.675926519856674
 31
0.0
  0
LINE
  5
732
  8
0
 10
167.28218949357981
 20
54.675926519856681
 30
0.0
 11
167.58218949357979
 21
54.675926519856681
 31
0.0
  0
LINE
  5
733
  8
0
 10
167.28218949357981
 20
79.675926519856674
 30
0.0
 11
160.0884881192797
 21
74.175926519856674
 31
0.0
  0
LINE
  5
734
  8
0
 10
160.0884881192797
 20
60.175926519856688
 30
0.0
 11
167.28218949357981
 21
54.675926519856681
 31
0.0
  0
LINE
  5
735
  8
0
 10
160.0884881192797
 20
74.175926519856674
 30
0.0
 11
151.8821894935798
 21
74.175926519856674
 31
0.0
  0
LINE
  5
736
  8
0
 10
151.8821894935798
 20
60.175926519856688
 30
0.0
 11
160.0884881192797
 21
60.175926519856688
 31
0.0
  0
LINE
  5
737
  8
0
 10
151.8821894935798
 20
74.175926519856674
 30
0.0
 11
151.3821894935798
 21
73.675926519856688
 31
0.0
  0
LINE
  5
738
  8
0
 10
151.3821894935798
 20
60.675926519856688
 30
0.0
 11
151.8821894935798
 21
60.175926519856688
 31
0.0
  0
LINE
  5
739
  8
0
 10
143.3821894935798
 20
73.175926519856688
 30
0.0
 11
127.3821894935798
 21
73.175926519856688
 31
0.0
  0
LINE
  5
73A
  8
0
 10
127.3821894936798
 20
61.175926519856688
 30
0.0
 11
143.3821894935798
 21
61.175926519856688
 31
0.0
  0
LINE
  5
73D
  8
0
 10
127.3821894935798
 20
73.175926519856688
 30
0.0
 11
126.3821894935798
 21
72.175926519856674
 31
0.0
  0
LINE
  5
73E
  8
0
 10
126.3821894935798
 20
62.175926519956668
 30
0.0
 11
127.3821894935798
 21
61.175926519956683
 31
0.0
  0
LINE
  5
73F
  8
0
 10
126.3821894935798
 20
72.175926519856674
 30
0.0
 11
123.3821894935798
 21
72.175926519856674
 31
0.0
  0
LINE
  5
740
  8
0
 10
123.3821894935798
 20
62.175926519856681
 30
0.0
 11
126.3821894935798
 21
62.175926519856681
 31
0.0
  0
LINE
  5
745
  8
0
 10
151.3821894935798
 20
74.175926519856674
 30
0.0
 11
150.75697470637971
 21
75.258830296856644
 31
0.0
  0
LINE
  5
746
  8
0
 10
150.75697471507971
 20
59.093022757956618
 30
0.0
 11
151.3821894935798
 21
60.175926519856688
 31
0.0
  0
ARC
  5
747
  8
0
 10
123.1821894935798
 20
64.075926519856722
 30
0.0
 40
0.2000000000000171
 50
0.0
 51
150.00000000000031
  0
ARC
  5
748
  8
0
 10
123.1821894935798
 20
70.275926519856711
 30
0.0
 40
0.2000000000000171
 50
209.99999999999969
 51
0.0
  0
LINE
  5
74E
  8
0
 10
169.08218949357979
 20
55.675926519856688
 30
0.0
 11
169.08218949357979
 21
78.675926519856688
 31
0.0
  0
LINE
  5
74F
  8
0
 10
167.58218949357979
 20
54.675926519856681
 30
0.0
 11
167.58218949357979
 21
79.675926519856674
 31
0.0
  0
LINE
  5
750
  8
0
 10
167.28218949357981
 20
54.675926519856681
 30
0.0
 11
167.28218949357981
 21
79.675926519856674
 31
0.0
  0
LINE
  5
751
  8
0
 10
160.0884881192797
 20
74.175926519856674
 30
0.0
 11
160.0884881192797
 21
60.175926519856688
 31
0.0
  0
LINE
  5
766
  8
0
 10
150.75697470637971
 20
63.134474643956622
 30
0.0
 11
143.3821894935798
 21
63.134474635556643
 31
0.0
  0
LINE
  5
768
  8
0
 10
143.3821894935798
 20
71.217378404256664
 30
0.0
 11
150.75697470637971
 21
71.217378420856633
 31
0.0
  0
ARC
  5
769
  8
0
 10
136.89031722477981
 20
67.003112468756655
 30
0.0
 40
14.49290262686633
 50
0.6832137547963026
 51
16.904740798702271
  0
ARC
  5
76A
  8
0
 10
136.9091820077798
 20
67.345822100656633
 30
0.0
 40
14.47400463563811
 50
343.08459872110012
 51
359.32744782629959
  0
LINE
  5
76B
  8
0
 10
150.75697471507971
 20
59.093022757956618
 30
0.0
 11
143.3821894935798
 21
59.093022751256647
 31
0.0
  0
LINE
  5
76C
  8
0
 10
143.3821894935798
 20
75.258830288556666
 30
0.0
 11
143.3821894935798
 21
59.093022751256647
 31
0.0
  0
ARC
  5
76D
  8
0
 10
147.3175969133797
 20
60.963243401356657
 30
0.0
 40
4.0673781095552632
 50
2.1206012537002601
 51
32.263647150998771
  0
ARC
  5
76E
  8
0
 10
147.3257603960798
 20
61.261728190856637
 30
0.0
 40
4.0591273636466054
 50
327.70498992930141
 51
357.91076281019821
  0
LINE
  5
76F
  8
0
 10
151.3821894935798
 20
74.175926519856674
 30
0.0
 11
151.3821894935798
 21
60.175926519856688
 31
0.0
  0
LINE
  5
771
  8
0
 10
150.75697470637971
 20
75.258830296856644
 30
0.0
 11
143.3821894935798
 21
75.258830288556652
 31
0.0
  0
ARC
  5
772
  8
0
 10
147.31759734737969
 20
73.087599118756629
 30
0.0
 40
4.0673776734876599
 50
2.1206005724985482
 51
32.263648872601927
  0
ARC
  5
773
  8
0
 10
147.3257604239798
 20
73.38608383785666
 30
0.0
 40
4.059127335553546
 50
327.70499025219772
 51
357.91076288049612
  0
LINE
  5
774
  8
0
 10
151.8821894935798
 20
74.175926519856674
 30
0.0
 11
151.8821894935798
 21
60.175926519856688
 31
0.0
  0
LINE
  5
776
  8
0
 10
127.3821894935798
 20
73.175926519856688
 30
0.0
 11
127.3821894935798
 21
61.175926519856688
 31
0.0
  0
LINE
  5
777
  8
0
 10
126.3821894935798
 20
72.175926519856674
 30
0.0
 11
126.3821894935798
 21
62.175926519956668
 31
0.0
  0
LINE
  5
778
  8
0
 10
123.3821894935798
 20
72.175926519856674
 30
0.0
 11
123.3821894935798
 21
62.175926519856681
 31
0.0
  0
LINE
  5
77F
  8
0
 10
123.0089844127798
 20
64.175926519856745
 30
0.0
 11
123.0089844127798
 21
70.175926519856745
 31
0.0
  0
CIRCLE
  5
782
  8
0
 10
235.6388596609182
 20
67.175612474956665
 30
0.0
 40
9.7315923441715526
  0
CIRCLE
  5
783
  8
0
 10
235.63745705931819
 20
67.175926519856716
 30
0.0
 40
11.5
  0
CIRCLE
  5
784
  8
0
 10
235.63745705931819
 20
67.175926519856716
 30
0.0
 40
12.5
  0
CIRCLE
  5
786
  8
0
 10
50.826921927848929
 20
67.175926519856716
 30
0.0
 40
2.424288176485617
  0
CIRCLE
  5
787
  8
0
 10
50.826921927848929
 20
67.175926519856716
 30
0.0
 40
3.0
  0
CIRCLE
  5
78B
  8
0
 10
50.826921927848929
 20
67.175926519856716
 30
0.0
 40
5.0
  0
CIRCLE
  5
78C
  8
0
 10
50.826921927848929
 20
67.175926519856716
 30
0.0
 40
6.0
  0
CIRCLE
  5
79F
  8
0
 10
50.826921927848929
 20
67.175926519856716
 30
0.0
 40
12.5
  0
ARC
  5
7A1
  8
0
 10
167.34185155587971
 20
119.4610991426471
 30
0.0
 40
1.999999999999984
 50
276.90185434709929
 51
330.4782807048004
  0
ARC
  5
7A2
  8
0
 10
167.34185155587971
 20
140.49008532964709
 30
0.0
 40
1.999999999999984
 50
29.521719295199588
 51
83.098145652900627
  0
LINE
  5
7A3
  8
0
 10
167.58218949357979
 20
142.47559223614709
 30
0.0
 11
167.28218949357981
 21
142.47559223614709
 31
0.0
  0
LINE
  5
7A4
  8
0
 10
167.28218949357981
 20
117.47559223614709
 30
0.0
 11
167.58218949357979
 21
117.47559223614709
 31
0.0
  0
LINE
  5
7A5
  8
0
 10
167.28218949357981
 20
142.47559223614709
 30
0.0
 11
160.0884881192797
 21
136.97559223614709
 31
0.0
  0
LINE
  5
7A6
  8
0
 10
160.0884881192797
 20
122.97559223614709
 30
0.0
 11
167.28218949357981
 21
117.47559223614709
 31
0.0
  0
LINE
  5
7A7
  8
0
 10
160.0884881192797
 20
136.97559223614709
 30
0.0
 11
151.8821894935798
 21
136.97559223614709
 31
0.0
  0
LINE
  5
7A8
  8
0
 10
151.8821894935798
 20
122.97559223614709
 30
0.0
 11
160.0884881192797
 21
122.97559223614709
 31
0.0
  0
LINE
  5
7A9
  8
0
 10
151.8821894935798
 20
136.97559223614709
 30
0.0
 11
151.3821894935798
 21
136.47559223614709
 31
0.0
  0
LINE
  5
7AA
  8
0
 10
151.3821894935798
 20
123.47559223614709
 30
0.0
 11
151.8821894935798
 21
122.97559223614709
 31
0.0
  0
LINE
  5
7AB
  8
0
 10
143.3821894935798
 20
135.97559223614709
 30
0.0
 11
127.3821894936798
 21
135.97559223614709
 31
0.0
  0
LINE
  5
7AC
  8
0
 10
127.3821894935798
 20
123.97559223614709
 30
0.0
 11
143.3821894935798
 21
123.97559223614709
 31
0.0
  0
LINE
  5
7AF
  8
0
 10
127.3821894935798
 20
135.97559223604711
 30
0.0
 11
126.3821894935798
 21
134.97559223614709
 31
0.0
  0
LINE
  5
7B0
  8
0
 10
126.3821894935798
 20
124.97559223614709
 30
0.0
 11
127.3821894935798
 21
123.97559223614709
 31
0.0
  0
LINE
  5
7B1
  8
0
 10
126.3821894935798
 20
134.97559223614709
 30
0.0
 11
123.3821894935798
 21
134.97559223614709
 31
0.0
  0
LINE
  5
7B2
  8
0
 10
123.3821894935798
 20
124.97559223614709
 30
0.0
 11
126.3821894935798
 21
124.97559223614709
 31
0.0
  0
ARC
  5
7B3
  8
0
 10
123.1821894935798
 20
126.8755922361471
 30
0.0
 40
0.2000000000000171
 50
0.0
 51
150.00000000000031
  0
ARC
  5
7B4
  8
0
 10
123.1821894935798
 20
133.07559223614709
 30
0.0
 40
0.2000000000000171
 50
209.99999999999969
 51
0.0
  0
LINE
  5
7BB
  8
0
 10
169.08218949357979
 20
118.47559223614709
 30
0.0
 11
169.08218949357979
 21
141.47559223606731
 31
0.0
  0
LINE
  5
7BD
  8
0
 10
167.58218949357979
 20
117.47559223614709
 30
0.0
 11
167.58218949357979
 21
142.47559223613271
 31
0.0
  0
LINE
  5
7BF
  8
0
 10
167.28218949357981
 20
117.47559223614709
 30
0.0
 11
167.28218949357981
 21
142.47559223614709
 31
0.0
  0
LINE
  5
7C0
  8
0
 10
160.08848811927979
 20
136.97559223614709
 30
0.0
 11
160.0884881192797
 21
122.97559223614709
 31
0.0
  0
LINE
  5
7D7
  8
0
 10
151.3821894935798
 20
122.97559223614709
 30
0.0
 11
143.3821894935798
 21
122.97559223614709
 31
0.0
  0
LINE
  5
7D8
  8
0
 10
150.75697471507971
 20
129.97559222454711
 30
0.0
 11
143.3821894935798
 21
129.97559223614709
 31
0.0
  0
ARC
  5
7D9
  8
0
 10
140.3755623226798
 20
126.3152895654471
 30
0.0
 40
11.007794448763701
 50
0.8344079443008322
 51
19.42175026539929
  0
ARC
  5
7DA
  8
0
 10
140.39218889577981
 20
126.6329248317471
 30
0.0
 40
10.99112672504709
 50
340.56403140019933
 51
359.17981096769961
  0
LINE
  5
7DB
  8
0
 10
143.3821894935798
 20
136.97559223614709
 30
0.0
 11
143.3821894935798
 21
122.97559223614709
 31
0.0
  0
LINE
  5
7DC
  8
0
 10
151.3821894935798
 20
136.97559223614709
 30
0.0
 11
143.3821894935798
 21
136.97559223614709
 31
0.0
  0
ARC
  5
7DD
  8
0
 10
140.3755632799797
 20
133.3152896734471
 30
0.0
 40
11.007793489987179
 50
0.8344074549992475
 51
19.42175154480022
  0
ARC
  5
7DE
  8
0
 10
140.3921888440797
 20
133.63292483814709
 30
0.0
 40
10.991126776798479
 50
340.56403118859811
 51
359.17981093819571
  0
LINE
  5
7E1
  8
0
 10
151.8821894935798
 20
136.97559223614709
 30
0.0
 11
151.8821894935798
 21
122.97559223614709
 31
0.0
  0
LINE
  5
7E4
  8
0
 10
151.3821894935798
 20
136.97559223614709
 30
0.0
 11
151.3821894935798
 21
122.97559223614709
 31
0.0
  0
LINE
  5
7E7
  8
0
 10
127.3821894935798
 20
135.97559223614709
 30
0.0
 11
127.3821894935798
 21
123.97559223614709
 31
0.0
  0
LINE
  5
7E9
  8
0
 10
126.3821894935798
 20
134.97559223614701
 30
0.0
 11
126.3821894935798
 21
124.97559223614709
 31
0.0
  0
LINE
  5
7EB
  8
0
 10
123.3821894935798
 20
134.97559223614709
 30
0.0
 11
123.3821894935798
 21
124.97559223614709
 31
0.0
  0
LINE
  5
7ED
  8
0
 10
123.0089844127798
 20
126.97559223614709
 30
0.0
 11
123.0089844127798
 21
132.97559223622179
 31
0.0
  0
ARC
  5
83E
  8
2
 10
181.78218949357981
 20
67.175926519856674
 30
0.0
 40
16.000000000000039
 50
142.56044166870029
 51
217.45124015060159
  0
LINE
  5
858
  8
1
 10
235.63745705931819
 20
49.675926519856723
 30
0.0
 11
235.63745705931819
 21
84.675926519856716
 31
0.0
  0
LINE
  5
859
  8
1
 10
218.13745705931819
 20
67.175926519856716
 30
0.0
 11
253.13745705931819
 21
67.175926519856716
 31
0.0
  0
LINE
  5
85A
  8
1
 10
50.826921927848929
 20
84.675926519856716
 30
0.0
 11
50.826921927848929
 21
49.675926519856723
 31
0.0
  0
LINE
  5
85B
  8
1
 10
68.326921927848957
 20
67.175926519856716
 30
0.0
 11
33.326921927848929
 21
67.175926519856716
 31
0.0
  0
LINE
  5
85C
  8
1
 10
112.7553945743873
 20
67.175926519856745
 30
0.0
 11
174.08218949357979
 21
67.175926519856674
 31
0.0
  0
LINE
  5
861
  8
0
 10
140.3821894935798
 20
123.97559223614959
 30
0.0
 11
140.3821894935798
 21
135.97559223614459
 31
0.0
  0
LINE
  5
863
  8
3
 10
140.3821894935798
 20
135.16359223614171
 30
0.0
 11
141.7886147493229
 21
135.97559223614019
 31
0.0
  0
LINE
  5
865
  8
3
 10
140.3821894935798
 20
124.78759223615251
 30
0.0
 11
141.7886147493229
 21
123.975592236154
 31
0.0
  0
LINE
  5
866
  8
3
 10
126.5701894935744
 20
124.78759223615241
 30
0.0
 11
140.3821894935798
 21
124.78759223615251
 31
0.0
  0
LINE
  5
867
  8
3
 10
126.57018949359311
 20
135.1635922361416
 30
0.0
 11
140.3821894935798
 21
135.16359223614171
 31
0.0
  0
LINE
  5
868
  8
0
 10
140.3821894935798
 20
61.175926519909147
 30
0.0
 11
140.3821894935798
 21
73.175926519904152
 31
0.0
  0
LINE
  5
86A
  8
3
 10
140.3821894935798
 20
72.363926519901284
 30
0.0
 11
141.7886147493229
 21
73.175926519899718
 31
0.0
  0
LINE
  5
86C
  8
3
 10
140.3821894935798
 20
61.987926519912008
 30
0.0
 11
141.7886147493229
 21
61.175926519913581
 31
0.0
  0
LINE
  5
86D
  8
3
 10
126.5701894936244
 20
61.987926519912008
 30
0.0
 11
140.3821894935798
 21
61.987926519912008
 31
0.0
  0
LINE
  5
86E
  8
3
 10
126.5701894936242
 20
72.363926519901113
 30
0.0
 11
140.3821894935798
 21
72.363926519901241
 31
0.0
  0
LINE
  5
86F
  8
0
 10
43.82692192784986
 20
63.13447463553041
 30
0.0
 11
50.82692192784986
 21
59.093022751202291
 31
0.0
  0
LINE
  5
870
  8
0
 10
50.82692192784986
 20
59.093022751202291
 30
0.0
 11
57.826921927848957
 21
63.13447463553041
 31
0.0
  0
LINE
  5
871
  8
0
 10
57.826921927848957
 20
63.13447463553041
 30
0.0
 11
57.826921927848957
 21
71.217378404185752
 31
0.0
  0
LINE
  5
872
  8
0
 10
57.826921927848957
 20
71.217378404185752
 30
0.0
 11
50.826921927848957
 21
75.258830288512058
 31
0.0
  0
LINE
  5
873
  8
0
 10
50.826921927848957
 20
75.258830288512058
 30
0.0
 11
43.826921927848041
 21
71.217378404183933
 31
0.0
  0
LINE
  5
874
  8
0
 10
43.826921927848041
 20
71.217378404183933
 30
0.0
 11
43.82692192784986
 21
63.13447463553041
 31
0.0
  0
CIRCLE
  5
875
  8
3
 10
50.826921927848957
 20
67.175926519856716
 30
0.0
 40
5.1879999999945454
  0
ARC
  5
999
  8
2
 10
181.78218949357981
 20
129.97559223610719
 30
0.0
 40
16.000000000000039
 50
142.56044166870041
 51
217.45124015060151
  0
LINE
  5
9EB
  8
0
 10
119.1821894935798
 20
70.175926519856745
 30
0.0
 11
119.1821894935798
 21
64.175926519856816
 31
0.0
  0
LINE
  5
9EC
  8
0
 10
119.1821894935798
 20
64.175926519856759
 30
0.0
 11
123.0089844127798
 21
64.175926519856745
 31
0.0
  0
LINE
  5
9ED
  8
0
 10
119.1821894935797
 20
70.175926519856759
 30
0.0
 11
123.0089844127798
 21
70.175926519856745
 31
0.0
  0
LINE
  5
9EE
  8
0
 10
117.8011148883819
 20
69.378562724774824
 30
0.0
 11
119.1821894935798
 21
70.175926519856759
 31
0.0
  0
ARC
  5
9EF
  8
0
 10
123.3821894935798
 20
67.175926519856787
 30
0.0
 40
6.0
 50
158.4627507536236
 51
201.537249246377
  0
LINE
  5
9F0
  8
0
 10
117.8011148883819
 20
64.973290314938708
 30
0.0
 11
119.1821894935798
 21
64.175926519856773
 31
0.0
  0
LINE
  5
9F1
  8
0
 10
117.801114888382
 20
64.973290314938708
 30
0.0
 11
117.8011148883819
 21
69.378562724774824
 31
0.0
  0
LINE
  5
9F9
  8
1
 10
112.7553945743873
 20
129.97559223618441
 30
0.0
 11
174.08218949357979
 21
129.97559223618441
 31
0.0
  0
LINE
  5
9FA
  8
0
 10
119.1821894935798
 20
132.97559223618441
 30
0.0
 11
119.1821894935798
 21
126.9755922361845
 31
0.0
  0
LINE
  5
9FB
  8
0
 10
119.1821894935798
 20
126.9755922361845
 30
0.0
 11
123.0089844127798
 21
126.9755922361844
 31
0.0
  0
LINE
  5
9FC
  8
0
 10
119.1821894935797
 20
132.97559223618441
 30
0.0
 11
123.0089844127798
 21
132.97559223618441
 31
0.0
  0
LINE
  5
9FD
  8
0
 10
117.8011148883819
 20
132.1782284411025
 30
0.0
 11
119.1821894935798
 21
132.97559223618441
 31
0.0
  0
ARC
  5
9FE
  8
0
 10
123.3821894935798
 20
129.9755922361845
 30
0.0
 40
6.0
 50
158.4627507536236
 51
201.53724924637689
  0
LINE
  5
9FF
  8
0
 10
117.8011148883819
 20
127.7729560312664
 30
0.0
 11
119.1821894935798
 21
126.9755922361845
 31
0.0
  0
LINE
  5
A00
  8
0
 10
117.801114888382
 20
127.7729560312664
 30
0.0
 11
117.8011148883819
 21
132.1782284411025
 31
0.0
  0
ENDSEC
  0
EOF
