  0
SECTION
  2
HEADER
  9
$ACADVER
  1
AC1009
  9
$INSBASE
 10
0.0
 20
0.0
 30
0.0
  9
$EXTMIN
 10
0.0
 20
-1.4802182810368341
 30
0.0
  9
$EXTMAX
 10
287.23292443019233
 20
182.39676704635829
 30
0.0
  9
$LIMMIN
 10
0.0
 20
0.0
  9
$LIMMAX
 10
385.0
 20
270.0
  9
$ORTHOMODE
 70
     1
  9
$REGENMODE
 70
     1
  9
$FILLMODE
 70
     1
  9
$QTEXTMODE
 70
     0
  9
$MIRRTEXT
 70
     0
  9
$DRAGMODE
 70
     2
  9
$LTSCALE
 40
10.0
  9
$OSMODE
 70
    37
  9
$ATTMODE
 70
     1
  9
$TEXTSIZE
 40
4.000000000000048
  9
$TRACEWID
 40
0.05
  9
$TEXTSTYLE
  7
STANDARD
  9
$CLAYER
  8
0
  9
$CELTYPE
  6
BYLAYER
  9
$CECOLOR
 62
   256
  9
$DIMSCALE
 40
1.0
  9
$DIMASZ
 40
3.0
  9
$DIMEXO
 40
2.0
  9
$DIMDLI
 40
0.38
  9
$DIMRND
 40
0.0
  9
$DIMDLE
 40
0.0
  9
$DIMEXE
 40
2.0
  9
$DIMTP
 40
0.0
  9
$DIMTM
 40
0.0
  9
$DIMTXT
 40
3.0
  9
$DIMCEN
 40
0.0
  9
$DIMTSZ
 40
0.0
  9
$DIMTOL
 70
     0
  9
$DIMLIM
 70
     0
  9
$DIMTIH
 70
     0
  9
$DIMTOH
 70
     0
  9
$DIMSE1
 70
     0
  9
$DIMSE2
 70
     0
  9
$DIMTAD
 70
     1
  9
$DIMZIN
 70
     0
  9
$DIMBLK
  1

  9
$DIMASO
 70
     0
  9
$DIMSHO
 70
     0
  9
$DIMPOST
  1

  9
$DIMAPOST
  1

  9
$DIMALT
 70
     0
  9
$DIMALTD
 70
     2
  9
$DIMALTF
 40
25.399999999999999
  9
$DIMLFAC
 40
1.0
  9
$DIMTOFL
 70
     1
  9
$DIMTVP
 40
1.6000000000000001
  9
$DIMTIX
 70
     1
  9
$DIMSOXD
 70
     0
  9
$DIMSAH
 70
     0
  9
$DIMBLK1
  1

  9
$DIMBLK2
  1

  9
$DIMSTYLE
  2
STANDARD
  9
$DIMCLRD
 70
     0
  9
$DIMCLRE
 70
     0
  9
$DIMCLRT
 70
     0
  9
$DIMTFAC
 40
1.0
  9
$DIMGAP
 40
1.0
  9
$LUNITS
 70
     2
  9
$LUPREC
 70
     4
  9
$SKETCHINC
 40
0.1
  9
$FILLETRAD
 40
0.0
  9
$AUNITS
 70
     0
  9
$AUPREC
 70
     4
  9
$MENU
  1
E:\r13\win\SUPPORT\ACAD
  9
$ELEVATION
 40
0.0
  9
$PELEVATION
 40
0.0
  9
$THICKNESS
 40
0.0
  9
$LIMCHECK
 70
     0
  9
$BLIPMODE
 70
     0
  9
$CHAMFERA
 40
0.0
  9
$CHAMFERB
 40
0.0
  9
$SKPOLY
 70
     0
  9
$TDCREATE
 40
2450280.598206134
  9
$TDUPDATE
 40
2457163.6080730902
  9
$TDINDWG
 40
0.0756742708
  9
$TDUSRTIMER
 40
0.0756742708
  9
$USRTIMER
 70
     1
  9
$ANGBASE
 50
0.0
  9
$ANGDIR
 70
     0
  9
$PDMODE
 70
     0
  9
$PDSIZE
 40
0.0
  9
$PLINEWID
 40
0.0
  9
$COORDS
 70
     1
  9
$SPLFRAME
 70
     0
  9
$SPLINETYPE
 70
     6
  9
$SPLINESEGS
 70
     8
  9
$ATTDIA
 70
     0
  9
$ATTREQ
 70
     1
  9
$HANDLING
 70
     1
  9
$HANDSEED
  5
D6B
  9
$SURFTAB1
 70
     6
  9
$SURFTAB2
 70
     6
  9
$SURFTYPE
 70
     6
  9
$SURFU
 70
     6
  9
$SURFV
 70
     6
  9
$UCSNAME
  2

  9
$UCSORG
 10
0.0
 20
0.0
 30
0.0
  9
$UCSXDIR
 10
1.0
 20
0.0
 30
0.0
  9
$UCSYDIR
 10
0.0
 20
1.0
 30
0.0
  9
$PUCSNAME
  2

  9
$PUCSORG
 10
0.0
 20
0.0
 30
0.0
  9
$PUCSXDIR
 10
1.0
 20
0.0
 30
0.0
  9
$PUCSYDIR
 10
0.0
 20
1.0
 30
0.0
  9
$USERI1
 70
     3
  9
$USERI2
 70
     1
  9
$USERI3
 70
     0
  9
$USERI4
 70
     0
  9
$USERI5
 70
     0
  9
$USERR1
 40
1.0
  9
$USERR2
 40
3.0
  9
$USERR3
 40
3.0
  9
$USERR4
 40
3.0
  9
$USERR5
 40
10.0
  9
$WORLDVIEW
 70
     1
  9
$SHADEDGE
 70
     3
  9
$SHADEDIF
 70
    70
  9
$TILEMODE
 70
     1
  9
$MAXACTVP
 70
    16
  9
$PLIMCHECK
 70
     0
  9
$PEXTMIN
 10
1.0000000000000000E+020
 20
1.0000000000000000E+020
 30
1.0000000000000000E+020
  9
$PEXTMAX
 10
-1.0000000000000000E+020
 20
-1.0000000000000000E+020
 30
-1.0000000000000000E+020
  9
$PLIMMIN
 10
0.0
 20
0.0
  9
$PLIMMAX
 10
12.0
 20
9.0
  9
$UNITMODE
 70
     0
  9
$VISRETAIN
 70
     0
  9
$PLINEGEN
 70
     0
  9
$PSLTSCALE
 70
     0
  0
ENDSEC
  0
SECTION
  2
TABLES
  0
TABLE
  2
VPORT
 70
     1
  0
VPORT
  2
*ACTIVE
 70
     0
 10
0.0
 20
0.0
 11
1.0
 21
1.0
 12
144.94025086183069
 22
90.463055438367306
 13
0.0
 23
0.0
 14
5.0
 24
5.0
 15
10.0
 25
10.0
 16
0.0
 26
0.0
 36
1.0
 17
0.0
 27
0.0
 37
0.0
 40
213.1171731924679
 41
1.368715083798882
 42
50.0
 43
0.0
 44
0.0
 50
0.0
 51
0.0
 71
     0
 72
   500
 73
     1
 74
     0
 75
     0
 76
     0
 77
     0
 78
     2
  0
ENDTAB
  0
TABLE
  2
LTYPE
 70
     4
  0
LTYPE
  2
CONTINUOUS
 70
     0
  3
Solid Line
 72
    65
 73
     0
 40
0.0
  0
LTYPE
  2
CENTER
 70
     0
  3
____ _ ____ _ ____ _ ____ _ ____ _ ____ _ ____
 72
    65
 73
     4
 40
2.0
 49
1.25
 49
-0.25
 49
0.25
 49
-0.25
  0
LTYPE
  2
HIDDEN
 70
     0
  3
_ _ _ _ _ _ _ _ _ _ _ _ _ _ _ _ _ _ _ _ _ _ _
 72
    65
 73
     2
 40
0.375
 49
0.25
 49
-0.125
  0
LTYPE
  2
PHANTOM2
 70
     0
  3
___ _ _ ___ _ _ ___ _ _ ___ _ _
 72
    65
 73
     6
 40
1.25
 49
0.625
 49
-0.125
 49
0.125
 49
-0.125
 49
0.125
 49
-0.125
  0
ENDTAB
  0
TABLE
  2
LAYER
 70
     4
  0
LAYER
  2
0
 70
     0
 62
     7
  6
CONTINUOUS
  0
LAYER
  2
1
 70
     0
 62
     1
  6
CENTER
  0
LAYER
  2
3
 70
     0
 62
     3
  6
CONTINUOUS
  0
LAYER
  2
2
 70
     0
 62
     2
  6
HIDDEN
  0
ENDTAB
  0
TABLE
  2
STYLE
 70
     2
  0
STYLE
  2
STANDARD
 70
     0
 40
0.0
 41
1.0
 50
0.0
 71
     0
 42
4.000000000000048
  3
SIMPLEX
  4
BIGFONT
  0
STYLE
  2
STANDARD1
 70
     0
 40
0.0
 41
1.0
 50
0.0
 71
     0
 42
3.0
  3
txt
  4

  0
ENDTAB
  0
TABLE
  2
VIEW
 70
     0
  0
ENDTAB
  0
TABLE
  2
UCS
 70
     0
  0
ENDTAB
  0
TABLE
  2
APPID
 70
     4
  0
APPID
  2
ACAD
 70
     0
  0
APPID
  2
ACAD_MLEADERVER
 70
     0
  0
APPID
  2
ACAD_EXEMPT_FROM_CAD_STANDARDS
 70
     0
  0
APPID
  2
ACAD_NAV_VCDISPLAY
 70
     0
  0
ENDTAB
  0
TABLE
  2
DIMSTYLE
 70
     2
  0
DIMSTYLE
  2
STANDARD
 70
     0
  3

  4

  5

  6

  7

 40
1.0
 41
0.18
 42
0.0625
 43
0.38
 44
0.18
 45
0.0
 46
0.0
 47
0.0
 48
0.0
140
0.18
141
0.09
142
0.0
143
25.399999999999999
144
1.0
145
0.0
146
1.0
147
0.09
 71
     0
 72
     0
 73
     1
 74
     1
 75
     0
 76
     0
 77
     0
 78
     0
170
     0
171
     2
172
     0
173
     0
174
     0
175
     0
176
     0
177
     0
178
     0
  0
DIMSTYLE
  2
ISO-25
 70
     0
  3

  4

  5

  6

  7

 40
1.0
 41
2.5
 42
0.625
 43
3.75
 44
1.25
 45
0.0
 46
0.0
 47
0.0
 48
0.0
140
2.5
141
2.5
142
0.0
143
0.0393700787
144
1.0
145
0.0
146
1.0
147
0.625
 71
     0
 72
     0
 73
     0
 74
     0
 75
     0
 76
     0
 77
     1
 78
     8
170
     0
171
     3
172
     1
173
     0
174
     0
175
     0
176
     0
177
     0
178
     0
  0
ENDTAB
  0
ENDSEC
  0
SECTION
  2
BLOCKS
  0
BLOCK
  8
0
  2
$MODEL_SPACE
 70
     0
 10
0.0
 20
0.0
 30
0.0
  3
$MODEL_SPACE
  1

  0
ENDBLK
  5
560
  8
0
  0
BLOCK
 67
     1
  8
0
  2
$PAPER_SPACE
 70
     0
 10
0.0
 20
0.0
 30
0.0
  3
$PAPER_SPACE
  1

  0
ENDBLK
  5
55E
 67
     1
  8
0
  0
BLOCK
  8
0
  2
SW_CENTERMARKSYMBOL_0
 70
     0
 10
0.0
 20
0.0
 30
0.0
  3
SW_CENTERMARKSYMBOL_0
  1

  0
LINE
  5
7C7
  8
0
  6
CONTINUOUS
 62
     0
 10
0.0
 20
0.0
 30
0.0
 11
0.0
 21
2.0
 31
0.0
  0
LINE
  5
7C8
  8
0
  6
CONTINUOUS
 62
     0
 10
0.0
 20
0.0
 30
0.0
 11
-2.0
 21
0.0
 31
0.0
  0
LINE
  5
7C9
  8
0
  6
CONTINUOUS
 62
     0
 10
0.0
 20
0.0
 30
0.0
 11
0.0
 21
-2.0
 31
0.0
  0
LINE
  5
7CA
  8
0
  6
CONTINUOUS
 62
     0
 10
0.0
 20
0.0
 30
0.0
 11
2.0
 21
0.0
 31
0.0
  0
LINE
  5
7CB
  8
0
  6
CONTINUOUS
 62
     0
 10
0.0
 20
4.0
 30
0.0
 11
0.0
 21
18.5
 31
0.0
  0
LINE
  5
7CC
  8
0
  6
CONTINUOUS
 62
     0
 10
-4.0
 20
0.0
 30
0.0
 11
-18.5
 21
0.0
 31
0.0
  0
LINE
  5
7CD
  8
0
  6
CONTINUOUS
 62
     0
 10
0.0
 20
-4.0
 30
0.0
 11
0.0
 21
-18.5
 31
0.0
  0
LINE
  5
7CE
  8
0
  6
CONTINUOUS
 62
     0
 10
4.0
 20
0.0
 30
0.0
 11
18.5
 21
0.0
 31
0.0
  0
ENDBLK
  5
7CF
  8
0
  0
BLOCK
  8
0
  2
SW_CENTERMARKSYMBOL_1
 70
     0
 10
0.0
 20
0.0
 30
0.0
  3
SW_CENTERMARKSYMBOL_1
  1

  0
LINE
  5
7D2
  8
0
  6
CONTINUOUS
 62
     0
 10
0.0
 20
0.0
 30
0.0
 11
0.0
 21
2.0
 31
0.0
  0
LINE
  5
7D3
  8
0
  6
CONTINUOUS
 62
     0
 10
0.0
 20
0.0
 30
0.0
 11
-2.0
 21
0.0
 31
0.0
  0
LINE
  5
7D4
  8
0
  6
CONTINUOUS
 62
     0
 10
0.0
 20
0.0
 30
0.0
 11
0.0
 21
-2.0
 31
0.0
  0
LINE
  5
7D5
  8
0
  6
CONTINUOUS
 62
     0
 10
0.0
 20
0.0
 30
0.0
 11
2.0
 21
0.0
 31
0.0
  0
LINE
  5
7D6
  8
0
  6
CONTINUOUS
 62
     0
 10
0.0
 20
4.0
 30
0.0
 11
0.0
 21
18.5
 31
0.0
  0
LINE
  5
7D7
  8
0
  6
CONTINUOUS
 62
     0
 10
-4.0
 20
0.0
 30
0.0
 11
-18.5
 21
0.0
 31
0.0
  0
LINE
  5
7D8
  8
0
  6
CONTINUOUS
 62
     0
 10
0.0
 20
-4.0
 30
0.0
 11
0.0
 21
-18.5
 31
0.0
  0
LINE
  5
7D9
  8
0
  6
CONTINUOUS
 62
     0
 10
4.0
 20
0.0
 30
0.0
 11
18.5
 21
0.0
 31
0.0
  0
ENDBLK
  5
7DA
  8
0
  0
ENDSEC
  0
SECTION
  2
ENTITIES
  0
TEXT
  5
738
  8
0
 62
     3
 10
0.0
 20
0.0
 30
0.0
 40
5.0
  1
HPNDX16S
  7
STANDARD1
  0
ARC
  5
901
  8
0
 10
199.27243386739889
 20
77.65122194198338
 30
0.0
 40
2.5
 50
270.0
 51
323.1301023542016
  0
ARC
  5
902
  8
0
 10
199.27243386739889
 20
105.65122194198329
 30
0.0
 40
2.5
 50
36.869897645798432
 51
90.0
  0
LINE
  5
903
  8
0
 10
199.27243386739889
 20
108.15122194198339
 30
0.0
 11
198.97243386739879
 21
108.15122194198339
 31
0.0
  0
LINE
  5
904
  8
0
 10
198.97243386739879
 20
75.15122194198338
 30
0.0
 11
199.27243386739889
 21
75.15122194198338
 31
0.0
  0
LINE
  5
905
  8
0
 10
198.97243386739879
 20
108.15122194198339
 30
0.0
 11
189.68312011609879
 21
101.15122194198339
 31
0.0
  0
LINE
  5
906
  8
0
 10
189.68312011609879
 20
82.15122194198338
 30
0.0
 11
198.97243386739879
 21
75.15122194198338
 31
0.0
  0
LINE
  5
907
  8
0
 10
189.68312011609879
 20
101.15122194198339
 30
0.0
 11
178.07243386739879
 21
101.15122194198339
 31
0.0
  0
LINE
  5
908
  8
0
 10
178.07243386739879
 20
82.15122194198338
 30
0.0
 11
189.68312011609879
 21
82.15122194198338
 31
0.0
  0
LINE
  5
909
  8
0
 10
178.07243386739879
 20
101.15122194198339
 30
0.0
 11
177.27243386739889
 21
100.3512219419834
 31
0.0
  0
LINE
  5
90A
  8
0
 10
177.27243386739889
 20
82.951221941983405
 30
0.0
 11
178.07243386739879
 21
82.15122194198338
 31
0.0
  0
LINE
  5
90B
  8
0
 10
167.27243386739889
 20
99.651221941983437
 30
0.0
 11
146.52243386739889
 21
99.651221941983437
 31
0.0
  0
LINE
  5
90C
  8
0
 10
146.5224338674989
 20
83.651221941983437
 30
0.0
 11
167.27243386739889
 21
83.651221941983437
 31
0.0
  0
LINE
  5
90F
  8
0
 10
146.52243386739889
 20
99.651221941983437
 30
0.0
 11
145.27243386739889
 21
98.401221941883392
 31
0.0
  0
LINE
  5
910
  8
0
 10
145.27243386739889
 20
84.901221942083424
 30
0.0
 11
146.52243386739889
 21
83.651221942083424
 31
0.0
  0
LINE
  5
911
  8
0
 10
145.27243386739889
 20
98.401221941983437
 30
0.0
 11
141.27243386739889
 21
98.401221941983437
 31
0.0
  0
LINE
  5
912
  8
0
 10
141.27243386739889
 20
84.901221941983437
 30
0.0
 11
145.27243386739889
 21
84.901221941983437
 31
0.0
  0
LINE
  5
917
  8
0
 10
177.27243386739889
 20
101.15122194198339
 30
0.0
 11
176.42392808659889
 21
102.6208770649833
 31
0.0
  0
LINE
  5
918
  8
0
 10
176.42392809519879
 20
80.681566834083384
 30
0.0
 11
177.27243386739889
 21
82.151221941983437
 31
0.0
  0
ARC
  5
919
  8
0
 10
141.07243386739879
 20
87.551221941983414
 30
0.0
 40
0.1999999999999963
 50
0.0
 51
149.99999999999909
  0
ARC
  5
91A
  8
0
 10
141.07243386739879
 20
95.751221941983417
 30
0.0
 40
0.1999999999999963
 50
210.00000000000119
 51
0.0
  0
LINE
  5
920
  8
0
 10
201.27243386739889
 20
76.15122194198338
 30
0.0
 11
201.27243386739889
 21
107.15122194198339
 31
0.0
  0
LINE
  5
921
  8
0
 10
198.97243386739879
 20
75.15122194198338
 30
0.0
 11
198.97243386739879
 21
108.15122194198339
 31
0.0
  0
LINE
  5
922
  8
0
 10
189.68312011609879
 20
101.15122194198339
 30
0.0
 11
189.68312011609879
 21
82.15122194198338
 31
0.0
  0
LINE
  5
937
  8
0
 10
176.42392808659889
 20
86.16639439308338
 30
0.0
 11
167.27243386739889
 21
86.1663943846834
 31
0.0
  0
LINE
  5
939
  8
0
 10
167.27243386739889
 20
97.136049499283416
 30
0.0
 11
176.42392808659889
 21
97.136049515983387
 31
0.0
  0
ARC
  5
93A
  8
0
 10
157.60489260999881
 20
91.416688566883437
 30
0.0
 40
19.668939600706459
 50
0.6832138020961666
 51
16.904740546196759
  0
ARC
  5
93B
  8
0
 10
157.63049510189879
 20
91.881794519583465
 30
0.0
 40
19.643292040364631
 50
343.08459864629799
 51
359.32744781659989
  0
LINE
  5
93C
  8
0
 10
176.42392809519879
 20
80.681566834083384
 30
0.0
 11
167.27243386739889
 21
80.681566827383421
 31
0.0
  0
LINE
  5
93D
  8
0
 10
167.27243386739889
 20
102.6208770565834
 30
0.0
 11
167.27243386739889
 21
80.681566827383421
 31
0.0
  0
ARC
  5
93E
  8
0
 10
171.75620108249879
 20
83.219723426783403
 30
0.0
 40
5.5200131460677158
 50
2.1206012256000979
 51
32.263646932597503
  0
ARC
  5
93F
  8
0
 10
171.7672800869988
 20
83.624809925083383
 30
0.0
 40
5.5088157131006827
 50
327.70498988439959
 51
357.91076280049919
  0
LINE
  5
942
  8
0
 10
176.42392808659889
 20
102.6208770649833
 30
0.0
 11
167.27243386739889
 21
102.6208770565834
 31
0.0
  0
ARC
  5
943
  8
0
 10
171.75620151649881
 20
99.674206163183413
 30
0.0
 40
5.5200127100003957
 50
2.1206007236956639
 51
32.263648201102797
  0
ARC
  5
944
  8
0
 10
171.7672801148988
 20
100.0792925909834
 30
0.0
 40
5.5088156850083827
 50
327.70499012240072
 51
357.91076285220089
  0
LINE
  5
946
  8
0
 10
178.07243386739879
 20
101.15122194198339
 30
0.0
 11
178.07243386739879
 21
82.15122194198338
 31
0.0
  0
LINE
  5
947
  8
0
 10
146.52243386739889
 20
99.651221941983437
 30
0.0
 11
146.52243386739889
 21
83.651221941983437
 31
0.0
  0
LINE
  5
948
  8
0
 10
145.27243386739889
 20
98.401221941883392
 30
0.0
 11
145.27243386739889
 21
84.901221942083424
 31
0.0
  0
LINE
  5
949
  8
0
 10
141.27243386739889
 20
98.401221941983437
 30
0.0
 11
141.27243386739889
 21
84.901221941983437
 31
0.0
  0
LINE
  5
94F
  8
0
 10
177.27243386739889
 20
101.15122194198339
 30
0.0
 11
177.27243386739889
 21
82.151221941983437
 31
0.0
  0
LINE
  5
950
  8
0
 10
140.8992287865988
 20
87.651221941983437
 30
0.0
 11
140.8992287865988
 21
95.651221941983437
 31
0.0
  0
LINE
  5
953
  8
0
 10
199.27243386739889
 20
75.15122194198338
 30
0.0
 11
199.27243386739889
 21
108.15122194198339
 31
0.0
  0
ARC
  5
954
  8
0
 10
199.27243386739889
 20
151.89676704635829
 30
0.0
 40
2.5000000000000142
 50
270.0
 51
323.1301023542016
  0
ARC
  5
955
  8
0
 10
199.27243386739889
 20
179.89676704635829
 30
0.0
 40
2.5000000000000142
 50
36.869897645798432
 51
90.0
  0
LINE
  5
956
  8
0
 10
199.27243386739889
 20
182.39676704635829
 30
0.0
 11
198.97243386739891
 21
182.39676704635829
 31
0.0
  0
LINE
  5
957
  8
0
 10
198.97243386739891
 20
149.39676704635829
 30
0.0
 11
199.27243386739889
 21
149.39676704635829
 31
0.0
  0
LINE
  5
958
  8
0
 10
198.97243386739891
 20
182.39676704635829
 30
0.0
 11
189.68312011609891
 21
175.39676704635829
 31
0.0
  0
LINE
  5
959
  8
0
 10
189.68312011609891
 20
156.39676704635829
 30
0.0
 11
198.97243386739891
 21
149.39676704635829
 31
0.0
  0
LINE
  5
95A
  8
0
 10
178.07243386739879
 20
175.39676704635829
 30
0.0
 11
177.27243386739889
 21
174.59676704635839
 31
0.0
  0
LINE
  5
95B
  8
0
 10
177.27243386739889
 20
157.19676704635839
 30
0.0
 11
178.07243386739879
 21
156.39676704635829
 31
0.0
  0
LINE
  5
95C
  8
0
 10
189.68312011609891
 20
175.39676704635829
 30
0.0
 11
178.07243386739879
 21
175.39676704635829
 31
0.0
  0
LINE
  5
95D
  8
0
 10
178.07243386739879
 20
156.39676704635829
 30
0.0
 11
189.68312011609891
 21
156.39676704635829
 31
0.0
  0
LINE
  5
960
  8
0
 10
167.27243386739889
 20
173.89676704635841
 30
0.0
 11
146.52243386739889
 21
173.89676704635841
 31
0.0
  0
LINE
  5
961
  8
0
 10
146.5224338674989
 20
157.89676704635841
 30
0.0
 11
167.27243386739889
 21
157.89676704635841
 31
0.0
  0
LINE
  5
962
  8
0
 10
146.52243386739889
 20
173.89676704635841
 30
0.0
 11
145.27243386739889
 21
172.64676704625839
 31
0.0
  0
LINE
  5
963
  8
0
 10
145.27243386739889
 20
159.14676704645839
 30
0.0
 11
146.52243386739889
 21
157.89676704645839
 31
0.0
  0
LINE
  5
964
  8
0
 10
145.27243386739889
 20
172.64676704635841
 30
0.0
 11
141.27243386739889
 21
172.64676704635841
 31
0.0
  0
LINE
  5
965
  8
0
 10
141.27243386739889
 20
159.14676704635841
 30
0.0
 11
145.27243386739889
 21
159.14676704635841
 31
0.0
  0
ARC
  5
966
  8
0
 10
141.07243386739879
 20
161.79676704635841
 30
0.0
 40
0.1999999999999892
 50
0.0
 51
149.99999999999909
  0
ARC
  5
967
  8
0
 10
141.07243386739879
 20
169.9967670463584
 30
0.0
 40
0.1999999999999892
 50
210.00000000000051
 51
0.0
  0
LINE
  5
96D
  8
0
 10
201.27243386739889
 20
150.39676704635829
 30
0.0
 11
201.27243386739889
 21
181.39676704635829
 31
0.0
  0
LINE
  5
96E
  8
0
 10
198.97243386739891
 20
149.39676704635829
 30
0.0
 11
198.97243386739891
 21
182.39676704635829
 31
0.0
  0
LINE
  5
96F
  8
0
 10
189.68312011609891
 20
175.39676704635829
 30
0.0
 11
189.68312011609891
 21
156.39676704635829
 31
0.0
  0
LINE
  5
97D
  8
0
 10
167.27243386739889
 20
156.39676704635841
 30
0.0
 11
177.27243386739889
 21
156.39676704635841
 31
0.0
  0
LINE
  5
97E
  8
0
 10
167.2724338673988
 20
175.39676704635841
 30
0.0
 11
167.27243386739889
 21
156.39676704635841
 31
0.0
  0
LINE
  5
97F
  8
0
 10
176.42392808659889
 20
165.89676706085839
 30
0.0
 11
167.27243386739889
 21
165.89676704635841
 31
0.0
  0
ARC
  5
980
  8
0
 10
162.33486862299881
 20
160.92921344425841
 30
0.0
 40
14.939149406865811
 50
0.8344078701010449
 51
19.421750709996541
  0
ARC
  5
981
  8
0
 10
162.35743302789891
 20
161.36028985825831
 30
0.0
 40
14.916529155087851
 50
340.56403131510012
 51
359.17981095579779
  0
ARC
  5
982
  8
0
 10
162.35743302789891
 20
170.86028985825831
 30
0.0
 40
14.916529155086909
 50
340.56403131510012
 51
359.17981095579779
  0
LINE
  5
985
  8
0
 10
177.27243386739889
 20
175.39676704635841
 30
0.0
 11
167.27243386739889
 21
175.39676704635841
 31
0.0
  0
ARC
  5
986
  8
0
 10
162.33486922179881
 20
170.42921351195841
 30
0.0
 40
14.939148807179381
 50
0.8344076437950253
 51
19.421751092998232
  0
LINE
  5
98F
  8
0
 10
178.07243386739879
 20
175.39676704635829
 30
0.0
 11
178.07243386739879
 21
156.39676704635829
 31
0.0
  0
LINE
  5
994
  8
0
 10
146.52243386739889
 20
173.89676704635841
 30
0.0
 11
146.52243386739889
 21
157.89676704635841
 31
0.0
  0
LINE
  5
995
  8
0
 10
145.27243386739889
 20
172.64676704625839
 30
0.0
 11
145.27243386739889
 21
159.14676704645839
 31
0.0
  0
LINE
  5
996
  8
0
 10
141.27243386739889
 20
172.64676704635841
 30
0.0
 11
141.27243386739889
 21
159.14676704635841
 31
0.0
  0
LINE
  5
998
  8
0
 10
140.8992287865988
 20
161.89676704635841
 30
0.0
 11
140.8992287865988
 21
169.89676704635841
 31
0.0
  0
LINE
  5
99C
  8
0
 10
199.27243386739889
 20
149.39676704635829
 30
0.0
 11
199.27243386739889
 21
182.39676704635829
 31
0.0
  0
CIRCLE
  5
99D
  8
0
 10
265.73485111579231
 20
91.650790553683365
 30
0.0
 40
13.36781470877281
  0
CIRCLE
  5
99E
  8
0
 10
265.73292443019233
 20
91.651221941983408
 30
0.0
 40
15.5
  0
CIRCLE
  5
99F
  8
0
 10
265.73292443019233
 20
91.651221941983408
 30
0.0
 40
16.499999999999972
  0
CIRCLE
  5
9A1
  8
0
 10
68.811943304593115
 20
91.651221941983408
 30
0.0
 40
3.1643241573959808
  0
CIRCLE
  5
9A2
  8
0
 10
68.811943304593115
 20
91.651221941983408
 30
0.0
 40
4.0
  0
CIRCLE
  5
9A5
  8
0
 10
68.811943304593115
 20
91.651221941983408
 30
0.0
 40
6.7500000000000266
  0
CIRCLE
  5
9A7
  8
0
 10
68.811943304593115
 20
91.651221941983408
 30
0.0
 40
8.0
  0
CIRCLE
  5
9BA
  8
0
 10
68.811943304593115
 20
91.651221941983408
 30
0.0
 40
16.499999999999972
  0
ARC
  5
A14
  8
2
 10
223.57243386739901
 20
91.651221941983366
 30
0.0
 40
26.000000000000021
 50
149.0696065183007
 51
210.9421373111017
  0
LINE
  5
A31
  8
1
 10
47.311943304593171
 20
91.651221941983408
 30
0.0
 11
90.311943304593044
 21
91.651221941983408
 31
0.0
  0
LINE
  5
A32
  8
1
 10
68.811943304593115
 20
113.15122194198339
 30
0.0
 11
68.811943304593115
 21
70.151221941983437
 31
0.0
  0
LINE
  5
A33
  8
1
 10
265.73292443019233
 20
113.15122194198339
 30
0.0
 11
265.73292443019233
 21
70.151221941983437
 31
0.0
  0
LINE
  5
A34
  8
1
 10
244.2329244301923
 20
91.651221941983408
 30
0.0
 11
287.23292443019233
 21
91.651221941983408
 31
0.0
  0
LINE
  5
A3C
  8
0
 10
59.308018000694211
 20
86.166148857682984
 30
0.0
 11
68.808018000694204
 21
80.681321300380773
 31
0.0
  0
LINE
  5
A3D
  8
0
 10
68.808018000694204
 20
80.681321300380773
 30
0.0
 11
78.308018000693295
 21
86.166148857682984
 31
0.0
  0
LINE
  5
A3E
  8
0
 10
78.308018000693295
 20
86.166148857682984
 30
0.0
 11
78.308018000693295
 21
97.13580397228742
 31
0.0
  0
LINE
  5
A3F
  8
0
 10
78.308018000693295
 20
97.13580397228742
 30
0.0
 11
68.808018000693295
 21
102.62063152958601
 31
0.0
  0
LINE
  5
A40
  8
0
 10
68.808018000693295
 20
102.62063152958601
 30
0.0
 11
59.308018000692392
 21
97.135803972283782
 31
0.0
  0
LINE
  5
A41
  8
0
 10
59.308018000692392
 20
97.135803972283782
 30
0.0
 11
59.308018000694211
 21
86.166148857682984
 31
0.0
  0
CIRCLE
  5
A42
  8
3
 10
68.808018000693181
 20
91.650976414983333
 30
0.0
 40
7.187999999994573
  0
LINE
  5
A47
  8
3
 10
164.27243386739889
 20
173.08476704635021
 30
0.0
 11
145.71043386745561
 21
173.08476704635021
 31
0.0
  0
LINE
  5
A48
  8
3
 10
164.2724338673988
 20
158.70876704636089
 30
0.0
 11
145.7104338674965
 21
158.70876704636069
 31
0.0
  0
LINE
  5
A49
  8
0
 10
164.27243386739889
 20
173.89676704635599
 30
0.0
 11
164.2724338673988
 21
157.89676704635511
 31
0.0
  0
LINE
  5
A4A
  8
3
 10
164.27243386739889
 20
173.08476704635021
 30
0.0
 11
165.6788591231562
 21
173.8967670463567
 31
0.0
  0
LINE
  5
A4B
  8
3
 10
164.27243386739889
 20
158.70876704636089
 30
0.0
 11
165.6788591231562
 21
157.89676704635431
 31
0.0
  0
LINE
  5
A4E
  8
3
 10
164.27243386739889
 20
98.839221941975183
 30
0.0
 11
145.71043386745561
 21
98.839221941975183
 31
0.0
  0
LINE
  5
A4F
  8
3
 10
164.2724338673988
 20
84.463221941985893
 30
0.0
 11
145.7104338674965
 21
84.463221941985765
 31
0.0
  0
LINE
  5
A50
  8
0
 10
164.27243386739889
 20
99.651221941981007
 30
0.0
 11
164.2724338673988
 21
83.651221941980111
 31
0.0
  0
LINE
  5
A51
  8
3
 10
164.27243386739889
 20
98.839221941975183
 30
0.0
 11
165.6788591231562
 21
99.651221941981731
 31
0.0
  0
LINE
  5
A52
  8
3
 10
164.27243386739889
 20
84.463221941985893
 30
0.0
 11
165.6788591231562
 21
83.651221941979344
 31
0.0
  0
LINE
  5
A98
  8
0
 10
177.27243386739889
 20
175.39676704635841
 30
0.0
 11
177.27243386739889
 21
156.39676704635841
 31
0.0
  0
ARC
  5
A9D
  8
2
 10
223.57243386739901
 20
165.89676704635829
 30
0.0
 40
26.000000000000021
 50
149.0696065183003
 51
210.9421373111015
  0
LINE
  5
B38
  8
1
 10
206.27243386739889
 20
165.89676704635841
 30
0.0
 11
128.27243386739889
 21
165.89676704635841
 31
0.0
  0
LINE
  5
B39
  8
0
 10
135.5724338673989
 20
161.89676704635829
 30
0.0
 11
133.86108046183739
 21
162.8848173957378
 31
0.0
  0
LINE
  5
B3A
  8
0
 10
133.86108046183739
 20
168.9087166969789
 30
0.0
 11
133.8610804618375
 21
162.8848173957378
 31
0.0
  0
ARC
  5
B3B
  8
0
 10
141.27243386739889
 20
165.89676704635841
 30
0.0
 40
8.0
 50
157.88333686751659
 51
202.11666313248509
  0
LINE
  5
B3C
  8
0
 10
135.5724338673989
 20
169.89676704635841
 30
0.0
 11
133.86108046183739
 21
168.9087166969789
 31
0.0
  0
LINE
  5
B3D
  8
0
 10
135.5724338673989
 20
169.89676704635841
 30
0.0
 11
140.8992287865988
 21
169.89676704635841
 31
0.0
  0
LINE
  5
B3E
  8
0
 10
135.5724338673989
 20
161.89676704635829
 30
0.0
 11
140.8992287865988
 21
161.89676704635841
 31
0.0
  0
LINE
  5
B3F
  8
0
 10
135.5724338673989
 20
169.89676704635841
 30
0.0
 11
135.5724338673989
 21
161.89676704635829
 31
0.0
  0
LINE
  5
B49
  8
1
 10
206.27243386739889
 20
91.651221941983437
 30
0.0
 11
128.27243386739889
 21
91.651221941983437
 31
0.0
  0
LINE
  5
B4A
  8
0
 10
135.5724338673989
 20
87.651221941983437
 30
0.0
 11
133.86108046183739
 21
88.639272291362914
 31
0.0
  0
LINE
  5
B4B
  8
0
 10
133.86108046183739
 20
94.663171592603959
 30
0.0
 11
133.8610804618375
 21
88.639272291362914
 31
0.0
  0
ARC
  5
B4C
  8
0
 10
141.27243386739889
 20
91.651221941983465
 30
0.0
 40
8.0
 50
157.88333686751659
 51
202.11666313248509
  0
LINE
  5
B4D
  8
0
 10
135.5724338673989
 20
95.651221941983437
 30
0.0
 11
133.86108046183739
 21
94.663171592603959
 31
0.0
  0
LINE
  5
B4E
  8
0
 10
135.5724338673989
 20
95.651221941983437
 30
0.0
 11
140.8992287865988
 21
95.651221941983465
 31
0.0
  0
LINE
  5
B4F
  8
0
 10
135.5724338673989
 20
87.651221941983437
 30
0.0
 11
140.8992287865988
 21
87.651221941983465
 31
0.0
  0
LINE
  5
B50
  8
0
 10
135.5724338673989
 20
95.651221941983437
 30
0.0
 11
135.5724338673989
 21
87.651221941983437
 31
0.0
  0
ENDSEC
  0
EOF
