  0
SECTION
  2
HEADER
  9
$ACADVER
  1
AC1009
  9
$INSBASE
 10
0.0
 20
0.0
 30
0.0
  9
$EXTMIN
 10
0.0
 20
-1.4802182810368341
 30
0.0
  9
$EXTMAX
 10
304.65016195396038
 20
180.96422607125419
 30
0.0
  9
$LIMMIN
 10
0.0
 20
0.0
  9
$LIMMAX
 10
385.0
 20
270.0
  9
$ORTHOMODE
 70
     1
  9
$REGENMODE
 70
     1
  9
$FILLMODE
 70
     1
  9
$QTEXTMODE
 70
     0
  9
$MIRRTEXT
 70
     0
  9
$DRAGMODE
 70
     2
  9
$LTSCALE
 40
10.0
  9
$OSMODE
 70
    37
  9
$ATTMODE
 70
     1
  9
$TEXTSIZE
 40
4.000000000000048
  9
$TRACEWID
 40
0.05
  9
$TEXTSTYLE
  7
STANDARD
  9
$CLAYER
  8
0
  9
$CELTYPE
  6
BYLAYER
  9
$CECOLOR
 62
   256
  9
$DIMSCALE
 40
1.0
  9
$DIMASZ
 40
3.0
  9
$DIMEXO
 40
2.0
  9
$DIMDLI
 40
0.38
  9
$DIMRND
 40
0.0
  9
$DIMDLE
 40
0.0
  9
$DIMEXE
 40
2.0
  9
$DIMTP
 40
0.0
  9
$DIMTM
 40
0.0
  9
$DIMTXT
 40
3.0
  9
$DIMCEN
 40
0.0
  9
$DIMTSZ
 40
0.0
  9
$DIMTOL
 70
     0
  9
$DIMLIM
 70
     0
  9
$DIMTIH
 70
     0
  9
$DIMTOH
 70
     0
  9
$DIMSE1
 70
     0
  9
$DIMSE2
 70
     0
  9
$DIMTAD
 70
     1
  9
$DIMZIN
 70
     0
  9
$DIMBLK
  1

  9
$DIMASO
 70
     0
  9
$DIMSHO
 70
     0
  9
$DIMPOST
  1

  9
$DIMAPOST
  1

  9
$DIMALT
 70
     0
  9
$DIMALTD
 70
     2
  9
$DIMALTF
 40
25.399999999999999
  9
$DIMLFAC
 40
1.0
  9
$DIMTOFL
 70
     1
  9
$DIMTVP
 40
1.6000000000000001
  9
$DIMTIX
 70
     1
  9
$DIMSOXD
 70
     0
  9
$DIMSAH
 70
     0
  9
$DIMBLK1
  1

  9
$DIMBLK2
  1

  9
$DIMSTYLE
  2
STANDARD
  9
$DIMCLRD
 70
     0
  9
$DIMCLRE
 70
     0
  9
$DIMCLRT
 70
     0
  9
$DIMTFAC
 40
1.0
  9
$DIMGAP
 40
1.0
  9
$LUNITS
 70
     2
  9
$LUPREC
 70
     4
  9
$SKETCHINC
 40
0.1
  9
$FILLETRAD
 40
0.0
  9
$AUNITS
 70
     0
  9
$AUPREC
 70
     4
  9
$MENU
  1
E:\r13\win\SUPPORT\ACAD
  9
$ELEVATION
 40
0.0
  9
$PELEVATION
 40
0.0
  9
$THICKNESS
 40
0.0
  9
$LIMCHECK
 70
     0
  9
$BLIPMODE
 70
     0
  9
$CHAMFERA
 40
0.0
  9
$CHAMFERB
 40
0.0
  9
$SKPOLY
 70
     0
  9
$TDCREATE
 40
2450280.598206134
  9
$TDUPDATE
 40
2457163.6080859029
  9
$TDINDWG
 40
0.0983375463
  9
$TDUSRTIMER
 40
0.0983375463
  9
$USRTIMER
 70
     1
  9
$ANGBASE
 50
0.0
  9
$ANGDIR
 70
     0
  9
$PDMODE
 70
     0
  9
$PDSIZE
 40
0.0
  9
$PLINEWID
 40
0.0
  9
$COORDS
 70
     1
  9
$SPLFRAME
 70
     0
  9
$SPLINETYPE
 70
     6
  9
$SPLINESEGS
 70
     8
  9
$ATTDIA
 70
     0
  9
$ATTREQ
 70
     1
  9
$HANDLING
 70
     1
  9
$HANDSEED
  5
EE7
  9
$SURFTAB1
 70
     6
  9
$SURFTAB2
 70
     6
  9
$SURFTYPE
 70
     6
  9
$SURFU
 70
     6
  9
$SURFV
 70
     6
  9
$UCSNAME
  2

  9
$UCSORG
 10
0.0
 20
0.0
 30
0.0
  9
$UCSXDIR
 10
1.0
 20
0.0
 30
0.0
  9
$UCSYDIR
 10
0.0
 20
1.0
 30
0.0
  9
$PUCSNAME
  2

  9
$PUCSORG
 10
0.0
 20
0.0
 30
0.0
  9
$PUCSXDIR
 10
1.0
 20
0.0
 30
0.0
  9
$PUCSYDIR
 10
0.0
 20
1.0
 30
0.0
  9
$USERI1
 70
     3
  9
$USERI2
 70
     1
  9
$USERI3
 70
     0
  9
$USERI4
 70
     0
  9
$USERI5
 70
     0
  9
$USERR1
 40
1.0
  9
$USERR2
 40
3.0
  9
$USERR3
 40
3.0
  9
$USERR4
 40
3.0
  9
$USERR5
 40
10.0
  9
$WORLDVIEW
 70
     1
  9
$SHADEDGE
 70
     3
  9
$SHADEDIF
 70
    70
  9
$TILEMODE
 70
     1
  9
$MAXACTVP
 70
    16
  9
$PLIMCHECK
 70
     0
  9
$PEXTMIN
 10
1.0000000000000000E+020
 20
1.0000000000000000E+020
 30
1.0000000000000000E+020
  9
$PEXTMAX
 10
-1.0000000000000000E+020
 20
-1.0000000000000000E+020
 30
-1.0000000000000000E+020
  9
$PLIMMIN
 10
0.0
 20
0.0
  9
$PLIMMAX
 10
12.0
 20
9.0
  9
$UNITMODE
 70
     0
  9
$VISRETAIN
 70
     0
  9
$PLINEGEN
 70
     0
  9
$PSLTSCALE
 70
     0
  0
ENDSEC
  0
SECTION
  2
TABLES
  0
TABLE
  2
VPORT
 70
     1
  0
VPORT
  2
*ACTIVE
 70
     0
 10
0.0
 20
0.0
 11
1.0
 21
1.0
 12
153.72239899197189
 22
89.745899973673247
 13
0.0
 23
0.0
 14
5.0
 24
5.0
 15
10.0
 25
10.0
 16
0.0
 26
0.0
 36
1.0
 17
0.0
 27
0.0
 37
0.0
 40
226.0461756593472
 41
1.368715083798882
 42
50.0
 43
0.0
 44
0.0
 50
0.0
 51
0.0
 71
     0
 72
   500
 73
     1
 74
     0
 75
     0
 76
     0
 77
     0
 78
     2
  0
ENDTAB
  0
TABLE
  2
LTYPE
 70
     4
  0
LTYPE
  2
CONTINUOUS
 70
     0
  3
Solid Line
 72
    65
 73
     0
 40
0.0
  0
LTYPE
  2
CENTER
 70
     0
  3
____ _ ____ _ ____ _ ____ _ ____ _ ____ _ ____
 72
    65
 73
     4
 40
2.0
 49
1.25
 49
-0.25
 49
0.25
 49
-0.25
  0
LTYPE
  2
HIDDEN
 70
     0
  3
_ _ _ _ _ _ _ _ _ _ _ _ _ _ _ _ _ _ _ _ _ _ _
 72
    65
 73
     2
 40
0.375
 49
0.25
 49
-0.125
  0
LTYPE
  2
PHANTOM2
 70
     0
  3
___ _ _ ___ _ _ ___ _ _ ___ _ _
 72
    65
 73
     6
 40
1.25
 49
0.625
 49
-0.125
 49
0.125
 49
-0.125
 49
0.125
 49
-0.125
  0
ENDTAB
  0
TABLE
  2
LAYER
 70
     4
  0
LAYER
  2
0
 70
     0
 62
     7
  6
CONTINUOUS
  0
LAYER
  2
1
 70
     0
 62
     1
  6
CENTER
  0
LAYER
  2
3
 70
     0
 62
     3
  6
CONTINUOUS
  0
LAYER
  2
2
 70
     0
 62
     2
  6
HIDDEN
  0
ENDTAB
  0
TABLE
  2
STYLE
 70
     2
  0
STYLE
  2
STANDARD
 70
     0
 40
0.0
 41
1.0
 50
0.0
 71
     0
 42
4.000000000000048
  3
SIMPLEX
  4
BIGFONT
  0
STYLE
  2
STANDARD1
 70
     0
 40
0.0
 41
1.0
 50
0.0
 71
     0
 42
3.0
  3
txt
  4

  0
ENDTAB
  0
TABLE
  2
VIEW
 70
     0
  0
ENDTAB
  0
TABLE
  2
UCS
 70
     0
  0
ENDTAB
  0
TABLE
  2
APPID
 70
     4
  0
APPID
  2
ACAD
 70
     0
  0
APPID
  2
ACAD_MLEADERVER
 70
     0
  0
APPID
  2
ACAD_EXEMPT_FROM_CAD_STANDARDS
 70
     0
  0
APPID
  2
ACAD_NAV_VCDISPLAY
 70
     0
  0
ENDTAB
  0
TABLE
  2
DIMSTYLE
 70
     2
  0
DIMSTYLE
  2
STANDARD
 70
     0
  3

  4

  5

  6

  7

 40
1.0
 41
0.18
 42
0.0625
 43
0.38
 44
0.18
 45
0.0
 46
0.0
 47
0.0
 48
0.0
140
0.18
141
0.09
142
0.0
143
25.399999999999999
144
1.0
145
0.0
146
1.0
147
0.09
 71
     0
 72
     0
 73
     1
 74
     1
 75
     0
 76
     0
 77
     0
 78
     0
170
     0
171
     2
172
     0
173
     0
174
     0
175
     0
176
     0
177
     0
178
     0
  0
DIMSTYLE
  2
ISO-25
 70
     0
  3

  4

  5

  6

  7

 40
1.0
 41
2.5
 42
0.625
 43
3.75
 44
1.25
 45
0.0
 46
0.0
 47
0.0
 48
0.0
140
2.5
141
2.5
142
0.0
143
0.0393700787
144
1.0
145
0.0
146
1.0
147
0.625
 71
     0
 72
     0
 73
     0
 74
     0
 75
     0
 76
     0
 77
     1
 78
     8
170
     0
171
     3
172
     1
173
     0
174
     0
175
     0
176
     0
177
     0
178
     0
  0
ENDTAB
  0
ENDSEC
  0
SECTION
  2
BLOCKS
  0
BLOCK
  8
0
  2
$MODEL_SPACE
 70
     0
 10
0.0
 20
0.0
 30
0.0
  3
$MODEL_SPACE
  1

  0
ENDBLK
  5
697
  8
0
  0
BLOCK
 67
     1
  8
0
  2
$PAPER_SPACE
 70
     0
 10
0.0
 20
0.0
 30
0.0
  3
$PAPER_SPACE
  1

  0
ENDBLK
  5
695
 67
     1
  8
0
  0
BLOCK
  8
0
  2
SW_CENTERMARKSYMBOL_0
 70
     0
 10
0.0
 20
0.0
 30
0.0
  3
SW_CENTERMARKSYMBOL_0
  1

  0
LINE
  5
8B6
  8
0
  6
CONTINUOUS
 62
     0
 10
0.0
 20
0.0
 30
0.0
 11
0.0
 21
2.0
 31
0.0
  0
LINE
  5
8B7
  8
0
  6
CONTINUOUS
 62
     0
 10
0.0
 20
0.0
 30
0.0
 11
-2.0
 21
0.0
 31
0.0
  0
LINE
  5
8B8
  8
0
  6
CONTINUOUS
 62
     0
 10
0.0
 20
0.0
 30
0.0
 11
0.0
 21
-2.0
 31
0.0
  0
LINE
  5
8B9
  8
0
  6
CONTINUOUS
 62
     0
 10
0.0
 20
0.0
 30
0.0
 11
2.0
 21
0.0
 31
0.0
  0
LINE
  5
8BA
  8
0
  6
CONTINUOUS
 62
     0
 10
0.0
 20
4.0
 30
0.0
 11
0.0
 21
18.5
 31
0.0
  0
LINE
  5
8BB
  8
0
  6
CONTINUOUS
 62
     0
 10
-4.0
 20
0.0
 30
0.0
 11
-18.5
 21
0.0
 31
0.0
  0
LINE
  5
8BC
  8
0
  6
CONTINUOUS
 62
     0
 10
0.0
 20
-4.0
 30
0.0
 11
0.0
 21
-18.5
 31
0.0
  0
LINE
  5
8BD
  8
0
  6
CONTINUOUS
 62
     0
 10
4.0
 20
0.0
 30
0.0
 11
18.5
 21
0.0
 31
0.0
  0
ENDBLK
  5
8BE
  8
0
  0
BLOCK
  8
0
  2
SW_CENTERMARKSYMBOL_1
 70
     0
 10
0.0
 20
0.0
 30
0.0
  3
SW_CENTERMARKSYMBOL_1
  1

  0
LINE
  5
8C1
  8
0
  6
CONTINUOUS
 62
     0
 10
0.0
 20
0.0
 30
0.0
 11
0.0
 21
2.0
 31
0.0
  0
LINE
  5
8C2
  8
0
  6
CONTINUOUS
 62
     0
 10
0.0
 20
0.0
 30
0.0
 11
-2.0
 21
0.0
 31
0.0
  0
LINE
  5
8C3
  8
0
  6
CONTINUOUS
 62
     0
 10
0.0
 20
0.0
 30
0.0
 11
0.0
 21
-2.0
 31
0.0
  0
LINE
  5
8C4
  8
0
  6
CONTINUOUS
 62
     0
 10
0.0
 20
0.0
 30
0.0
 11
2.0
 21
0.0
 31
0.0
  0
LINE
  5
8C5
  8
0
  6
CONTINUOUS
 62
     0
 10
0.0
 20
4.0
 30
0.0
 11
0.0
 21
18.5
 31
0.0
  0
LINE
  5
8C6
  8
0
  6
CONTINUOUS
 62
     0
 10
-4.0
 20
0.0
 30
0.0
 11
-18.5
 21
0.0
 31
0.0
  0
LINE
  5
8C7
  8
0
  6
CONTINUOUS
 62
     0
 10
0.0
 20
-4.0
 30
0.0
 11
0.0
 21
-18.5
 31
0.0
  0
LINE
  5
8C8
  8
0
  6
CONTINUOUS
 62
     0
 10
4.0
 20
0.0
 30
0.0
 11
18.5
 21
0.0
 31
0.0
  0
ENDBLK
  5
8C9
  8
0
  0
ENDSEC
  0
SECTION
  2
ENTITIES
  0
TEXT
  5
86B
  8
0
 62
     3
 10
0.0
 20
0.0
 30
0.0
 40
5.0
  1
HPNDX20S
  7
STANDARD1
  0
ARC
  5
A04
  8
0
 10
211.17579683208541
 20
85.218646617840065
 30
0.0
 40
2.500000000000016
 50
270.0
 51
323.13010235420222
  0
ARC
  5
A05
  8
0
 10
211.17579683208541
 20
113.21864661784009
 30
0.0
 40
2.5
 50
36.869897645797778
 51
90.0
  0
LINE
  5
A06
  8
0
 10
211.17579683208541
 20
115.71864661784009
 30
0.0
 11
210.87579683208551
 21
115.71864661784009
 31
0.0
  0
LINE
  5
A07
  8
0
 10
210.8757968320854
 20
82.718646617840065
 30
0.0
 11
211.17579683208541
 21
82.718646617840065
 31
0.0
  0
LINE
  5
A08
  8
0
 10
210.87579683208551
 20
115.71864661784009
 30
0.0
 11
201.58648308078551
 21
108.71864661783999
 31
0.0
  0
LINE
  5
A09
  8
0
 10
201.58648308078551
 20
89.718646617840079
 30
0.0
 11
210.8757968320854
 21
82.718646617840065
 31
0.0
  0
LINE
  5
A10
  8
0
 10
189.97579683208539
 20
108.71864661783999
 30
0.0
 11
189.17579683208541
 21
107.9186466178401
 31
0.0
  0
LINE
  5
A11
  8
0
 10
189.17579683208541
 20
90.518646617840091
 30
0.0
 11
189.97579683208539
 21
89.718646617840079
 31
0.0
  0
LINE
  5
A12
  8
0
 10
201.58648308078551
 20
108.71864661783999
 30
0.0
 11
189.97579683208539
 21
108.71864661783999
 31
0.0
  0
LINE
  5
A13
  8
0
 10
189.97579683208539
 20
89.718646617840079
 30
0.0
 11
201.58648308078551
 21
89.718646617840079
 31
0.0
  0
LINE
  5
A1A
  8
0
 10
189.17579683208541
 20
110.21864661784009
 30
0.0
 11
188.19331645508541
 21
111.92035254834001
 31
0.0
  0
LINE
  5
A1B
  8
0
 10
188.19331645508541
 20
86.516940687340067
 30
0.0
 11
189.17579683208541
 21
88.218646617840079
 31
0.0
  0
LINE
  5
A23
  8
0
 10
213.17579683208541
 20
83.718646617840065
 30
0.0
 11
213.17579683208541
 21
114.71864661784009
 31
0.0
  0
LINE
  5
A24
  8
0
 10
210.8757968320854
 20
82.718646617840065
 30
0.0
 11
210.87579683208551
 21
115.71864661784009
 31
0.0
  0
LINE
  5
A25
  8
0
 10
201.58648308078551
 20
108.71864661783999
 30
0.0
 11
201.58648308078551
 21
89.718646617840079
 31
0.0
  0
LINE
  5
A3A
  8
0
 10
188.19331645508541
 20
92.867793665040097
 30
0.0
 11
177.17579683208541
 21
92.867793656740105
 31
0.0
  0
LINE
  5
A3C
  8
0
 10
177.17579683208541
 20
105.5694995789401
 30
0.0
 11
188.19331645508541
 21
105.56949959554009
 31
0.0
  0
ARC
  5
A3D
  8
0
 10
166.40285418158541
 20
98.947081648240101
 30
0.0
 40
22.774561785001701
 50
0.6832138201992652
 51
16.904740449802421
  0
ARC
  5
A3E
  8
0
 10
166.43249929878539
 20
99.48562539354009
 30
0.0
 40
22.7448644831995
 50
343.08459861770223
 51
359.32744781289978
  0
LINE
  5
A3F
  8
0
 10
188.19331645508541
 20
86.516940687340067
 30
0.0
 11
177.17579683208541
 21
86.516940695640145
 31
0.0
  0
ARC
  5
A41
  8
0
 10
182.78857992438549
 20
89.455858864540062
 30
0.0
 40
6.3915941679750068
 50
2.1206012147994602
 51
32.263646849198892
  0
ARC
  5
A42
  8
0
 10
182.8014082698854
 20
89.924906382240067
 30
0.0
 40
6.3786286946814581
 50
327.70499007279841
 51
357.91076284140041
  0
LINE
  5
A45
  8
0
 10
188.19331645508541
 20
111.92035254834001
 30
0.0
 11
177.17579683208541
 21
111.9203525399401
 31
0.0
  0
ARC
  5
A46
  8
0
 10
182.78858035838539
 20
108.5084178122401
 30
0.0
 40
6.3915937319043019
 50
2.1206007813951788
 51
32.263647944798763
  0
ARC
  5
A47
  8
0
 10
182.8014082698854
 20
108.9774652654401
 30
0.0
 40
6.3786286946812716
 50
327.70499007279841
 51
357.91076284140041
  0
LINE
  5
A4B
  8
0
 10
189.97579683208539
 20
108.71864661783999
 30
0.0
 11
189.97579683208539
 21
89.718646617840079
 31
0.0
  0
LINE
  5
A56
  8
0
 10
211.17579683208541
 20
82.718646617840065
 30
0.0
 11
211.17579683208541
 21
115.71864661784009
 31
0.0
  0
ARC
  5
A57
  8
0
 10
211.17579683208541
 20
150.46422607125419
 30
0.0
 40
2.5000000000000142
 50
270.0
 51
323.13010235420091
  0
ARC
  5
A58
  8
0
 10
211.17579683208541
 20
178.46422607125419
 30
0.0
 40
2.5000000000000142
 50
36.869897645797778
 51
90.0
  0
LINE
  5
A59
  8
0
 10
211.17579683208541
 20
180.96422607125419
 30
0.0
 11
210.87579683208551
 21
180.96422607125419
 31
0.0
  0
LINE
  5
A5A
  8
0
 10
210.87579683208551
 20
147.96422607125419
 30
0.0
 11
211.17579683208541
 21
147.96422607125419
 31
0.0
  0
LINE
  5
A5B
  8
0
 10
210.87579683208551
 20
180.96422607125419
 30
0.0
 11
201.58648308078551
 21
173.96422607125419
 31
0.0
  0
LINE
  5
A5C
  8
0
 10
201.58648308078551
 20
154.96422607125419
 30
0.0
 11
210.87579683208551
 21
147.96422607125419
 31
0.0
  0
LINE
  5
A5F
  8
0
 10
177.17579683208541
 20
174.46422607125419
 30
0.0
 11
154.67579683208541
 21
174.46422607125419
 31
0.0
  0
LINE
  5
A60
  8
0
 10
154.67579683208541
 20
154.46422607125419
 30
0.0
 11
177.17579683208541
 21
154.46422607125419
 31
0.0
  0
LINE
  5
A61
  8
0
 10
154.67579683208541
 20
174.46422607125419
 30
0.0
 11
153.17579683208541
 21
172.96422607125419
 31
0.0
  0
LINE
  5
A62
  8
0
 10
153.17579683208541
 20
155.96422607125419
 30
0.0
 11
154.67579683208541
 21
154.46422607125419
 31
0.0
  0
LINE
  5
A63
  8
0
 10
189.97579683208551
 20
173.96422607125419
 30
0.0
 11
189.17579683208541
 21
173.16422607125421
 31
0.0
  0
LINE
  5
A64
  8
0
 10
189.17579683208541
 20
155.7642260712542
 30
0.0
 11
189.97579683208539
 21
154.96422607125419
 31
0.0
  0
LINE
  5
A65
  8
0
 10
201.58648308078551
 20
173.96422607125419
 30
0.0
 11
189.97579683208551
 21
173.96422607125419
 31
0.0
  0
LINE
  5
A66
  8
0
 10
189.97579683208539
 20
154.96422607125419
 30
0.0
 11
201.58648308078551
 21
154.96422607125419
 31
0.0
  0
LINE
  5
A67
  8
0
 10
153.17579683208541
 20
172.96422607125419
 30
0.0
 11
149.17579683208541
 21
172.96422607125419
 31
0.0
  0
LINE
  5
A68
  8
0
 10
149.17579683208541
 20
155.96422607125419
 30
0.0
 11
153.17579683208541
 21
155.96422607125419
 31
0.0
  0
ARC
  5
A69
  8
0
 10
148.97579683208539
 20
159.36422607125419
 30
0.0
 40
0.2000000000000087
 50
0.0
 51
149.9999999999994
  0
ARC
  5
A6A
  8
0
 10
148.97579683208539
 20
169.56422607125421
 30
0.0
 40
0.2000000000000015
 50
210.00000000000051
 51
0.0
  0
LINE
  5
A7D
  8
0
 10
213.17579683208541
 20
148.96422607125419
 30
0.0
 11
213.17579683208541
 21
179.96422607125419
 31
0.0
  0
LINE
  5
A7E
  8
0
 10
210.87579683208551
 20
147.96422607125419
 30
0.0
 11
210.87579683208551
 21
180.96422607125419
 31
0.0
  0
LINE
  5
A7F
  8
0
 10
201.58648308078551
 20
173.96422607125419
 30
0.0
 11
201.58648308078551
 21
154.96422607125419
 31
0.0
  0
ARC
  5
A88
  8
0
 10
171.90579584758541
 20
170.21146301285421
 30
0.0
 40
17.271770613111929
 50
340.56403128260132
 51
359.17981095129619
  0
ARC
  5
A8A
  8
0
 10
171.87966852848541
 20
158.71232188605421
 30
0.0
 40
17.297962597176781
 50
0.8344079113962664
 51
19.4217505897007
  0
LINE
  5
A8B
  8
0
 10
188.19331645508541
 20
164.46422608565419
 30
0.0
 11
177.17579683208541
 21
164.46422607125419
 31
0.0
  0
ARC
  5
A8E
  8
0
 10
171.87966912728541
 20
169.71232195375421
 30
0.0
 40
17.297961997484428
 50
0.8344077160013343
 51
19.421750920501889
  0
ARC
  5
A91
  8
0
 10
171.90579584758541
 20
159.21146301285421
 30
0.0
 40
17.271770613110242
 50
340.56403128260132
 51
359.17981095129619
  0
LINE
  5
A92
  8
0
 10
154.67579683208541
 20
174.46422607125419
 30
0.0
 11
154.67579683208541
 21
154.46422607125419
 31
0.0
  0
LINE
  5
A93
  8
0
 10
153.17579683208541
 20
172.96422607125419
 30
0.0
 11
153.17579683208541
 21
155.96422607125419
 31
0.0
  0
LINE
  5
A98
  8
0
 10
189.97579683208551
 20
173.96422607125419
 30
0.0
 11
189.97579683208539
 21
154.96422607125419
 31
0.0
  0
LINE
  5
A99
  8
0
 10
149.17579683208541
 20
172.96422607125419
 30
0.0
 11
149.17579683208541
 21
155.96422607125419
 31
0.0
  0
LINE
  5
A9B
  8
0
 10
148.80259175138539
 20
159.46422607125419
 30
0.0
 11
148.80259175138539
 21
169.46422607125419
 31
0.0
  0
LINE
  5
A9F
  8
0
 10
211.17579683208541
 20
147.96422607125419
 30
0.0
 11
211.17579683208541
 21
180.96422607125419
 31
0.0
  0
CIRCLE
  5
AA0
  8
0
 10
283.15208863956047
 20
99.218215229540135
 30
0.0
 40
13.36781470877281
  0
CIRCLE
  5
AA1
  8
0
 10
283.15016195396038
 20
99.218646617840079
 30
0.0
 40
15.50000000000003
  0
CIRCLE
  5
AA2
  8
0
 10
283.15016195396038
 20
99.218646617840079
 30
0.0
 40
16.5
  0
CIRCLE
  5
AB0
  8
0
 10
69.201431710224142
 20
99.218646617840079
 30
0.0
 40
3.9205247524599249
  0
CIRCLE
  5
AB1
  8
0
 10
69.201431710224142
 20
99.218646617840079
 30
0.0
 40
5.0
  0
CIRCLE
  5
AB5
  8
0
 10
69.201431710224142
 20
99.218646617840079
 30
0.0
 40
8.5
  0
CIRCLE
  5
AB6
  8
0
 10
69.201431710224142
 20
99.218646617840079
 30
0.0
 40
10.0
  0
ARC
  5
B38
  8
2
 10
235.47579683208551
 20
99.218646617840079
 30
0.0
 40
26.000000000000011
 50
149.0730343140016
 51
210.93491702159861
  0
ARC
  5
B39
  8
2
 10
235.47579683208551
 20
164.46422607125419
 30
0.0
 40
26.000000000000011
 50
149.0730343140016
 51
210.93491702159861
  0
LINE
  5
B47
  8
1
 10
261.65016195396038
 20
99.218646617840079
 30
0.0
 11
304.65016195396038
 21
99.218646617840079
 31
0.0
  0
LINE
  5
B48
  8
1
 10
283.15016195396038
 20
120.71864661784009
 30
0.0
 11
283.15016195396038
 21
77.718646617840065
 31
0.0
  0
LINE
  5
B49
  8
1
 10
47.701431710224142
 20
99.218646617840079
 30
0.0
 11
90.701431710224128
 21
99.218646617840079
 31
0.0
  0
LINE
  5
B4A
  8
1
 10
69.201431710224142
 20
120.71864661784009
 30
0.0
 11
69.201431710224142
 21
77.718646617840065
 31
0.0
  0
LINE
  5
B4B
  8
1
 10
134.17579683208541
 20
164.46422607125419
 30
0.0
 11
218.17579683208541
 21
164.46422607125419
 31
0.0
  0
CIRCLE
  5
B51
  8
3
 10
69.201431710224142
 20
99.218646617840079
 30
0.0
 40
8.6470000000000002
  0
CIRCLE
  5
B52
  8
3
 10
69.201431710224142
 20
99.218646617840079
 30
0.0
 40
8.6469999999999985
  0
LINE
  5
B53
  8
0
 10
58.201431710224142
 20
92.867793656754088
 30
0.0
 11
69.201431710224142
 21
86.516940695668268
 31
0.0
  0
LINE
  5
B54
  8
0
 10
69.201431710224142
 20
86.516940695668268
 30
0.0
 11
80.201431710224142
 21
92.867793656754088
 31
0.0
  0
LINE
  5
B55
  8
0
 10
80.201431710224142
 20
92.867793656754088
 30
0.0
 11
80.201431710224142
 21
105.5694995789259
 31
0.0
  0
LINE
  5
B56
  8
0
 10
80.201431710224142
 20
105.5694995789259
 30
0.0
 11
69.201431710224142
 21
111.92035254001181
 31
0.0
  0
LINE
  5
B57
  8
0
 10
69.201431710224142
 20
111.92035254001181
 30
0.0
 11
58.201431710224142
 21
105.5694995789259
 31
0.0
  0
LINE
  5
B58
  8
0
 10
58.201431710224142
 20
105.5694995789259
 30
0.0
 11
58.201431710224142
 21
92.867793656754088
 31
0.0
  0
LINE
  5
B59
  8
0
 10
174.1757968320855
 20
154.4642260712543
 30
0.0
 11
174.17579683208561
 21
174.46422607125419
 31
0.0
  0
LINE
  5
B5A
  8
3
 10
174.17579683208561
 20
173.11122607125409
 30
0.0
 11
153.3227968320858
 21
173.11122607125461
 31
0.0
  0
LINE
  5
B5B
  8
3
 10
174.1757968320855
 20
173.11122607125409
 30
0.0
 11
176.5192615747263
 21
174.4642260712541
 31
0.0
  0
LINE
  5
B5C
  8
3
 10
174.1757968320855
 20
155.81722607125431
 30
0.0
 11
153.3227968320854
 21
155.81722607125431
 31
0.0
  0
LINE
  5
B5D
  8
3
 10
174.1757968320855
 20
155.81722607125431
 30
0.0
 11
176.5192615747263
 21
154.4642260712543
 31
0.0
  0
LINE
  5
BF8
  8
0
 10
177.17579683208541
 20
111.9203525399401
 30
0.0
 11
177.17579683208541
 21
86.516940695640145
 31
0.0
  0
LINE
  5
BF9
  8
0
 10
189.17579683208541
 20
110.21864661784009
 30
0.0
 11
189.17579683208541
 21
88.218646617840079
 31
0.0
  0
LINE
  5
BFC
  8
0
 10
177.17579683208541
 20
175.46422607125419
 30
0.0
 11
177.17579683208541
 21
153.46422607125419
 31
0.0
  0
LINE
  5
BFD
  8
0
 10
189.17579683208541
 20
175.46422607125419
 30
0.0
 11
189.17579683208541
 21
153.46422607125419
 31
0.0
  0
LINE
  5
C00
  8
0
 10
177.17579683208541
 20
153.46422607125419
 30
0.0
 11
189.17579683208541
 21
153.46422607125419
 31
0.0
  0
LINE
  5
C01
  8
0
 10
177.17579683208541
 20
175.46422607125419
 30
0.0
 11
189.17579683208541
 21
175.46422607125419
 31
0.0
  0
LINE
  5
CDA
  8
0
 10
139.9348623899896
 20
160.6425601207967
 30
0.0
 11
139.93486238998969
 21
168.2858920217119
 31
0.0
  0
ARC
  5
CDB
  8
0
 10
149.17579683208541
 20
164.4642260712543
 30
0.0
 40
10.0
 50
157.5320487330639
 51
202.4679512669361
  0
LINE
  5
CDC
  8
0
 10
141.97579683208539
 20
159.4642260712543
 30
0.0
 11
141.97579683208539
 21
169.46422607125419
 31
0.0
  0
LINE
  5
CDD
  8
0
 10
148.80259175138539
 20
169.46422607125419
 30
0.0
 11
141.97579683208539
 21
169.46422607125419
 31
0.0
  0
LINE
  5
CDE
  8
0
 10
141.97579683208539
 20
169.46422607125419
 30
0.0
 11
139.93486238998969
 21
168.2858920217119
 31
0.0
  0
LINE
  5
CDF
  8
0
 10
148.80259175138551
 20
159.4642260712543
 30
0.0
 11
141.97579683208539
 21
159.4642260712543
 31
0.0
  0
LINE
  5
CE0
  8
0
 10
141.97579683208539
 20
159.4642260712543
 30
0.0
 11
139.93486238998969
 21
160.64256012079659
 31
0.0
  0
LINE
  5
CE9
  8
0
 10
177.17579683208541
 20
109.2186466177901
 30
0.0
 11
154.67579683208541
 21
109.2186466177901
 31
0.0
  0
LINE
  5
CEA
  8
0
 10
154.67579683208541
 20
89.218646617790114
 30
0.0
 11
177.17579683208541
 21
89.218646617790114
 31
0.0
  0
LINE
  5
CEB
  8
0
 10
154.67579683208541
 20
109.2186466177901
 30
0.0
 11
153.17579683208541
 21
107.7186466177901
 31
0.0
  0
LINE
  5
CEC
  8
0
 10
153.17579683208541
 20
90.718646617790114
 30
0.0
 11
154.67579683208541
 21
89.218646617790114
 31
0.0
  0
LINE
  5
CED
  8
0
 10
153.17579683208541
 20
107.7186466177901
 30
0.0
 11
149.17579683208541
 21
107.7186466177901
 31
0.0
  0
LINE
  5
CEE
  8
0
 10
149.17579683208541
 20
90.718646617790114
 30
0.0
 11
153.17579683208541
 21
90.718646617790114
 31
0.0
  0
ARC
  5
CEF
  8
0
 10
148.97579683208539
 20
94.118646617790091
 30
0.0
 40
0.2000000000000087
 50
0.0
 51
149.9999999999992
  0
ARC
  5
CF0
  8
0
 10
148.97579683208539
 20
104.31864661779009
 30
0.0
 40
0.2000000000000015
 50
210.0000000000008
 51
0.0
  0
LINE
  5
CF1
  8
0
 10
154.67579683208541
 20
109.2186466177901
 30
0.0
 11
154.67579683208541
 21
89.218646617790114
 31
0.0
  0
LINE
  5
CF2
  8
0
 10
153.17579683208541
 20
107.7186466177901
 30
0.0
 11
153.17579683208541
 21
90.718646617790114
 31
0.0
  0
LINE
  5
CF3
  8
0
 10
149.17579683208541
 20
107.7186466177901
 30
0.0
 11
149.17579683208541
 21
90.718646617790114
 31
0.0
  0
LINE
  5
CF4
  8
0
 10
148.80259175138539
 20
94.218646617790114
 30
0.0
 11
148.80259175138539
 21
104.2186466177901
 31
0.0
  0
LINE
  5
CF5
  8
1
 10
134.17579683208541
 20
99.218646617790114
 30
0.0
 11
218.17579683208541
 21
99.218646617790114
 31
0.0
  0
LINE
  5
CF6
  8
0
 10
174.1757968320855
 20
89.218646617790156
 30
0.0
 11
174.17579683208561
 21
109.21864661779
 31
0.0
  0
LINE
  5
CF7
  8
3
 10
174.17579683208561
 20
107.86564661779001
 30
0.0
 11
153.3227968320858
 21
107.8656466177905
 31
0.0
  0
LINE
  5
CF8
  8
3
 10
174.1757968320855
 20
107.86564661779001
 30
0.0
 11
176.5192615747263
 21
109.21864661779
 31
0.0
  0
LINE
  5
CF9
  8
3
 10
174.1757968320855
 20
90.571646617790165
 30
0.0
 11
153.3227968320854
 21
90.571646617790165
 31
0.0
  0
LINE
  5
CFA
  8
3
 10
174.1757968320855
 20
90.571646617790165
 30
0.0
 11
176.5192615747263
 21
89.218646617790156
 31
0.0
  0
LINE
  5
CFB
  8
0
 10
139.9348623899896
 20
95.396980667332556
 30
0.0
 11
139.93486238998969
 21
103.0403125682477
 31
0.0
  0
ARC
  5
CFC
  8
0
 10
149.17579683208541
 20
99.218646617790142
 30
0.0
 40
10.0
 50
157.5320487330641
 51
202.4679512669359
  0
LINE
  5
CFD
  8
0
 10
141.97579683208539
 20
94.218646617790156
 30
0.0
 11
141.97579683208539
 21
104.2186466177901
 31
0.0
  0
LINE
  5
CFE
  8
0
 10
148.80259175138539
 20
104.2186466177901
 30
0.0
 11
141.97579683208539
 21
104.2186466177901
 31
0.0
  0
LINE
  5
CFF
  8
0
 10
141.97579683208539
 20
104.2186466177901
 30
0.0
 11
139.93486238998969
 21
103.0403125682478
 31
0.0
  0
LINE
  5
D00
  8
0
 10
148.80259175138551
 20
94.218646617790156
 30
0.0
 11
141.97579683208539
 21
94.218646617790156
 31
0.0
  0
LINE
  5
D01
  8
0
 10
141.97579683208539
 20
94.218646617790156
 30
0.0
 11
139.93486238998969
 21
95.396980667332485
 31
0.0
  0
CIRCLE
  5
E58
  8
0
 10
69.201431710224142
 20
99.218646617840079
 30
0.0
 40
16.5
  0
ENDSEC
  0
EOF
