  0
SECTION
  2
HEADER
  9
$ACADVER
  1
AC1009
  9
$INSBASE
 10
0.0
 20
0.0
 30
0.0
  9
$EXTMIN
 10
0.0
 20
-2.960436562073669
 30
0.0
  9
$EXTMAX
 10
281.71680174103432
 20
245.57798157676021
 30
0.0
  9
$LIMMIN
 10
0.0
 20
0.0
  9
$LIMMAX
 10
195.0
 20
135.0
  9
$ORTHOMODE
 70
     1
  9
$REGENMODE
 70
     1
  9
$FILLMODE
 70
     1
  9
$QTEXTMODE
 70
     0
  9
$MIRRTEXT
 70
     0
  9
$DRAGMODE
 70
     2
  9
$LTSCALE
 40
5.0
  9
$OSMODE
 70
    55
  9
$ATTMODE
 70
     1
  9
$TEXTSIZE
 40
0.2
  9
$TRACEWID
 40
0.05
  9
$TEXTSTYLE
  7
KANJI104
  9
$CLAYER
  8
0
  9
$CELTYPE
  6
BYLAYER
  9
$CECOLOR
 62
   256
  9
$DIMSCALE
 40
0.5
  9
$DIMASZ
 40
3.0
  9
$DIMEXO
 40
2.0
  9
$DIMDLI
 40
0.38
  9
$DIMRND
 40
0.0
  9
$DIMDLE
 40
0.0
  9
$DIMEXE
 40
2.0
  9
$DIMTP
 40
0.0
  9
$DIMTM
 40
0.0
  9
$DIMTXT
 40
3.0
  9
$DIMCEN
 40
0.0
  9
$DIMTSZ
 40
0.0
  9
$DIMTOL
 70
     0
  9
$DIMLIM
 70
     0
  9
$DIMTIH
 70
     0
  9
$DIMTOH
 70
     0
  9
$DIMSE1
 70
     0
  9
$DIMSE2
 70
     0
  9
$DIMTAD
 70
     1
  9
$DIMZIN
 70
     0
  9
$DIMBLK
  1

  9
$DIMASO
 70
     0
  9
$DIMSHO
 70
     0
  9
$DIMPOST
  1

  9
$DIMAPOST
  1

  9
$DIMALT
 70
     0
  9
$DIMALTD
 70
     2
  9
$DIMALTF
 40
25.399999999999999
  9
$DIMLFAC
 40
1.0
  9
$DIMTOFL
 70
     1
  9
$DIMTVP
 40
0.0
  9
$DIMTIX
 70
     1
  9
$DIMSOXD
 70
     0
  9
$DIMSAH
 70
     0
  9
$DIMBLK1
  1

  9
$DIMBLK2
  1

  9
$DIMSTYLE
  2
STANDARD
  9
$DIMCLRD
 70
     0
  9
$DIMCLRE
 70
     0
  9
$DIMCLRT
 70
     0
  9
$DIMTFAC
 40
1.0
  9
$DIMGAP
 40
0.09
  9
$LUNITS
 70
     2
  9
$LUPREC
 70
     4
  9
$SKETCHINC
 40
0.1
  9
$FILLETRAD
 40
0.5
  9
$AUNITS
 70
     0
  9
$AUPREC
 70
     0
  9
$MENU
  1
E:\r13\win\SUPPORT\ACAD
  9
$ELEVATION
 40
0.0
  9
$PELEVATION
 40
0.0
  9
$THICKNESS
 40
0.0
  9
$LIMCHECK
 70
     0
  9
$BLIPMODE
 70
     0
  9
$CHAMFERA
 40
0.0
  9
$CHAMFERB
 40
0.0
  9
$SKPOLY
 70
     0
  9
$TDCREATE
 40
2449840.6489120368
  9
$TDUPDATE
 40
2456598.68900456
  9
$TDINDWG
 40
0.0566845602
  9
$TDUSRTIMER
 40
0.0566845602
  9
$USRTIMER
 70
     1
  9
$ANGBASE
 50
0.0
  9
$ANGDIR
 70
     0
  9
$PDMODE
 70
     0
  9
$PDSIZE
 40
0.0
  9
$PLINEWID
 40
0.0
  9
$COORDS
 70
     1
  9
$SPLFRAME
 70
     0
  9
$SPLINETYPE
 70
     6
  9
$SPLINESEGS
 70
     8
  9
$ATTDIA
 70
     0
  9
$ATTREQ
 70
     1
  9
$HANDLING
 70
     1
  9
$HANDSEED
  5
8D3
  9
$SURFTAB1
 70
     6
  9
$SURFTAB2
 70
     6
  9
$SURFTYPE
 70
     6
  9
$SURFU
 70
     6
  9
$SURFV
 70
     6
  9
$UCSNAME
  2

  9
$UCSORG
 10
0.0
 20
0.0
 30
0.0
  9
$UCSXDIR
 10
1.0
 20
0.0
 30
0.0
  9
$UCSYDIR
 10
0.0
 20
1.0
 30
0.0
  9
$PUCSNAME
  2

  9
$PUCSORG
 10
0.0
 20
0.0
 30
0.0
  9
$PUCSXDIR
 10
1.0
 20
0.0
 30
0.0
  9
$PUCSYDIR
 10
0.0
 20
1.0
 30
0.0
  9
$USERI1
 70
     3
  9
$USERI2
 70
     1
  9
$USERI3
 70
     1
  9
$USERI4
 70
     0
  9
$USERI5
 70
     0
  9
$USERR1
 40
0.5
  9
$USERR2
 40
3.0
  9
$USERR3
 40
3.0
  9
$USERR4
 40
3.0
  9
$USERR5
 40
10.0
  9
$WORLDVIEW
 70
     1
  9
$SHADEDGE
 70
     3
  9
$SHADEDIF
 70
    70
  9
$TILEMODE
 70
     1
  9
$MAXACTVP
 70
    16
  9
$PLIMCHECK
 70
     0
  9
$PEXTMIN
 10
1.0000000000000000E+020
 20
1.0000000000000000E+020
 30
1.0000000000000000E+020
  9
$PEXTMAX
 10
-1.0000000000000000E+020
 20
-1.0000000000000000E+020
 30
-1.0000000000000000E+020
  9
$PLIMMIN
 10
0.0
 20
0.0
  9
$PLIMMAX
 10
12.0
 20
9.0
  9
$UNITMODE
 70
     0
  9
$VISRETAIN
 70
     0
  9
$PLINEGEN
 70
     0
  9
$PSLTSCALE
 70
     0
  0
ENDSEC
  0
SECTION
  2
TABLES
  0
TABLE
  2
VPORT
 70
     1
  0
VPORT
  2
*ACTIVE
 70
     0
 10
0.0
 20
0.0
 11
1.0
 21
1.0
 12
140.85840152644019
 22
159.00873195897719
 13
0.0
 23
0.0
 14
5.0
 24
5.0
 15
5.0
 25
5.0
 16
0.0
 26
0.0
 36
1.0
 17
0.0
 27
0.0
 37
0.0
 40
326.80999762103721
 41
1.7807262569832401
 42
50.0
 43
0.0
 44
0.0
 50
0.0
 51
0.0
 71
     0
 72
   100
 73
     1
 74
     0
 75
     0
 76
     0
 77
     0
 78
     0
  0
ENDTAB
  0
TABLE
  2
LTYPE
 70
     3
  0
LTYPE
  2
CONTINUOUS
 70
     0
  3
Solid Line
 72
    65
 73
     0
 40
0.0
  0
LTYPE
  2
CENTER
 70
     0
  3
____ _ ____ _ ____ _ ____ _ ____ _ ____ _ ____
 72
    65
 73
     4
 40
2.0
 49
1.25
 49
-0.25
 49
0.25
 49
-0.25
  0
LTYPE
  2
PHANTOM2
 70
     0
  3
___ _ _ ___ _ _ ___ _ _ ___ _ _
 72
    65
 73
     6
 40
1.25
 49
0.625
 49
-0.125
 49
0.125
 49
-0.125
 49
0.125
 49
-0.125
  0
ENDTAB
  0
TABLE
  2
LAYER
 70
     3
  0
LAYER
  2
0
 70
     0
 62
     7
  6
CONTINUOUS
  0
LAYER
  2
1
 70
     0
 62
     1
  6
CENTER
  0
LAYER
  2
3
 70
     0
 62
     3
  6
CONTINUOUS
  0
ENDTAB
  0
TABLE
  2
STYLE
 70
     3
  0
STYLE
  2
STANDARD
 70
     0
 40
0.0
 41
1.0
 50
0.0
 71
     0
 42
5.0
  3
TXT
  4
BIGFONT
  0
STYLE
  2
KANJI104
 70
     0
 40
6.0
 41
0.7
 50
0.0
 71
     0
 42
0.2
  3
TXT
  4
BIGFONT
  0
STYLE
  2
STANDARD1
 70
     0
 40
0.0
 41
1.0
 50
0.0
 71
     0
 42
3.0
  3
txt
  4

  0
ENDTAB
  0
TABLE
  2
VIEW
 70
     1
  0
VIEW
  2
ALL
 70
     0
 40
175.0
 10
143.23529400000001
 20
87.5
 41
0.0
 11
0.0
 21
0.0
 31
1.0
 12
0.0
 22
0.0
 32
0.0
 42
0.0
 43
0.0
 44
0.0
 50
0.0
 71
     0
  0
ENDTAB
  0
TABLE
  2
UCS
 70
     0
  0
ENDTAB
  0
TABLE
  2
APPID
 70
     6
  0
APPID
  2
ACAD
 70
     0
  0
APPID
  2
GENIUS_GENODEF_13
 70
     0
  0
APPID
  2
GENIUS_GENOBJ-N-FIL_13
 70
     0
  0
APPID
  2
ACAD_MLEADERVER
 70
     0
  0
APPID
  2
ACAD_NAV_VCDISPLAY
 70
     0
  0
APPID
  2
ACAD_PSEXT
 70
     0
  0
ENDTAB
  0
TABLE
  2
DIMSTYLE
 70
     1
  0
DIMSTYLE
  2
STANDARD
 70
     0
  3

  4

  5

  6

  7

 40
1.0
 41
0.18
 42
0.0625
 43
0.38
 44
0.18
 45
0.0
 46
0.0
 47
0.0
 48
0.0
140
0.18
141
0.09
142
0.0
143
25.399999999999999
144
1.0
145
0.0
146
1.0
147
0.09
 71
     0
 72
     0
 73
     1
 74
     1
 75
     0
 76
     0
 77
     0
 78
     0
170
     0
171
     2
172
     0
173
     0
174
     0
175
     0
176
     0
177
     0
178
     0
  0
ENDTAB
  0
ENDSEC
  0
SECTION
  2
BLOCKS
  0
BLOCK
  8
0
  2
$MODEL_SPACE
 70
     0
 10
0.0
 20
0.0
 30
0.0
  3
$MODEL_SPACE
  1

  0
ENDBLK
  5
118
  8
0
  0
BLOCK
 67
     1
  8
0
  2
$PAPER_SPACE
 70
     0
 10
0.0
 20
0.0
 30
0.0
  3
$PAPER_SPACE
  1

  0
ENDBLK
  5
116
 67
     1
  8
0
  0
ENDSEC
  0
SECTION
  2
ENTITIES
  0
LINE
  5
6C9
  8
0
 10
226.7168017410344
 20
138.2779815767604
 30
0.0
 11
276.71680174103437
 21
138.27798157676079
 31
0.0
  0
LINE
  5
6CA
  8
0
 10
110.8168017410341
 20
150.57798157676029
 30
0.0
 11
60.816801741034169
 21
150.57798157676029
 31
0.0
  0
LINE
  5
6CB
  8
0
 10
110.8168017410341
 20
150.57798157676029
 30
0.0
 11
110.8168017410341
 21
136.57798157676061
 31
0.0
  0
LINE
  5
6CC
  8
0
 10
60.816801741034169
 20
150.5779815767601
 30
0.0
 11
60.816801741034048
 21
136.57798157676089
 31
0.0
  0
LINE
  5
6CD
  8
1
 10
115.8168017410341
 20
143.57798157676029
 30
0.0
 11
55.816801741034169
 21
143.57798157676029
 31
0.0
  0
LINE
  5
6CE
  8
0
 10
110.8168017410341
 20
136.57798157676061
 30
0.0
 11
60.816801741034048
 21
136.57798157676089
 31
0.0
  0
LINE
  5
6CF
  8
0
 10
157.29919441830481
 20
96.577981576760621
 30
0.0
 11
157.29919441830481
 21
46.577981576760713
 31
0.0
  0
LINE
  5
6D0
  8
0
 10
143.51680174103419
 20
96.577981576760664
 30
0.0
 11
143.51680174103419
 21
46.577981576760664
 31
0.0
  0
LINE
  5
6D1
  8
0
 10
143.51680174103419
 20
96.577981576760664
 30
0.0
 11
194.0168017410343
 21
96.577981576760664
 31
0.0
  0
LINE
  5
6D2
  8
0
 10
143.51680174103419
 20
46.577981576760713
 30
0.0
 11
194.01680174103419
 21
46.577981576760713
 31
0.0
  0
LINE
  5
6D3
  8
0
 10
194.01680174103419
 20
96.577981576760664
 30
0.0
 11
194.01680174103419
 21
46.577981576760713
 31
0.0
  0
LINE
  5
6D4
  8
0
 10
157.36103703118641
 20
190.57798157676021
 30
0.0
 11
157.36103703118661
 21
240.57798157676029
 31
0.0
  0
LINE
  5
6D5
  8
0
 10
194.01680174103419
 20
190.57798157676029
 30
0.0
 11
194.01680174103419
 21
240.57798157676029
 31
0.0
  0
LINE
  5
6D6
  8
0
 10
226.71680174103429
 20
136.57798157676061
 30
0.0
 11
276.71680174103437
 21
136.57798157676089
 31
0.0
  0
LINE
  5
6D7
  8
0
 10
226.7168017410344
 20
141.57798157676041
 30
0.0
 11
276.71680174103437
 21
141.57798157676081
 31
0.0
  0
LINE
  5
6D8
  8
0
 10
226.71680174103429
 20
145.3779815767605
 30
0.0
 11
276.71680174103432
 21
145.37798157676079
 31
0.0
  0
LINE
  5
6DB
  8
3
 10
178.0168017410337
 20
46.577981576760664
 30
0.0
 11
178.0168017410337
 21
96.57798157676072
 31
0.0
  0
LINE
  5
6DC
  8
1
 10
178.0168017410337
 20
101.57798157676061
 30
0.0
 11
178.0168017410337
 21
41.577981576760664
 31
0.0
  0
LINE
  5
6DD
  8
1
 10
178.01680174103419
 20
245.57798157676021
 30
0.0
 11
178.01680174103419
 21
185.57798157676021
 31
0.0
  0
LINE
  5
6DE
  8
1
 10
150.5168017410343
 20
41.577981576760713
 30
0.0
 11
150.5168017410343
 21
101.57798157676071
 31
0.0
  0
LINE
  5
6DF
  8
1
 10
221.7168017410342
 20
143.57798157676029
 30
0.0
 11
281.71680174103432
 21
143.57798157676029
 31
0.0
  0
LINE
  5
6E0
  8
0
 10
276.71680174103432
 20
150.5779815767601
 30
0.0
 11
276.71680174103437
 21
136.57798157676089
 31
0.0
  0
LINE
  5
6E1
  8
0
 10
226.71680174103429
 20
150.57798157676029
 30
0.0
 11
226.71680174103429
 21
136.57798157676061
 31
0.0
  0
LINE
  5
6E2
  8
0
 10
226.71680174103429
 20
150.57798157676029
 30
0.0
 11
276.71680174103432
 21
150.57798157676029
 31
0.0
  0
LINE
  5
6E3
  8
0
 10
143.51680174103419
 20
240.57798157676029
 30
0.0
 11
194.01680174103419
 21
240.57798157676029
 31
0.0
  0
LINE
  5
6E4
  8
1
 10
150.51680174103419
 20
245.57798157676021
 30
0.0
 11
150.51680174103419
 21
185.57798157676029
 31
0.0
  0
LINE
  5
6E5
  8
0
 10
143.51680174103419
 20
190.57798157676029
 30
0.0
 11
194.0168017410343
 21
190.57798157676029
 31
0.0
  0
LINE
  5
6E6
  8
0
 10
143.51680174103419
 20
190.57798157676029
 30
0.0
 11
143.51680174103419
 21
240.57798157676041
 31
0.0
  0
LINE
  5
6EC
  8
1
 10
178.0168017410341
 20
147.87798157676031
 30
0.0
 11
178.01680174103399
 21
135.77798157676031
 31
0.0
  0
LINE
  5
6ED
  8
1
 10
162.51680174103419
 20
143.57798157676029
 30
0.0
 11
138.51680174103419
 21
143.57798157676029
 31
0.0
  0
LINE
  5
6EE
  8
1
 10
150.51680174103419
 20
155.57798157676029
 30
0.0
 11
150.51680174103419
 21
131.57798157676029
 31
0.0
  0
LINE
  5
6F7
  8
0
 10
182.0168017410337
 20
96.577981576760664
 30
0.0
 11
182.01680174103379
 21
46.577981576760664
 31
0.0
  0
LINE
  5
6F8
  8
0
 10
174.01680174103359
 20
96.577981576760664
 30
0.0
 11
174.0168017410337
 21
46.577981576760664
 31
0.0
  0
LINE
  5
7CE
  8
0
 10
158.01079974103419
 20
145.37798157676031
 30
0.0
 11
186.3525867410342
 21
145.37798157676031
 31
0.0
  0
LINE
  5
7CF
  8
0
 10
157.93299974103419
 20
141.57798157676029
 30
0.0
 11
173.01680174103419
 21
141.57798157676029
 31
0.0
  0
LINE
  5
7D0
  8
0
 10
183.01680174103419
 20
141.57798157676029
 30
0.0
 11
189.9632467410342
 21
141.57798157676029
 31
0.0
  0
LINE
  5
7D1
  8
0
 10
174.3168007410342
 20
138.27798157676031
 30
0.0
 11
181.7168027410342
 21
138.27798157676031
 31
0.0
  0
LINE
  5
7D2
  8
0
 10
187.05969374103421
 20
145.08508857676031
 30
0.0
 11
190.14002374103421
 21
142.00475857676031
 31
0.0
  0
LINE
  5
7D3
  8
0
 10
174.01680174103419
 20
140.57798157676029
 30
0.0
 11
174.01680174103419
 21
138.57798157676029
 31
0.0
  0
LINE
  5
7D4
  8
0
 10
182.01680174103419
 20
140.57798157676029
 30
0.0
 11
182.01680174103419
 21
138.57798157676029
 31
0.0
  0
CIRCLE
  5
7D5
  8
0
 10
150.51680174103419
 20
143.57798157676029
 30
0.0
 40
4.0
  0
ARC
  5
7D6
  8
0
 10
150.51680174103419
 20
143.57798157676029
 30
0.0
 40
7.0000000952502841
 50
20.487315141801378
 51
337.97568718350698
  0
ARC
  5
7D7
  8
0
 10
157.93299974103419
 20
140.57798157676029
 30
0.0
 40
0.9999999999999996
 50
90.000000041562771
 51
157.97568664106899
  0
ARC
  5
7D8
  8
0
 10
158.01079974103419
 20
146.37798157676031
 30
0.0
 40
1.00000028124996
 50
200.4873148430157
 51
270.00000028547282
  0
ARC
  5
7D9
  8
0
 10
173.01680174103419
 20
140.57798157676029
 30
0.0
 40
1.0
 50
0.0
 51
89.999999767886479
  0
ARC
  5
7DA
  8
0
 10
174.3168017410342
 20
138.57798157676029
 30
0.0
 40
0.3000000000000002
 50
180.0
 51
269.9999971596207
  0
ARC
  5
7DB
  8
0
 10
181.7168017410342
 20
138.57798157676029
 30
0.0
 40
0.3000000000000007
 50
270.00000284037759
 51
0.0
  0
ARC
  5
7DC
  8
0
 10
183.01680174103419
 20
140.57798157676029
 30
0.0
 40
1.0
 50
90.000000232113536
 51
180.0
  0
ARC
  5
7DD
  8
0
 10
186.3525877410342
 20
144.37798157676031
 30
0.0
 40
1.000000309448952
 50
45.000000571274143
 51
89.999999196612038
  0
ARC
  5
7DE
  8
0
 10
189.96324874103419
 20
141.82798157676029
 30
0.0
 40
0.2500000000000023
 50
269.99999970935693
 51
44.999999659203397
  0
TEXT
  5
878
  8
0
 62
     3
 10
0.0
 20
0.0
 30
0.0
 40
10.0
  1
HPS40-3M
  7
STANDARD1
  0
ENDSEC
  0
EOF
