  0
SECTION
  2
HEADER
  9
$ACADVER
  1
AC1009
  9
$INSBASE
 10
0.0
 20
0.0
 30
0.0
  9
$EXTMIN
 10
0.0
 20
-2.960436562073669
 30
0.0
  9
$EXTMAX
 10
256.88587442318533
 20
246.6083484130931
 30
0.0
  9
$LIMMIN
 10
0.0
 20
0.0
  9
$LIMMAX
 10
375.0
 20
278.0
  9
$ORTHOMODE
 70
     1
  9
$REGENMODE
 70
     1
  9
$FILLMODE
 70
     1
  9
$QTEXTMODE
 70
     0
  9
$MIRRTEXT
 70
     0
  9
$DRAGMODE
 70
     2
  9
$LTSCALE
 40
10.0
  9
$OSMODE
 70
    55
  9
$ATTMODE
 70
     1
  9
$TEXTSIZE
 40
0.2
  9
$TRACEWID
 40
0.05
  9
$TEXTSTYLE
  7
STANDARD
  9
$CLAYER
  8
0
  9
$CELTYPE
  6
BYLAYER
  9
$CECOLOR
 62
   256
  9
$DIMSCALE
 40
1.0
  9
$DIMASZ
 40
3.0
  9
$DIMEXO
 40
1.0
  9
$DIMDLI
 40
6.0
  9
$DIMRND
 40
0.0
  9
$DIMDLE
 40
0.0
  9
$DIMEXE
 40
1.0
  9
$DIMTP
 40
495.0
  9
$DIMTM
 40
0.0
  9
$DIMTXT
 40
3.0
  9
$DIMCEN
 40
0.0
  9
$DIMTSZ
 40
0.0
  9
$DIMTOL
 70
     0
  9
$DIMLIM
 70
     0
  9
$DIMTIH
 70
     0
  9
$DIMTOH
 70
     0
  9
$DIMSE1
 70
     0
  9
$DIMSE2
 70
     0
  9
$DIMTAD
 70
     1
  9
$DIMZIN
 70
     0
  9
$DIMBLK
  1

  9
$DIMASO
 70
     0
  9
$DIMSHO
 70
     0
  9
$DIMPOST
  1

  9
$DIMAPOST
  1

  9
$DIMALT
 70
     0
  9
$DIMALTD
 70
     2
  9
$DIMALTF
 40
25.399999999999999
  9
$DIMLFAC
 40
1.0
  9
$DIMTOFL
 70
     1
  9
$DIMTVP
 40
0.0
  9
$DIMTIX
 70
     1
  9
$DIMSOXD
 70
     0
  9
$DIMSAH
 70
     0
  9
$DIMBLK1
  1

  9
$DIMBLK2
  1

  9
$DIMSTYLE
  2
STANDARD
  9
$DIMCLRD
 70
     0
  9
$DIMCLRE
 70
     0
  9
$DIMCLRT
 70
     4
  9
$DIMTFAC
 40
1.0
  9
$DIMGAP
 40
1.0
  9
$LUNITS
 70
     2
  9
$LUPREC
 70
     4
  9
$SKETCHINC
 40
0.1
  9
$FILLETRAD
 40
0.0
  9
$AUNITS
 70
     0
  9
$AUPREC
 70
     0
  9
$MENU
  1
C:\R13\WIN\SUPPORT\ACAD-I
  9
$ELEVATION
 40
0.0
  9
$PELEVATION
 40
0.0
  9
$THICKNESS
 40
0.0
  9
$LIMCHECK
 70
     0
  9
$BLIPMODE
 70
     0
  9
$CHAMFERA
 40
0.0
  9
$CHAMFERB
 40
0.0
  9
$SKPOLY
 70
     0
  9
$TDCREATE
 40
2451922.3964398731
  9
$TDUPDATE
 40
2456598.689167419
  9
$TDINDWG
 40
0.0004915046
  9
$TDUSRTIMER
 40
0.0004915046
  9
$USRTIMER
 70
     1
  9
$ANGBASE
 50
0.0
  9
$ANGDIR
 70
     0
  9
$PDMODE
 70
     0
  9
$PDSIZE
 40
0.0
  9
$PLINEWID
 40
0.0
  9
$COORDS
 70
     1
  9
$SPLFRAME
 70
     0
  9
$SPLINETYPE
 70
     6
  9
$SPLINESEGS
 70
     8
  9
$ATTDIA
 70
     0
  9
$ATTREQ
 70
     1
  9
$HANDLING
 70
     1
  9
$HANDSEED
  5
FB5
  9
$SURFTAB1
 70
     6
  9
$SURFTAB2
 70
     6
  9
$SURFTYPE
 70
     6
  9
$SURFU
 70
     6
  9
$SURFV
 70
     6
  9
$UCSNAME
  2

  9
$UCSORG
 10
0.0
 20
0.0
 30
0.0
  9
$UCSXDIR
 10
1.0
 20
0.0
 30
0.0
  9
$UCSYDIR
 10
0.0
 20
1.0
 30
0.0
  9
$PUCSNAME
  2

  9
$PUCSORG
 10
0.0
 20
0.0
 30
0.0
  9
$PUCSXDIR
 10
1.0
 20
0.0
 30
0.0
  9
$PUCSYDIR
 10
0.0
 20
1.0
 30
0.0
  9
$USERI1
 70
     4
  9
$USERI2
 70
     1
  9
$USERI3
 70
     0
  9
$USERI4
 70
     0
  9
$USERI5
 70
     0
  9
$USERR1
 40
1.0
  9
$USERR2
 40
3.0
  9
$USERR3
 40
3.0
  9
$USERR4
 40
3.0
  9
$USERR5
 40
10.0
  9
$WORLDVIEW
 70
     1
  9
$SHADEDGE
 70
     3
  9
$SHADEDIF
 70
    70
  9
$TILEMODE
 70
     1
  9
$MAXACTVP
 70
    16
  9
$PLIMCHECK
 70
     0
  9
$PEXTMIN
 10
1.0000000000000000E+020
 20
1.0000000000000000E+020
 30
1.0000000000000000E+020
  9
$PEXTMAX
 10
-1.0000000000000000E+020
 20
-1.0000000000000000E+020
 30
-1.0000000000000000E+020
  9
$PLIMMIN
 10
0.0
 20
0.0
  9
$PLIMMAX
 10
12.0
 20
9.0
  9
$UNITMODE
 70
     0
  9
$VISRETAIN
 70
     0
  9
$PLINEGEN
 70
     0
  9
$PSLTSCALE
 70
     0
  0
ENDSEC
  0
SECTION
  2
TABLES
  0
TABLE
  2
VPORT
 70
     1
  0
VPORT
  2
*ACTIVE
 70
     0
 10
0.0
 20
0.0
 11
1.0
 21
1.0
 12
187.49427839065231
 22
180.1290430320056
 13
0.0
 23
0.0
 14
10.0
 24
10.0
 15
10.0
 25
10.0
 16
0.0
 26
0.0
 36
1.0
 17
0.0
 27
0.0
 37
0.0
 40
369.4434036391122
 41
1.7807262569832401
 42
50.0
 43
0.0
 44
0.0
 50
0.0
 51
0.0
 71
     0
 72
   100
 73
     1
 74
     0
 75
     0
 76
     0
 77
     0
 78
     0
  0
ENDTAB
  0
TABLE
  2
LTYPE
 70
     4
  0
LTYPE
  2
CONTINUOUS
 70
     0
  3
Solid Line
 72
    65
 73
     0
 40
0.0
  0
LTYPE
  2
CENTER
 70
     0
  3
____ _ ____ _ ____ _ ____ _ ____ _ ____ _ ____
 72
    65
 73
     4
 40
2.0
 49
1.25
 49
-0.25
 49
0.25
 49
-0.25
  0
LTYPE
  2
HIDDEN
 70
     0
  3
__ __ __ __ __ __ __ __ __ __ __ __ __ __ __ __
 72
    65
 73
     2
 40
0.375
 49
0.25
 49
-0.125
  0
LTYPE
  2
PHANTOM2
 70
     0
  3
___ _ _ ___ _ _ ___ _ _ ___ _ _
 72
    65
 73
     6
 40
1.25
 49
0.625
 49
-0.125
 49
0.125
 49
-0.125
 49
0.125
 49
-0.125
  0
ENDTAB
  0
TABLE
  2
LAYER
 70
     4
  0
LAYER
  2
0
 70
     0
 62
     7
  6
CONTINUOUS
  0
LAYER
  2
1
 70
     0
 62
     1
  6
CENTER
  0
LAYER
  2
3
 70
     0
 62
     3
  6
CONTINUOUS
  0
LAYER
  2
2
 70
     0
 62
     2
  6
HIDDEN
  0
ENDTAB
  0
TABLE
  2
STYLE
 70
     3
  0
STYLE
  2
STANDARD
 70
     0
 40
0.0
 41
1.0
 50
0.0
 71
     0
 42
0.2
  3
SIMPLEX
  4
BIGFONT
  0
STYLE
  2
ROMANS
 70
     0
 40
0.0
 41
1.0
 50
0.0
 71
     0
 42
0.18
  3
romans
  4

  0
STYLE
  2
STANDARD1
 70
     0
 40
0.0
 41
1.0
 50
0.0
 71
     0
 42
3.0
  3
txt
  4

  0
ENDTAB
  0
TABLE
  2
VIEW
 70
     0
  0
ENDTAB
  0
TABLE
  2
UCS
 70
     0
  0
ENDTAB
  0
TABLE
  2
APPID
 70
    40
  0
APPID
  2
ACAD
 70
     0
  0
APPID
  2
GENIUS_GENOBJ_13
 70
     0
  0
APPID
  2
GENIUS_GENODEF_13
 70
     0
  0
APPID
  2
GENIUS_GENOENT_13
 70
     0
  0
APPID
  2
GENIUS_GENOLIS_13
 70
     0
  0
APPID
  2
GENIUS_GENOREF_13
 70
     0
  0
APPID
  2
GENIUS_GENOBJ-N-TIT_13
 70
     0
  0
APPID
  2
GENIUS_GENTITLE_13
 70
     0
  0
APPID
  2
GENIUS_GENZVEED_13
 70
     0
  0
APPID
  2
GENIUS_GENOBJ-N-FIL_13
 70
     0
  0
APPID
  2
GENIUS_GENOBJ-N-CRS_13
 70
     0
  0
APPID
  2
GENIUS_GEFINERT_13
 70
     0
  0
APPID
  2
GENIUS_GENOBJ-F-INER_13
 70
     0
  0
APPID
  2
GENIUS_GENOBJ-N-ZOO_13
 70
     0
  0
APPID
  2
GENIUS_GENZOO_13
 70
     0
  0
APPID
  2
GENIUS_GENOBJ-F-TOL_13
 70
     0
  0
APPID
  2
GENIUS_GENOBJ-N-RSSYM_13
 70
     0
  0
APPID
  2
GENIUS_GENSYMENT_13
 70
     0
  0
APPID
  2
GENIUS_GENBH_13
 70
     0
  0
APPID
  2
GENIUS_GENOBJ-NBEHI-BHF_13
 70
     0
  0
APPID
  2
GENIUS_GENOBJ-NBEHI-BHB_13
 70
     0
  0
APPID
  2
GENIUS_GENOBJ-F-PART_13
 70
     0
  0
APPID
  2
GENIUS_GEFSTDP_13
 70
     0
  0
APPID
  2
GENIUS_GENOBJ-N-LEADER_13
 70
     0
  0
APPID
  2
GENIUS_GENOBJ-N-REV_13
 70
     0
  0
APPID
  2
GENIUS_GENCFG_13
 70
     0
  0
APPID
  2
GENIUS_GENCFG0_13
 70
     0
  0
APPID
  2
GENIUS_GENCFG1_13
 70
     0
  0
APPID
  2
GENIUS_GENCFG2_13
 70
     0
  0
APPID
  2
GENIUS_GENCFG3_13
 70
     0
  0
APPID
  2
GENIUS_GEVCFG0_13
 70
     0
  0
APPID
  2
GENIUS_GENCFG4_13
 70
     0
  0
APPID
  2
GENIUS_GENOBJ-N-REC_13
 70
     0
  0
APPID
  2
GENIUS_GENFIL_13
 70
     0
  0
APPID
  2
GENIUS_GENOBJ-N-CHA_13
 70
     0
  0
APPID
  2
GENIUS_GENREC_13
 70
     0
  0
APPID
  2
MCAD_NO_VIS
 70
     0
  0
APPID
  2
ACAD_TEMP_GRAPHIC
 70
     0
  0
APPID
  2
ACAD_MLEADERVER
 70
     0
  0
APPID
  2
ACAD_NAV_VCDISPLAY
 70
     0
  0
ENDTAB
  0
TABLE
  2
DIMSTYLE
 70
     1
  0
DIMSTYLE
  2
STANDARD
 70
     0
  3

  4

  5

  6

  7

 40
1.0
 41
0.18
 42
0.0625
 43
0.38
 44
0.18
 45
0.0
 46
0.0
 47
0.0
 48
0.0
140
0.18
141
0.09
142
0.0
143
25.399999999999999
144
1.0
145
0.0
146
1.0
147
0.09
 71
     0
 72
     0
 73
     1
 74
     1
 75
     0
 76
     0
 77
     0
 78
     0
170
     0
171
     2
172
     0
173
     0
174
     0
175
     0
176
     0
177
     0
178
     0
  0
ENDTAB
  0
ENDSEC
  0
SECTION
  2
BLOCKS
  0
BLOCK
  8
0
  2
$MODEL_SPACE
 70
     0
 10
0.0
 20
0.0
 30
0.0
  3
$MODEL_SPACE
  1

  0
ENDBLK
  5
E6B
  8
0
  0
BLOCK
 67
     1
  8
0
  2
$PAPER_SPACE
 70
     0
 10
0.0
 20
0.0
 30
0.0
  3
$PAPER_SPACE
  1

  0
ENDBLK
  5
E69
 67
     1
  8
0
  0
BLOCK
  8
0
  2
STDGX5
 70
     0
 10
0.0
 20
0.0
 30
0.0
  3
STDGX5
  1

  0
ENDBLK
  5
4F
  8
0
  0
ENDSEC
  0
SECTION
  2
ENTITIES
  0
INSERT
  5
DE
  8
0
  2
STDGX5
 10
0.0
 20
0.0
 30
0.0
  0
INSERT
  5
DF
  8
0
  2
STDGX5
 10
0.0
 20
0.0
 30
0.0
  0
INSERT
  5
15C
  8
0
  2
STDGX5
 10
275.0
 20
0.0
 30
0.0
  0
INSERT
  5
15D
  8
0
  2
STDGX5
 10
275.0
 20
0.0
 30
0.0
  0
INSERT
  5
314
  8
0
  2
STDGX5
 10
0.0
 20
0.0
 30
0.0
  0
INSERT
  5
315
  8
0
  2
STDGX5
 10
0.0
 20
0.0
 30
0.0
  0
INSERT
  5
316
  8
0
  2
STDGX5
 10
275.0
 20
0.0
 30
0.0
  0
INSERT
  5
317
  8
0
  2
STDGX5
 10
275.0
 20
0.0
 30
0.0
  0
INSERT
  5
4EF
  8
0
  2
STDGX5
 10
0.0
 20
0.0
 30
0.0
  0
INSERT
  5
4F0
  8
0
  2
STDGX5
 10
0.0
 20
0.0
 30
0.0
  0
INSERT
  5
4F1
  8
0
  2
STDGX5
 10
275.0
 20
0.0
 30
0.0
  0
INSERT
  5
4F2
  8
0
  2
STDGX5
 10
275.0
 20
0.0
 30
0.0
  0
LINE
  5
D72
  8
0
 10
142.4437993133167
 20
228.732811932413
 30
0.0
 11
216.24704361935071
 21
228.73281193240791
 31
0.0
  0
LINE
  5
D73
  8
0
 10
132.78714695280169
 20
241.6083484130975
 30
0.0
 11
223.447520528052
 21
241.6083484130931
 31
0.0
  0
LINE
  5
D74
  8
0
 10
142.4437993133167
 20
177.23066600966399
 30
0.0
 11
216.24704361935071
 21
177.23066600965959
 31
0.0
  0
LINE
  5
D75
  8
0
 10
132.78714695280169
 20
164.3551295289773
 30
0.0
 11
223.4475205280506
 21
164.35512952897221
 31
0.0
  0
LINE
  5
D76
  8
3
 10
124.3200028992528
 20
201.18008075680709
 30
0.0
 11
124.3200028992528
 21
200.4075485679659
 31
0.0
  0
LINE
  5
D77
  8
3
 10
120.02214882199971
 20
201.18008075680709
 30
0.0
 11
120.02214882199971
 21
200.4075485679659
 31
0.0
  0
LINE
  5
D78
  8
0
 10
119.5470761779566
 20
186.88731837018261
 30
0.0
 11
128.83919424431329
 21
202.9817389710411
 31
0.0
  0
LINE
  5
D79
  8
0
 10
112.0107967414181
 20
199.94053725430291
 30
0.0
 11
113.7666353712378
 21
202.9817389710411
 31
0.0
  0
LINE
  5
D7A
  8
0
 10
106.7432808519621
 20
202.9817389710411
 30
0.0
 11
108.4991194817818
 21
199.94053725430291
 31
0.0
  0
CIRCLE
  5
D7B
  8
0
 10
110.2549581115999
 20
202.9817389710411
 30
0.0
 40
3.6212446351931322
  0
ARC
  5
D7C
  8
3
 10
124.3200028992528
 20
202.94274170101269
 30
0.0
 40
2.5351931330472102
 50
90.0
 51
270.0
  0
ARC
  5
D7D
  8
3
 10
120.02214882199971
 20
202.94274170101269
 30
0.0
 40
2.5351931330472102
 50
90.0
 51
270.0
  0
LINE
  5
D7E
  8
0
 10
145.6626984575187
 20
180.44955012983931
 30
0.0
 11
145.6626984575216
 21
225.51392781224271
 31
0.0
  0
LINE
  5
D7F
  8
0
 10
136.23480514807369
 20
180.44955012983931
 30
0.0
 11
136.23480514807369
 21
225.51392781224271
 31
0.0
  0
LINE
  5
D80
  8
0
 10
85.66269845752204
 20
223.4538419753369
 30
0.0
 11
85.66269845752204
 21
182.50963596675319
 31
0.0
  0
CIRCLE
  5
D81
  8
0
 10
110.2549581115999
 20
202.9817389710411
 30
0.0
 40
16.094420600858129
  0
LINE
  5
D82
  8
0
 10
91.670721978886618
 20
202.9817389710411
 30
0.0
 11
100.9628400452433
 21
186.88731837018261
 31
0.0
  0
ARC
  5
D83
  8
0
 10
132.78714695280169
 20
174.01178188949231
 30
0.0
 40
9.6566523605150216
 50
179.99999999999929
 51
269.9999999999992
  0
LINE
  5
D84
  8
0
 10
145.6626984575187
 20
180.44955012983931
 30
0.0
 11
87.722784294431506
 21
180.44955012984289
 31
0.0
  0
TEXT
  5
D85
  8
3
 10
102.1004516738317
 20
191.28998019335091
 30
0.0
 40
2.5751072961373391
  1
20 N m
  7
ROMANS
 72
     1
 11
110.2549581115999
 21
191.28998019335091
 31
0.0
  0
TEXT
  5
D86
  8
3
 10
102.83619661558519
 20
195.3116645447798
 30
0.0
 40
2.5751072961373391
  1
TORQUE
  7
ROMANS
 72
     1
 11
110.2549581115999
 21
195.3116645447798
 31
0.0
  0
LINE
  5
D87
  8
0
 10
100.9628400452433
 20
186.88731837018261
 30
0.0
 11
119.5470761779566
 21
186.88731837018261
 31
0.0
  0
LINE
  5
D88
  8
0
 10
87.722784294431506
 20
180.44955012984289
 30
0.0
 11
85.66269845752204
 21
182.50963596675319
 31
0.0
  0
LINE
  5
D89
  8
0
 10
123.1304945922866
 20
174.01178188949231
 30
0.0
 11
123.1304945922866
 21
180.44955012983931
 31
0.0
  0
LINE
  5
D8A
  8
0
 10
108.4991194817818
 20
199.94053725430291
 30
0.0
 11
112.0107967414181
 21
199.94053725430291
 31
0.0
  0
CIRCLE
  5
D8B
  8
3
 10
113.5543343965675
 20
192.65570695277111
 30
0.0
 40
0.5517716862916777
  0
ARC
  5
D8C
  8
0
 10
142.4437993133167
 20
183.66843425000729
 30
0.0
 40
6.4377682403433472
 50
209.99999999996049
 51
270.0
  0
ARC
  5
D8D
  8
0
 10
132.78714695280169
 20
231.95169605258241
 30
0.0
 40
9.6566523605150216
 50
89.999999999999361
 51
180.0
  0
LINE
  5
D8E
  8
0
 10
145.6626984575216
 20
225.51392781224271
 30
0.0
 11
87.722784294431506
 21
225.51392781224709
 31
0.0
  0
TEXT
  5
D8F
  8
3
 10
102.8975086940647
 20
212.73896076626571
 30
0.0
 40
2.5751072961373391
  1
725 Kg
  7
ROMANS
 72
     1
 11
110.2549581115999
 21
212.73896076626571
 31
0.0
  0
LINE
  5
D90
  8
0
 10
119.5470761779566
 20
219.07615957189941
 30
0.0
 11
100.9628400452433
 21
219.07615957189941
 31
0.0
  0
TEXT
  5
D91
  8
3
 10
98.176478651146269
 20
208.47353898725061
 30
0.0
 40
2.5751072961373391
  1
M12 X 1.75
  7
ROMANS
 72
     1
 11
110.2549581115999
 21
208.47353898725061
 31
0.0
  0
LINE
  5
D92
  8
0
 10
100.9628400452433
 20
219.07615957189941
 30
0.0
 11
91.670721978886618
 21
202.9817389710411
 31
0.0
  0
LINE
  5
D93
  8
0
 10
85.66269845752204
 20
223.4538419753369
 30
0.0
 11
87.722784294431506
 21
225.51392781224709
 31
0.0
  0
ARC
  5
D94
  8
3
 10
120.02214882199971
 20
202.94274170101269
 30
0.0
 40
1.7626609442060079
 50
90.0
 51
270.0
  0
LINE
  5
D95
  8
0
 10
113.7666353712378
 20
202.9817389710411
 30
0.0
 11
112.0107967414181
 21
206.0229406877792
 31
0.0
  0
LINE
  5
D96
  8
0
 10
108.4991194817818
 20
206.0229406877792
 30
0.0
 11
106.7432808519621
 21
202.9817389710411
 31
0.0
  0
LINE
  5
D97
  8
0
 10
112.0107967414181
 20
206.0229406877792
 30
0.0
 11
108.4991194817818
 21
206.0229406877792
 31
0.0
  0
LINE
  5
D98
  8
0
 10
128.83919424431329
 20
202.9817389710411
 30
0.0
 11
119.5470761779566
 21
219.07615957189941
 31
0.0
  0
LINE
  5
D99
  8
3
 10
124.3200028992528
 20
204.7054026452191
 30
0.0
 11
124.3200028992528
 21
205.47793483406031
 31
0.0
  0
LINE
  5
D9A
  8
3
 10
120.02214882199971
 20
204.7054026452191
 30
0.0
 11
120.02214882199971
 21
205.47793483406031
 31
0.0
  0
LINE
  5
D9B
  8
3
 10
122.6001854355285
 20
203.32900779543371
 30
0.0
 11
123.93373680483261
 21
203.32900779543371
 31
0.0
  0
LINE
  5
D9C
  8
3
 10
122.6001854355285
 20
202.5564756065925
 30
0.0
 11
123.93373680483261
 21
202.5564756065925
 31
0.0
  0
LINE
  5
D9D
  8
3
 10
123.93373680483261
 20
202.5564756065925
 30
0.0
 11
123.93373680483261
 21
203.32900779543371
 31
0.0
  0
ARC
  5
D9E
  8
3
 10
124.3200028992528
 20
202.94274170101269
 30
0.0
 40
1.7626609442060079
 50
192.6584119890106
 51
270.0
  0
ARC
  5
D9F
  8
3
 10
124.3200028992528
 20
202.94274170101269
 30
0.0
 40
1.7626609442060079
 50
90.0
 51
167.3415880109894
  0
LINE
  5
DA0
  8
0
 10
123.1304945922866
 20
231.95169605258241
 30
0.0
 11
123.1304945922866
 21
225.51392781224271
 31
0.0
  0
ARC
  5
DA1
  8
0
 10
142.4437993133167
 20
222.29504369206961
 30
0.0
 40
6.4377682403433472
 50
89.999999999993307
 51
149.999999999984
  0
ARC
  5
DA2
  8
0
 10
193.94596026009529
 20
202.981738971033
 30
0.0
 40
57.939914163090123
 50
336.42182152179691
 51
23.578178478200911
  0
ARC
  5
DA3
  8
0
 10
193.94596026009529
 20
202.981738971033
 30
0.0
 40
38.626609442060087
 50
330.0
 51
30.00000000000118
  0
TEXT
  5
DA4
  8
3
 10
236.6416522273982
 20
195.51433822904551
 30
0.0
 40
4.6351931330472089
  1
S
 50
257.16042555421609
  7
ROMANS
 72
     1
 11
236.15115612394609
 21
193.3622928888305
 31
0.0
  0
ARC
  5
DA5
  8
0
 10
223.4475205280506
 20
190.10620249034551
 30
0.0
 40
25.751072961373389
 50
270.0
 51
336.42182152179691
  0
ARC
  5
DA6
  8
0
 10
216.24704361935071
 20
190.10620249034631
 30
0.0
 40
12.875536480686691
 50
270.0
 51
330.0
  0
TEXT
  5
DA7
  8
3
 10
237.21760298272511
 20
200.28503385852619
 30
0.0
 40
4.6351931330472089
  1
N
 50
263.22361443559822
  7
ROMANS
 72
     1
 11
236.93111675147051
 21
197.87403672380131
 31
0.0
  0
TEXT
  5
DA8
  8
3
 10
235.8970805302456
 20
213.9275505196629
 30
0.0
 40
4.6351931330472089
  1
R
 50
281.41318107974439
  7
ROMANS
 72
     1
 11
236.3775318391601
 21
211.54760344375711
 31
0.0
  0
TEXT
  5
DA9
  8
3
 10
234.539395761447
 20
218.19214819883391
 30
0.0
 40
4.6351931330472089
  1
E
 50
287.47636996112652
  7
ROMANS
 72
     1
 11
235.23539884152501
 21
215.9815298333796
 31
0.0
  0
TEXT
  5
DAA
  8
3
 10
233.01424938875491
 20
221.68650599243909
 30
0.0
 40
4.6351931330472089
  1
J
 50
293.5395588425086
  7
ROMANS
 72
     1
 11
233.63132050867071
 21
220.27001484733819
 31
0.0
  0
ARC
  5
DAB
  8
0
 10
223.447520528052
 20
215.85727545171969
 30
0.0
 40
25.751072961373389
 50
23.578178478200911
 51
89.999999999998394
  0
ARC
  5
DAC
  8
0
 10
216.24704361935071
 20
215.85727545172111
 30
0.0
 40
12.875536480686691
 50
29.999999999998892
 51
89.999999999998394
  0
TEXT
  5
DAD
  8
3
 10
237.25900822925399
 20
204.76034244030919
 30
0.0
 40
4.6351931330472089
  1
E
 50
269.28680331698041
  7
ROMANS
 72
     1
 11
237.2301603889106
 21
202.4429254197301
 31
0.0
  0
TEXT
  5
DAE
  8
3
 10
236.82885014444199
 20
209.32534282425479
 30
0.0
 40
4.6351931330472089
  1
G
 50
275.34999219836237
  7
ROMANS
 72
     1
 11
237.04494134259559
 21
207.0178423498794
 31
0.0
  0
LINE
  5
DAF
  8
0
 10
129.5682778566559
 20
83.641449297378756
 30
0.0
 11
245.4481061828362
 21
83.64144929737509
 31
0.0
  0
LINE
  5
DB0
  8
0
 10
129.5682778566559
 20
96.516985778065447
 30
0.0
 11
245.4481061828362
 21
96.516985778061795
 31
0.0
  0
LINE
  5
DB1
  8
0
 10
119.5470761779508
 20
115.0114725229832
 30
0.0
 11
119.5470761779508
 21
106.8946020374333
 31
0.0
  0
LINE
  5
DB2
  8
0
 10
128.83919424430741
 20
115.0114725229832
 30
0.0
 11
128.83919424430741
 21
106.8946020374333
 31
0.0
  0
LINE
  5
DB3
  8
0
 10
100.9628400452374
 20
115.0114725229832
 30
0.0
 11
100.9628400452374
 21
106.8946020374333
 31
0.0
  0
LINE
  5
DB4
  8
1
 10
110.25495811159411
 20
120.73243642183969
 30
0.0
 11
110.25495811159411
 21
39.113552301667767
 31
0.0
  0
LINE
  5
DB5
  8
0
 10
91.670721978880763
 20
115.0114725229832
 30
0.0
 11
91.670721978880763
 21
106.8946020374333
 31
0.0
  0
ARC
  5
DB6
  8
0
 10
129.5682778566559
 20
90.079217537719146
 30
0.0
 40
8.1115879828326172
 50
52.528004817216932
 51
90.000008684087902
  0
ARC
  5
DB7
  8
0
 10
129.5682628326241
 20
90.079217537719146
 30
0.0
 40
6.4377682403433472
 50
89.999933143477094
 51
270.00006685653301
  0
ARC
  5
DB8
  8
2
 10
129.5682778566559
 20
90.079217537719146
 30
0.0
 40
6.4377682403433472
 50
269.99993314346699
 51
90.000066856522892
  0
ARC
  5
DB9
  8
0
 10
129.5682778566559
 20
90.079217537719146
 30
0.0
 40
8.1115879828326172
 50
269.99999147435699
 51
307.47199518284521
  0
LINE
  5
DBA
  8
0
 10
136.23480514806781
 20
106.1736381385775
 30
0.0
 11
89.332226354510027
 21
106.1736381385775
 31
0.0
  0
LINE
  5
DBB
  8
0
 10
136.23480514806781
 20
73.984796936860789
 30
0.0
 11
89.332226354510027
 21
73.984796936860789
 31
0.0
  0
LINE
  5
DBC
  8
0
 10
127.5564602575168
 20
68.255183202955322
 30
0.0
 11
127.9588207725383
 21
68.657543717976765
 31
0.0
  0
LINE
  5
DBD
  8
0
 10
92.55109545064991
 20
68.657543717976765
 30
0.0
 11
92.953455965671367
 21
68.255183202955322
 31
0.0
  0
LINE
  5
DBE
  8
0
 10
104.25495811159399
 20
45.722994361753592
 30
0.0
 11
105.8644001716798
 21
44.11355230166776
 31
0.0
  0
LINE
  5
DBF
  8
0
 10
104.25495811159399
 20
45.722994361753592
 30
0.0
 11
116.25495811159421
 21
45.722994361753592
 31
0.0
  0
LINE
  5
DC0
  8
0
 10
92.953455965671367
 20
68.255183202955322
 30
0.0
 11
127.5564602575168
 21
68.255183202955322
 31
0.0
  0
LINE
  5
DC1
  8
3
 10
105.38929287554321
 20
44.588659597805133
 30
0.0
 11
105.38929287554321
 21
68.255183202955322
 31
0.0
  0
LINE
  5
DC2
  8
0
 10
104.25495811159399
 20
45.722994361753592
 30
0.0
 11
104.25495811159399
 21
68.255183202955322
 31
0.0
  0
LINE
  5
DC3
  8
3
 10
115.12062334764499
 20
44.588659597805133
 30
0.0
 11
115.12062334764499
 21
68.255183202955322
 31
0.0
  0
LINE
  5
DC4
  8
0
 10
116.25495811159421
 20
45.722994361753592
 30
0.0
 11
116.25495811159421
 21
68.255183202955322
 31
0.0
  0
LINE
  5
DC5
  8
0
 10
105.8644001716798
 20
44.11355230166776
 30
0.0
 11
114.64551605150839
 21
44.11355230166776
 31
0.0
  0
LINE
  5
DC6
  8
0
 10
114.64551605150839
 20
44.11355230166776
 30
0.0
 11
116.25495811159421
 21
45.722994361753592
 31
0.0
  0
ARC
  5
DC7
  8
0
 10
110.25495811159411
 20
166.4146899030238
 30
0.0
 40
60.241051764446198
 50
261.1267604565445
 51
278.8732395434555
  0
LINE
  5
DC8
  8
0
 10
127.9588207725383
 20
68.657543717976765
 30
0.0
 11
92.55109545064991
 21
68.657543717976765
 31
0.0
  0
LINE
  5
DC9
  8
0
 10
92.55109545064991
 20
72.037372044156882
 30
0.0
 11
127.9588207725383
 21
72.037372044156882
 31
0.0
  0
LINE
  5
DCA
  8
0
 10
92.953455965671367
 20
72.439732559178339
 30
0.0
 11
127.5564602575168
 21
72.439732559178339
 31
0.0
  0
LINE
  5
DCB
  8
0
 10
122.4480911588044
 20
82.997672473342817
 30
0.0
 11
87.722769270392405
 21
82.997672473342817
 31
0.0
  0
LINE
  5
DCC
  8
0
 10
122.4480911588044
 20
97.160762602097734
 30
0.0
 11
87.722769270392405
 21
97.160762602097734
 31
0.0
  0
LINE
  5
DCD
  8
0
 10
129.56827662721469
 20
98.190805520551763
 30
0.0
 11
89.332226354510027
 21
98.190805520553198
 31
0.0
  0
LINE
  5
DCE
  8
0
 10
129.5682766496472
 20
81.967629554886628
 30
0.0
 11
89.332226354510027
 21
81.967629554888063
 31
0.0
  0
LINE
  5
DCF
  8
0
 10
98.898734935629122
 20
97.160762602097734
 30
0.0
 11
98.898734935629122
 21
82.997672473342817
 31
0.0
  0
LINE
  5
DD0
  8
0
 10
87.722769270392405
 20
97.160762602097734
 30
0.0
 11
87.722769270392405
 21
82.997672473342817
 31
0.0
  0
LINE
  5
DD1
  8
0
 10
92.55109545064991
 20
72.037372044156882
 30
0.0
 11
92.953455965671367
 21
72.439732559178339
 31
0.0
  0
LINE
  5
DD2
  8
0
 10
87.722784294424187
 20
80.358187494801513
 30
0.0
 11
87.722784294424187
 21
75.594238996946643
 31
0.0
  0
LINE
  5
DD3
  8
0
 10
92.55109545064991
 20
72.037372044156882
 30
0.0
 11
92.55109545064991
 21
68.657543717976765
 31
0.0
  0
ARC
  5
DD4
  8
0
 10
89.332226354510027
 20
75.594238996946643
 30
0.0
 40
1.6094420600858359
 50
180.0
 51
270.0
  0
ARC
  5
DD5
  8
0
 10
89.332226354510027
 20
80.358187494801513
 30
0.0
 40
1.6094420600858359
 50
89.999999999998394
 51
180.0
  0
LINE
  5
DD6
  8
0
 10
99.091867982839261
 20
73.984796936860789
 30
0.0
 11
99.091867982839261
 21
73.212264748019564
 31
0.0
  0
ARC
  5
DD7
  8
0
 10
98.319335793997297
 20
73.212264748019564
 30
0.0
 40
0.7725321888412017
 50
270.0
 51
0.0
  0
LINE
  5
DD8
  8
0
 10
99.091867982839261
 20
81.967629554887367
 30
0.0
 11
99.091867982839261
 21
82.997672473342817
 31
0.0
  0
LINE
  5
DD9
  8
0
 10
91.670721978880763
 20
106.8946020374333
 30
0.0
 11
94.361395879835271
 21
106.1736381385775
 31
0.0
  0
LINE
  5
DDA
  8
0
 10
87.722784294424187
 20
104.5641960784917
 30
0.0
 11
87.722784294424187
 21
99.800247580638313
 31
0.0
  0
ARC
  5
DDB
  8
0
 10
89.332226354510027
 20
99.800247580638313
 30
0.0
 40
1.6094420600858359
 50
180.0
 51
270.0
  0
ARC
  5
DDC
  8
0
 10
89.332226354510027
 20
104.5641960784917
 30
0.0
 40
1.6094420600858359
 50
89.999999999998394
 51
180.0
  0
LINE
  5
DDD
  8
0
 10
99.091867982839261
 20
97.160762602097734
 30
0.0
 11
99.091867982839261
 21
98.190805520553198
 31
0.0
  0
ARC
  5
DDE
  8
0
 10
96.350884058282631
 20
121.2853011522444
 30
0.0
 40
15.111663013666981
 50
270.0
 51
287.76970481913992
  0
LINE
  5
DDF
  8
0
 10
94.361395879835271
 20
106.1736381385775
 30
0.0
 11
98.319335793997297
 21
106.1736381385775
 31
0.0
  0
LINE
  5
DE0
  8
0
 10
122.4480911588044
 20
82.997672473342817
 30
0.0
 11
122.4480911588044
 21
97.160762602097734
 31
0.0
  0
LINE
  5
DE1
  8
0
 10
121.41804824034899
 20
73.984796936860789
 30
0.0
 11
121.41804824034899
 21
73.212264748019564
 31
0.0
  0
ARC
  5
DE2
  8
0
 10
122.1905804291909
 20
73.212264748019564
 30
0.0
 40
0.7725321888412017
 50
180.0
 51
270.0
  0
LINE
  5
DE3
  8
0
 10
127.5564602575168
 20
72.439732559178339
 30
0.0
 11
127.9588207725383
 21
72.037372044156882
 31
0.0
  0
LINE
  5
DE4
  8
0
 10
127.9588207725383
 20
72.037372044156882
 30
0.0
 11
127.9588207725383
 21
68.657543717976765
 31
0.0
  0
LINE
  5
DE5
  8
0
 10
121.41804824034899
 20
81.967629554886628
 30
0.0
 11
121.41804824034899
 21
82.997672473342817
 31
0.0
  0
LINE
  5
DE6
  8
0
 10
121.41804824034899
 20
97.160762602097734
 30
0.0
 11
121.41804824034899
 21
98.190805520552473
 31
0.0
  0
LINE
  5
DE7
  8
0
 10
122.1905804291909
 20
106.1736381385775
 30
0.0
 11
126.1485203433529
 21
106.1736381385775
 31
0.0
  0
ARC
  5
DE8
  8
0
 10
124.1590321649056
 20
121.2853011522444
 30
0.0
 40
15.111663013666981
 50
252.23029518086011
 51
270.0
  0
LINE
  5
DE9
  8
0
 10
128.83919424430741
 20
106.8946020374333
 30
0.0
 11
126.1485203433529
 21
106.1736381385775
 31
0.0
  0
ARC
  5
DEA
  8
2
 10
129.5682778566559
 20
90.079217537719146
 30
0.0
 40
8.1115879828326172
 50
307.47199518284401
 51
52.528004817218068
  0
LINE
  5
DEB
  8
2
 10
145.6626984575143
 20
96.745744829131837
 30
0.0
 11
145.6626984575143
 21
83.412690246307235
 31
0.0
  0
LINE
  5
DEC
  8
0
 10
136.23480514806781
 20
73.984796936860789
 30
0.0
 11
145.6626984575143
 21
83.412690246307235
 31
0.0
  0
LINE
  5
DED
  8
0
 10
136.23480514806781
 20
106.1736381385775
 30
0.0
 11
145.6626984575143
 21
96.745744829131837
 31
0.0
  0
ARC
  5
DEE
  8
0
 10
110.25495811159411
 20
55.491384657393503
 30
0.0
 40
60.241051764446198
 50
81.126760456544517
 51
98.873239543455497
  0
LINE
  5
DEF
  8
0
 10
94.361395879833807
 20
115.73243642183969
 30
0.0
 11
126.1485203433529
 21
115.73243642183969
 31
0.0
  0
LINE
  5
DF0
  8
0
 10
91.670721978880763
 20
115.0114725229832
 30
0.0
 11
94.361395879833807
 21
115.73243642183969
 31
0.0
  0
ARC
  5
DF1
  8
0
 10
96.350884058282631
 20
100.6207734081721
 30
0.0
 40
15.111663013666981
 50
72.230295180860068
 51
90.000000000000028
  0
LINE
  5
DF2
  8
2
 10
106.7432808519563
 20
110.5822218295646
 30
0.0
 11
113.7666353712319
 21
110.5822218295646
 31
0.0
  0
LINE
  5
DF3
  8
2
 10
112.01079674141231
 20
115.73243642183969
 30
0.0
 11
112.01079674141231
 21
110.5822218295646
 31
0.0
  0
LINE
  5
DF4
  8
2
 10
108.49911948177591
 20
115.73243642183969
 30
0.0
 11
108.49911948177591
 21
110.5822218295646
 31
0.0
  0
LINE
  5
DF5
  8
2
 10
106.7432808519563
 20
115.73243642183969
 30
0.0
 11
106.7432808519563
 21
110.5822218295646
 31
0.0
  0
LINE
  5
DF6
  8
2
 10
113.7666353712319
 20
115.73243642183969
 30
0.0
 11
113.7666353712319
 21
110.5822218295646
 31
0.0
  0
ARC
  5
DF7
  8
0
 10
124.1590321649056
 20
100.6207734081721
 30
0.0
 40
15.111663013666981
 50
89.999999999999986
 51
107.7697048191399
  0
LINE
  5
DF8
  8
0
 10
128.83919424430741
 20
115.0114725229832
 30
0.0
 11
126.1485203433529
 21
115.73243642183969
 31
0.0
  0
ARC
  5
DF9
  8
2
 10
239.01033794249281
 20
90.079217537719146
 30
0.0
 40
6.4377682403433472
 50
89.999999999991303
 51
270.0
  0
ARC
  5
DFA
  8
0
 10
245.4481061828362
 20
90.079217537719146
 30
0.0
 40
6.4377682403433472
 50
270.0
 51
90.000000000008811
  0
LINE
  5
DFD
  8
1
 10
256.88587442317942
 20
90.079217537719146
 30
0.0
 11
118.1304945922808
 21
90.079217537719146
 31
0.0
  0
LINE
  5
DFE
  8
1
 10
129.5682628326241
 20
101.51698577806251
 30
0.0
 11
129.5682628326241
 21
78.6414492973758
 31
0.0
  0
LINE
  5
E00
  8
1
 10
256.88587442318533
 20
202.981738971033
 30
0.0
 11
80.662698457522055
 21
202.981738971033
 31
0.0
  0
LINE
  5
E01
  8
1
 10
193.94596026009529
 20
246.6083484130931
 30
0.0
 11
193.94596026009529
 21
159.3551295289729
 31
0.0
  0
TEXT
  5
F1E
  8
0
 62
     3
 10
0.0
 20
0.0
 30
0.0
 40
10.0
  1
HR12SP
  7
STANDARD1
  0
ENDSEC
  0
EOF
