  0
SECTION
  2
HEADER
  9
$ACADVER
  1
AC1009
  9
$INSBASE
 10
0.0
 20
0.0
 30
0.0
  9
$EXTMIN
 10
0.0
 20
-2.960436562073669
 30
0.0
  9
$EXTMAX
 10
628.65000000005011
 20
434.89149966849999
 30
0.0
  9
$LIMMIN
 10
0.0
 20
0.0
  9
$LIMMAX
 10
750.0
 20
540.0
  9
$ORTHOMODE
 70
     1
  9
$REGENMODE
 70
     1
  9
$FILLMODE
 70
     1
  9
$QTEXTMODE
 70
     0
  9
$MIRRTEXT
 70
     0
  9
$DRAGMODE
 70
     2
  9
$LTSCALE
 40
20.0
  9
$OSMODE
 70
    37
  9
$ATTMODE
 70
     1
  9
$TEXTSIZE
 40
0.2
  9
$TRACEWID
 40
0.05
  9
$TEXTSTYLE
  7
STANDARD
  9
$CLAYER
  8
0
  9
$CELTYPE
  6
BYLAYER
  9
$CECOLOR
 62
   256
  9
$DIMSCALE
 40
2.0
  9
$DIMASZ
 40
3.0
  9
$DIMEXO
 40
2.0
  9
$DIMDLI
 40
0.38
  9
$DIMRND
 40
0.0
  9
$DIMDLE
 40
0.0
  9
$DIMEXE
 40
2.0
  9
$DIMTP
 40
0.0
  9
$DIMTM
 40
0.0
  9
$DIMTXT
 40
3.2000000000000002
  9
$DIMCEN
 40
0.0
  9
$DIMTSZ
 40
0.0
  9
$DIMTOL
 70
     0
  9
$DIMLIM
 70
     0
  9
$DIMTIH
 70
     0
  9
$DIMTOH
 70
     0
  9
$DIMSE1
 70
     0
  9
$DIMSE2
 70
     0
  9
$DIMTAD
 70
     1
  9
$DIMZIN
 70
     0
  9
$DIMBLK
  1

  9
$DIMASO
 70
     0
  9
$DIMSHO
 70
     0
  9
$DIMPOST
  1

  9
$DIMAPOST
  1

  9
$DIMALT
 70
     0
  9
$DIMALTD
 70
     2
  9
$DIMALTF
 40
25.399999999999999
  9
$DIMLFAC
 40
1.0
  9
$DIMTOFL
 70
     1
  9
$DIMTVP
 40
1.6000000000000001
  9
$DIMTIX
 70
     1
  9
$DIMSOXD
 70
     0
  9
$DIMSAH
 70
     0
  9
$DIMBLK1
  1

  9
$DIMBLK2
  1

  9
$DIMSTYLE
  2
STANDARD
  9
$DIMCLRD
 70
     0
  9
$DIMCLRE
 70
     0
  9
$DIMCLRT
 70
     0
  9
$DIMTFAC
 40
1.0
  9
$DIMGAP
 40
0.09
  9
$LUNITS
 70
     2
  9
$LUPREC
 70
     4
  9
$SKETCHINC
 40
0.1
  9
$FILLETRAD
 40
0.0
  9
$AUNITS
 70
     0
  9
$AUPREC
 70
     4
  9
$MENU
  1
E:\r13\win\SUPPORT\ACAD
  9
$ELEVATION
 40
0.0
  9
$PELEVATION
 40
0.0
  9
$THICKNESS
 40
0.0
  9
$LIMCHECK
 70
     0
  9
$BLIPMODE
 70
     0
  9
$CHAMFERA
 40
0.0
  9
$CHAMFERB
 40
0.0
  9
$SKPOLY
 70
     0
  9
$TDCREATE
 40
2449840.6096990742
  9
$TDUPDATE
 40
2457906.601600775
  9
$TDINDWG
 40
0.1768123032
  9
$TDUSRTIMER
 40
0.1768123032
  9
$USRTIMER
 70
     1
  9
$ANGBASE
 50
0.0
  9
$ANGDIR
 70
     0
  9
$PDMODE
 70
     0
  9
$PDSIZE
 40
0.0
  9
$PLINEWID
 40
0.0
  9
$COORDS
 70
     1
  9
$SPLFRAME
 70
     0
  9
$SPLINETYPE
 70
     6
  9
$SPLINESEGS
 70
     8
  9
$ATTDIA
 70
     0
  9
$ATTREQ
 70
     1
  9
$HANDLING
 70
     1
  9
$HANDSEED
  5
3762
  9
$SURFTAB1
 70
     6
  9
$SURFTAB2
 70
     6
  9
$SURFTYPE
 70
     6
  9
$SURFU
 70
     6
  9
$SURFV
 70
     6
  9
$UCSNAME
  2

  9
$UCSORG
 10
0.0
 20
0.0
 30
0.0
  9
$UCSXDIR
 10
1.0
 20
0.0
 30
0.0
  9
$UCSYDIR
 10
0.0
 20
1.0
 30
0.0
  9
$PUCSNAME
  2

  9
$PUCSORG
 10
0.0
 20
0.0
 30
0.0
  9
$PUCSXDIR
 10
1.0
 20
0.0
 30
0.0
  9
$PUCSYDIR
 10
0.0
 20
1.0
 30
0.0
  9
$USERI1
 70
     0
  9
$USERI2
 70
     1
  9
$USERI3
 70
     0
  9
$USERI4
 70
     0
  9
$USERI5
 70
     0
  9
$USERR1
 40
0.0
  9
$USERR2
 40
0.0
  9
$USERR3
 40
0.0
  9
$USERR4
 40
0.0
  9
$USERR5
 40
0.0
  9
$WORLDVIEW
 70
     1
  9
$SHADEDGE
 70
     3
  9
$SHADEDIF
 70
    70
  9
$TILEMODE
 70
     1
  9
$MAXACTVP
 70
    16
  9
$PLIMCHECK
 70
     0
  9
$PEXTMIN
 10
1.0000000000000000E+020
 20
1.0000000000000000E+020
 30
1.0000000000000000E+020
  9
$PEXTMAX
 10
-1.0000000000000000E+020
 20
-1.0000000000000000E+020
 30
-1.0000000000000000E+020
  9
$PLIMMIN
 10
0.0
 20
0.0
  9
$PLIMMAX
 10
12.0
 20
9.0
  9
$UNITMODE
 70
     0
  9
$VISRETAIN
 70
     0
  9
$PLINEGEN
 70
     0
  9
$PSLTSCALE
 70
     0
  0
ENDSEC
  0
SECTION
  2
TABLES
  0
TABLE
  2
VPORT
 70
     1
  0
VPORT
  2
*ACTIVE
 70
     0
 10
0.0
 20
0.0
 11
1.0
 21
1.0
 12
615.82053463835246
 22
215.9686868493238
 13
0.0
 23
0.0
 14
20.0
 24
20.0
 15
20.0
 25
20.0
 16
0.0
 26
0.0
 36
1.0
 17
0.0
 27
0.0
 37
0.0
 40
474.97602291265372
 41
2.6019575856443709
 42
50.0
 43
0.0
 44
0.0
 50
0.0
 51
0.0
 71
     0
 72
   500
 73
     1
 74
     0
 75
     0
 76
     0
 77
     0
 78
     2
  0
ENDTAB
  0
TABLE
  2
LTYPE
 70
     4
  0
LTYPE
  2
CONTINUOUS
 70
     0
  3
Solid Line
 72
    65
 73
     0
 40
0.0
  0
LTYPE
  2
CENTER
 70
     0
  3
____ _ ____ _ ____ _ ____ _ ____ _ ____ _ ____
 72
    65
 73
     4
 40
2.0
 49
1.25
 49
-0.25
 49
0.25
 49
-0.25
  0
LTYPE
  2
HIDDEN
 70
     0
  3
_ _ _ _ _ _ _ _ _ _ _ _ _ _ _ _ _ _ _ _ _ _ _
 72
    65
 73
     2
 40
0.375
 49
0.25
 49
-0.125
  0
LTYPE
  2
PHANTOM2
 70
     0
  3
___ _ _ ___ _ _ ___ _ _ ___ _ _
 72
    65
 73
     6
 40
1.25
 49
0.625
 49
-0.125
 49
0.125
 49
-0.125
 49
0.125
 49
-0.125
  0
ENDTAB
  0
TABLE
  2
LAYER
 70
     4
  0
LAYER
  2
0
 70
     0
 62
     7
  6
CONTINUOUS
  0
LAYER
  2
1
 70
     0
 62
     1
  6
CENTER
  0
LAYER
  2
2
 70
     0
 62
     2
  6
HIDDEN
  0
LAYER
  2
3
 70
     0
 62
     3
  6
CONTINUOUS
  0
ENDTAB
  0
TABLE
  2
STYLE
 70
     2
  0
STYLE
  2
STANDARD
 70
     0
 40
0.0
 41
1.0
 50
0.0
 71
     0
 42
0.2
  3
TXT
  4
BIGFONT
  0
STYLE
  2
STANDARD1
 70
     0
 40
0.0
 41
1.0
 50
0.0
 71
     0
 42
3.0
  3
txt
  4

  0
ENDTAB
  0
TABLE
  2
VIEW
 70
     1
  0
VIEW
  2
ALL
 70
     0
 40
540.0
 10
441.98319327731087
 20
270.0
 41
0.0
 11
0.0
 21
0.0
 31
1.0
 12
0.0
 22
0.0
 32
0.0
 42
0.0
 43
0.0
 44
0.0
 50
0.0
 71
     0
  0
ENDTAB
  0
TABLE
  2
UCS
 70
     0
  0
ENDTAB
  0
TABLE
  2
APPID
 70
     4
  0
APPID
  2
ACAD
 70
     0
  0
APPID
  2
ACAD_MLEADERVER
 70
     0
  0
APPID
  2
ACAD_NAV_VCDISPLAY
 70
     0
  0
APPID
  2
ACAD_EXEMPT_FROM_CAD_STANDARDS
 70
     0
  0
ENDTAB
  0
TABLE
  2
DIMSTYLE
 70
     1
  0
DIMSTYLE
  2
STANDARD
 70
     0
  3

  4

  5

  6

  7

 40
1.0
 41
0.18
 42
0.0625
 43
0.38
 44
0.18
 45
0.0
 46
0.0
 47
0.0
 48
0.0
140
0.18
141
0.09
142
0.0
143
25.399999999999999
144
1.0
145
0.0
146
1.0
147
0.09
 71
     0
 72
     0
 73
     1
 74
     1
 75
     0
 76
     0
 77
     0
 78
     0
170
     0
171
     2
172
     0
173
     0
174
     0
175
     0
176
     0
177
     0
178
     0
  0
ENDTAB
  0
ENDSEC
  0
SECTION
  2
BLOCKS
  0
BLOCK
  8
0
  2
$MODEL_SPACE
 70
     0
 10
0.0
 20
0.0
 30
0.0
  3
$MODEL_SPACE
  1

  0
ENDBLK
  5
1A2
  8
0
  0
BLOCK
 67
     1
  8
0
  2
$PAPER_SPACE
 70
     0
 10
0.0
 20
0.0
 30
0.0
  3
$PAPER_SPACE
  1

  0
ENDBLK
  5
1A0
 67
     1
  8
0
  0
ENDSEC
  0
SECTION
  2
ENTITIES
  0
TEXT
  5
341E
  8
0
 62
     3
 10
0.0
 20
0.0
 30
0.0
 40
10.0
  1
HR16-LC
  7
STANDARD1
  0
ARC
  5
341F
  8
0
 10
399.99999999999977
 20
210.3595997602001
 30
0.0
 40
41.39999999999997
 50
0.000002946319415
 51
180.0000024041569
  0
LINE
  5
3420
  8
0
 10
377.64999999999981
 20
170.3131372701327
 30
0.0
 11
377.64999999999981
 21
210.3596019608328
 31
0.0
  0
LINE
  5
3421
  8
0
 10
358.5999999999998
 20
168.62960033120001
 30
0.0
 11
358.5999999999998
 21
210.3596019608328
 31
0.0
  0
LINE
  5
3422
  8
0
 10
422.34999999999962
 20
210.3596018891113
 30
0.0
 11
422.34999999999962
 21
170.3131371984112
 31
0.0
  0
LINE
  5
3423
  8
0
 10
441.39999999999969
 20
210.3596018891113
 30
0.0
 11
441.39999999999969
 21
168.62960033120001
 31
0.0
  0
LINE
  5
3424
  8
0
 10
359.76639911529992
 20
135.6031996687
 30
0.0
 11
361.25229820610002
 21
134.1172996466
 31
0.0
  0
LINE
  5
3425
  8
0
 10
373.95230084650012
 20
134.1172996466
 30
0.0
 11
374.57459941499991
 21
134.73959967030001
 31
0.0
  0
LINE
  5
3426
  8
0
 10
425.42540058489988
 20
134.73959967030001
 30
0.0
 11
426.04769915339978
 21
134.1172996466
 31
0.0
  0
LINE
  5
3427
  8
0
 10
438.74770179389998
 20
134.1172996466
 30
0.0
 11
440.23360088459998
 21
135.6031996687
 31
0.0
  0
LINE
  5
3428
  8
0
 10
376.31449997420009
 20
154.7014588863
 30
0.0
 11
377.5057602673001
 21
153.5102004558
 31
0.0
  0
LINE
  5
3429
  8
0
 10
422.49423973259991
 20
153.5102004558
 30
0.0
 11
423.68550002569992
 21
154.7014588863
 31
0.0
  0
LINE
  5
342A
  8
0
 10
423.68550002569992
 20
158.7959403545
 30
0.0
 11
422.49423973259991
 21
159.987198785
 31
0.0
  0
LINE
  5
342B
  8
0
 10
377.5057602673001
 20
159.987198785
 30
0.0
 11
376.31449997420009
 21
158.7959403545
 31
0.0
  0
LINE
  5
342C
  8
0
 10
423.68550002569992
 20
154.7014588863
 30
0.0
 11
423.68550002569992
 21
158.7959403545
 31
0.0
  0
LINE
  5
342D
  8
0
 10
376.31449997420009
 20
158.7959403545
 30
0.0
 11
376.31449997420009
 21
154.7014588863
 31
0.0
  0
LINE
  5
342E
  8
0
 10
419.05000023544972
 20
134.18079960630001
 30
0.0
 11
418.41500028964992
 21
134.81579966839999
 31
0.0
  0
LINE
  5
342F
  8
0
 10
381.58499971034962
 20
134.81579966839999
 30
0.0
 11
380.94999976454977
 21
134.18079960630001
 31
0.0
  0
LINE
  5
3430
  8
0
 10
419.0500002354496
 20
129.39459970589999
 30
0.0
 11
419.05000023544972
 21
134.18079960630001
 31
0.0
  0
LINE
  5
3431
  8
0
 10
380.94999976454977
 20
134.18079960630001
 30
0.0
 11
380.94999976454977
 21
129.39459970589999
 31
0.0
  0
LINE
  5
3432
  8
0
 10
380.94999976454977
 20
129.39459970590011
 30
0.0
 11
381.58499971034962
 21
128.7595997602001
 31
0.0
  0
LINE
  5
3433
  8
0
 10
418.41500028964992
 20
128.7595997602001
 30
0.0
 11
419.05000023544972
 21
129.39459970590011
 31
0.0
  0
LINE
  5
3434
  8
0
 10
355.80799921149969
 20
150.83499976044999
 30
0.0
 11
355.29999999999978
 21
150.32699961755
 31
0.0
  0
LINE
  5
3435
  8
0
 10
355.29999999999978
 20
138.59219990285001
 30
0.0
 11
355.80799921149969
 21
138.08419999275009
 31
0.0
  0
LINE
  5
3436
  8
0
 10
355.80799921149969
 20
138.08419999275009
 30
0.0
 11
359.76639911529992
 21
138.08419999275009
 31
0.0
  0
LINE
  5
3437
  8
0
 10
359.76639911529992
 20
150.83499976044999
 30
0.0
 11
355.80799921149969
 21
150.83499976044999
 31
0.0
  0
LINE
  5
3438
  8
0
 10
444.1920007883997
 20
150.83499976044999
 30
0.0
 11
440.23360088459998
 21
150.83499976044999
 31
0.0
  0
LINE
  5
3439
  8
0
 10
440.23360088459998
 20
138.08419999275009
 30
0.0
 11
444.1920007883997
 21
138.08419999275009
 31
0.0
  0
LINE
  5
343A
  8
0
 10
444.1920007883997
 20
138.08419999275009
 30
0.0
 11
444.6999999999997
 21
138.59219990285001
 31
0.0
  0
LINE
  5
343B
  8
0
 10
444.6999999999997
 20
150.32699961755
 30
0.0
 11
444.1920007883997
 21
150.83499976044999
 31
0.0
  0
LINE
  5
343E
  8
0
 10
374.57459941499991
 20
139.62724969335
 30
0.0
 11
374.79049954564971
 21
139.62724969335
 31
0.0
  0
LINE
  5
343F
  8
0
 10
374.79049954564971
 20
149.29195005995001
 30
0.0
 11
374.57459941499991
 21
149.29195005995001
 31
0.0
  0
LINE
  5
3440
  8
0
 10
425.42540058489988
 20
149.29195005995001
 30
0.0
 11
425.2095004543495
 21
149.29195005995001
 31
0.0
  0
LINE
  5
3441
  8
0
 10
425.2095004543495
 20
139.62724969335011
 30
0.0
 11
425.42540058489988
 21
139.62724969335
 31
0.0
  0
ARC
  5
3442
  8
0
 10
388.96462868942928
 20
161.40086577225441
 30
0.0
 40
14.403104027658561
 50
141.77331300648049
 51
182.44151384828331
  0
LINE
  5
3443
  8
0
 10
374.57459941499991
 20
134.73959967030001
 30
0.0
 11
374.57459941499991
 21
160.78729987139999
 31
0.0
  0
LINE
  5
3444
  8
0
 10
359.76639911529992
 20
137.29229978289999
 30
0.0
 11
374.57459941499991
 21
137.29229978289999
 31
0.0
  0
LINE
  5
3445
  8
0
 10
359.76639911529992
 20
160.78729987139999
 30
0.0
 11
359.76639911529969
 21
135.6031996686998
 31
0.0
  0
ARC
  5
3446
  8
0
 10
411.03534042915771
 20
161.4008557817437
 30
0.0
 40
14.40313445543601
 50
357.55853109124303
 51
38.226642131045942
  0
LINE
  5
3447
  8
0
 10
440.23360088459998
 20
135.6031996687
 30
0.0
 11
440.23360088459998
 21
160.78729987139999
 31
0.0
  0
LINE
  5
3448
  8
0
 10
425.42540058489988
 20
137.29229978289999
 30
0.0
 11
440.23360088459998
 21
137.29229978289999
 31
0.0
  0
LINE
  5
3449
  8
0
 10
425.42540058489988
 20
160.78729987139999
 30
0.0
 11
425.42540058489971
 21
134.73959967030021
 31
0.0
  0
LINE
  5
344A
  8
0
 10
361.25229820609979
 20
134.1172996466
 30
0.0
 11
373.95230084650012
 21
134.1172996466
 31
0.0
  0
LINE
  5
344B
  8
0
 10
426.04769915339978
 20
134.1172996466
 30
0.0
 11
438.74770179389992
 21
134.1172996466
 31
0.0
  0
LINE
  5
344E
  8
0
 10
425.20950045434938
 20
153.5102004558
 30
0.0
 11
374.79049954564982
 21
153.5102004558
 31
0.0
  0
LINE
  5
344F
  8
0
 10
425.20950045434938
 20
153.5102004558
 30
0.0
 11
425.2095004543495
 21
134.81579966839999
 31
0.0
  0
LINE
  5
3450
  8
0
 10
374.79049954564982
 20
153.5102004558
 30
0.0
 11
374.7904995456496
 21
134.81579966839999
 31
0.0
  0
LINE
  5
3451
  8
0
 10
374.7904995456496
 20
134.81579966839999
 30
0.0
 11
425.2095004543495
 21
134.81579966839999
 31
0.0
  0
LINE
  5
3454
  8
0
 10
422.49423973259991
 20
159.987198785
 30
0.0
 11
377.5057602673001
 21
159.987198785
 31
0.0
  0
LINE
  5
3455
  8
0
 10
381.58499971034962
 20
128.7595997602001
 30
0.0
 11
418.41500028964992
 21
128.7595997602001
 31
0.0
  0
LINE
  5
3456
  8
0
 10
355.29999999999978
 20
150.32699961755
 30
0.0
 11
355.29999999999978
 21
138.59219990285001
 31
0.0
  0
LINE
  5
3457
  8
0
 10
355.80799921149952
 20
150.8349997604499
 30
0.0
 11
355.80799921149969
 21
138.08419999275009
 31
0.0
  0
LINE
  5
3458
  8
0
 10
444.1920007883997
 20
138.08419999275009
 30
0.0
 11
444.1920007883997
 21
150.83499976044999
 31
0.0
  0
LINE
  5
3459
  8
0
 10
444.6999999999997
 20
138.59219990285001
 30
0.0
 11
444.6999999999997
 21
150.32699961755
 31
0.0
  0
ARC
  5
345C
  8
0
 10
600.0
 20
242.23459976020001
 30
0.0
 40
9.5250000000000341
 50
0.0
 51
180.0
  0
LINE
  5
345D
  8
0
 10
590.47499988230015
 20
242.2345968246
 30
0.0
 11
590.47499988230015
 21
137.29229978289999
 31
0.0
  0
LINE
  5
345E
  8
0
 10
609.52500011769996
 20
137.29229978289999
 30
0.0
 11
609.52500011769996
 21
242.2345968246
 31
0.0
  0
LINE
  5
345F
  8
0
 10
590.47499988230015
 20
137.29229978289999
 30
0.0
 11
593.65000007670005
 21
134.1172996466
 31
0.0
  0
LINE
  5
3460
  8
0
 10
606.34999992320013
 20
134.1172996466
 30
0.0
 11
609.52500011769996
 21
137.29229978289999
 31
0.0
  0
LINE
  5
3461
  8
0
 10
623.68550002569998
 20
158.7959403545
 30
0.0
 11
622.49423973260014
 21
159.987198785
 31
0.0
  0
LINE
  5
3462
  8
0
 10
577.50576026739998
 20
159.987198785
 30
0.0
 11
576.31449997419998
 21
158.7959403545
 31
0.0
  0
LINE
  5
3463
  8
0
 10
576.31449997419998
 20
154.7014588863
 30
0.0
 11
577.50576026739998
 21
153.5102004558
 31
0.0
  0
LINE
  5
3464
  8
0
 10
622.49423973260014
 20
153.5102004558
 30
0.0
 11
623.68550002569998
 21
154.7014588863
 31
0.0
  0
LINE
  5
3465
  8
0
 10
623.68550002569998
 20
154.7014588863
 30
0.0
 11
623.68550002569998
 21
158.7959403545
 31
0.0
  0
LINE
  5
3466
  8
0
 10
576.31449997419998
 20
158.7959403545
 30
0.0
 11
576.31449997419998
 21
154.7014588863
 31
0.0
  0
LINE
  5
3467
  8
0
 10
619.05000023539992
 20
129.39459970590011
 30
0.0
 11
619.05000023539992
 21
134.18079960630001
 31
0.0
  0
LINE
  5
3468
  8
0
 10
580.94999976450003
 20
134.18079960630001
 30
0.0
 11
580.94999976450015
 21
129.39459970589991
 31
0.0
  0
LINE
  5
3469
  8
0
 10
619.05000023539992
 20
134.18079960630001
 30
0.0
 11
618.41500028969995
 21
134.81579966839999
 31
0.0
  0
LINE
  5
346A
  8
0
 10
581.58499971030005
 20
134.81579966839999
 30
0.0
 11
580.94999976450003
 21
134.18079960630001
 31
0.0
  0
LINE
  5
346B
  8
0
 10
580.94999976450003
 20
129.39459970590011
 30
0.0
 11
581.58499971030005
 21
128.7595997602001
 31
0.0
  0
LINE
  5
346C
  8
0
 10
618.41500028969995
 20
128.7595997602001
 30
0.0
 11
619.05000023539992
 21
129.39459970590011
 31
0.0
  0
LINE
  5
346D
  8
0
 10
605.41519140820014
 20
137.29229978289999
 30
0.0
 11
609.52500011769996
 21
137.29229978289999
 31
0.0
  0
LINE
  5
346E
  8
0
 10
605.41519140820026
 20
141.0948669071262
 30
0.0
 11
605.41519140820014
 21
137.29229978289999
 31
0.0
  0
LINE
  5
346F
  8
0
 10
605.41519140820014
 20
160.78729987139999
 30
0.0
 11
605.41519140820014
 21
147.82433261327409
 31
0.0
  0
POLYLINE
  5
3470
  8
0
 66
     1
 10
0.0
 20
0.0
 30
0.0
 70
   128
  0
VERTEX
  5
3740
  8
0
 10
594.58480859170004
 20
160.78729987139999
 30
0.0
  0
VERTEX
  5
3741
  8
0
 10
594.68784406780014
 20
162.4246171117
 30
0.0
  0
VERTEX
  5
3742
  8
0
 10
595.00849330799986
 20
164.02101762589999
 30
0.0
  0
VERTEX
  5
3743
  8
0
 10
595.43786002320007
 20
165.23051321509999
 30
0.0
  0
VERTEX
  5
3744
  8
0
 10
596.04480061679999
 20
166.34615384040001
 30
0.0
  0
VERTEX
  5
3745
  8
0
 10
597.27482674640009
 20
167.6806273311
 30
0.0
  0
VERTEX
  5
3746
  8
0
 10
598.58264322390005
 20
168.3904813975
 30
0.0
  0
VERTEX
  5
3747
  8
0
 10
600.0
 20
168.62960033120001
 30
0.0
  0
VERTEX
  5
3748
  8
0
 10
601.34227797389997
 20
168.41568298639999
 30
0.0
  0
VERTEX
  5
3749
  8
0
 10
602.53686984069998
 20
167.8184705228
 30
0.0
  0
VERTEX
  5
374A
  8
0
 10
603.23228165500007
 20
167.23314173520001
 30
0.0
  0
VERTEX
  5
374B
  8
0
 10
603.81922209630011
 20
166.5416384488
 30
0.0
  0
VERTEX
  5
374C
  8
0
 10
604.44949977100009
 20
165.47536723319999
 30
0.0
  0
VERTEX
  5
374D
  8
0
 10
604.90564201019993
 20
164.31072600190001
 30
0.0
  0
VERTEX
  5
374E
  8
0
 10
605.29189733789997
 20
162.57616005840001
 30
0.0
  0
VERTEX
  5
374F
  8
0
 10
605.41519140820014
 20
160.78729987139999
 30
0.0
  0
SEQEND
  5
3750
  8
0
  0
LINE
  5
3471
  8
0
 10
594.58480859170004
 20
147.8243326131134
 30
0.0
 11
594.58480859170004
 21
160.78729987139999
 31
0.0
  0
LINE
  5
3472
  8
0
 10
594.58480859170004
 20
137.29229978289999
 30
0.0
 11
594.58480859170015
 21
141.09486690728659
 31
0.0
  0
LINE
  5
3473
  8
0
 10
590.47499988230015
 20
137.29229978289999
 30
0.0
 11
594.58480859170004
 21
137.29229978289999
 31
0.0
  0
LINE
  5
3474
  8
0
 10
605.41519140820014
 20
160.78729987139999
 30
0.0
 11
594.58480859170004
 21
160.78729987139999
 31
0.0
  0
ARC
  5
3475
  8
0
 10
600.0
 20
145.49233714799999
 30
0.0
 40
9.8267446683986002
 50
236.55977856889291
 51
303.4402214311072
  0
LINE
  5
3476
  8
0
 10
593.65000007670005
 20
134.1172996466
 30
0.0
 11
606.34999992320013
 21
134.1172996466
 31
0.0
  0
CIRCLE
  5
3477
  8
0
 10
600.0
 20
144.45959976020009
 30
0.0
 40
5.8674000000672617
  0
CIRCLE
  5
3478
  8
0
 10
600.0
 20
144.45959976020009
 30
0.0
 40
6.3754000000000133
  0
LINE
  5
3479
  8
0
 10
622.49423973260014
 20
159.987198785
 30
0.0
 11
609.52500011769996
 21
159.987198785
 31
0.0
  0
LINE
  5
347A
  8
0
 10
590.47499988230015
 20
159.987198785
 30
0.0
 11
577.50576026739998
 21
159.987198785
 31
0.0
  0
LINE
  5
347B
  8
0
 10
581.58499971030005
 20
128.7595997602001
 30
0.0
 11
618.41500028969995
 21
128.7595997602001
 31
0.0
  0
LINE
  5
347C
  8
0
 10
368.12499999999989
 20
370.66649955070011
 30
0.0
 11
431.8749999999996
 21
370.66649955070011
 31
0.0
  0
LINE
  5
347D
  8
0
 10
431.8749999999996
 20
389.71649978620007
 30
0.0
 11
368.12499999999989
 21
389.71649978620007
 31
0.0
  0
LINE
  5
347E
  8
0
 10
355.80799921149969
 20
386.56689955230019
 30
0.0
 11
355.29999999999978
 21
386.05889987510022
 31
0.0
  0
LINE
  5
347F
  8
0
 10
355.29999999999978
 20
374.32409946180019
 30
0.0
 11
355.80799921149969
 21
373.81609978460023
 31
0.0
  0
LINE
  5
3480
  8
0
 10
355.80799921149969
 20
373.81609978460023
 30
0.0
 11
359.76639911529992
 21
373.81609978460011
 31
0.0
  0
LINE
  5
3481
  8
0
 10
359.76639911529992
 20
386.56689955230007
 30
0.0
 11
355.80799921149969
 21
386.56689955230019
 31
0.0
  0
LINE
  5
3482
  8
0
 10
444.1920007883997
 20
373.81609978460011
 30
0.0
 11
444.6999999999997
 21
374.32409946180007
 31
0.0
  0
LINE
  5
3483
  8
0
 10
444.6999999999997
 20
386.05889987510022
 30
0.0
 11
444.1920007883997
 21
386.56689955230007
 31
0.0
  0
LINE
  5
3484
  8
0
 10
444.1920007883997
 20
386.56689955230007
 30
0.0
 11
440.23360088459998
 21
386.56689955230007
 31
0.0
  0
LINE
  5
3485
  8
0
 10
440.23360088459998
 20
373.81609978460011
 30
0.0
 11
444.1920007883997
 21
373.81609978460011
 31
0.0
  0
ARC
  5
3486
  8
0
 10
431.8749999999996
 20
380.19149966845009
 30
0.0
 40
9.5250000000000341
 50
0.0
 51
90.0
  0
ARC
  5
3487
  8
0
 10
431.8749999999996
 20
380.19149966845009
 30
0.0
 40
9.5250000000000341
 50
270.0
 51
0.0
  0
ARC
  5
3488
  8
0
 10
368.12499999999989
 20
380.19149966840013
 30
0.0
 40
9.5250000000000341
 50
180.0
 51
270.0
  0
ARC
  5
3489
  8
0
 10
368.12499999999989
 20
380.19149966840013
 30
0.0
 40
9.5250000000000341
 50
90.0
 51
180.0
  0
ARC
  5
348A
  8
0
 10
400.0
 20
380.19149966840013
 30
0.0
 40
22.494240000000051
 50
25.052070075397339
 51
90.0
  0
ARC
  5
348B
  8
0
 10
400.0
 20
380.19149966840013
 30
0.0
 40
22.494240000000019
 50
205.0520700753973
 51
334.9479299246027
  0
ARC
  5
348C
  8
0
 10
400.0
 20
380.19149966840013
 30
0.0
 40
22.494240000000051
 50
90.0
 51
154.9479299246027
  0
ARC
  5
348D
  8
0
 10
400.0
 20
380.19149966840013
 30
0.0
 40
23.68550000000004
 50
23.712327184403279
 51
90.0
  0
ARC
  5
348E
  8
0
 10
400.0
 20
380.19149966840013
 30
0.0
 40
23.685500000000019
 50
203.71232718440331
 51
336.28767281559669
  0
ARC
  5
348F
  8
0
 10
400.0
 20
380.19149966840013
 30
0.0
 40
23.68549999999999
 50
90.0
 51
156.28767281559669
  0
LINE
  5
3490
  8
0
 10
355.29999999999978
 20
386.05889987510022
 30
0.0
 11
355.29999999999978
 21
374.32409946180019
 31
0.0
  0
LINE
  5
3491
  8
0
 10
355.80799921149969
 20
386.56689955230019
 30
0.0
 11
355.80799921149969
 21
373.81609978460023
 31
0.0
  0
LINE
  5
3492
  8
0
 10
359.76639911529992
 20
373.81609978460011
 30
0.0
 11
359.76639911529992
 21
375.62428867586931
 31
0.0
  0
LINE
  5
3493
  8
0
 10
359.76639911529992
 20
384.758710660931
 30
0.0
 11
359.76639911529992
 21
386.56689955230007
 31
0.0
  0
LINE
  5
3494
  8
0
 10
444.6999999999997
 20
374.32409946180007
 30
0.0
 11
444.6999999999997
 21
386.05889987510022
 31
0.0
  0
LINE
  5
3495
  8
0
 10
444.1920007883997
 20
373.81609978460011
 30
0.0
 11
444.1920007883997
 21
386.56689955230007
 31
0.0
  0
LINE
  5
3496
  8
0
 10
440.23360088459998
 20
386.56689955230007
 30
0.0
 11
440.23360088459992
 21
384.75871066116309
 31
0.0
  0
LINE
  5
3497
  8
0
 10
440.23360088459992
 20
375.62428867573698
 30
0.0
 11
440.23360088459998
 21
373.81609978460011
 31
0.0
  0
LINE
  5
3498
  8
0
 10
228.6500000000498
 20
151.92269966000001
 30
0.0
 11
227.06250106694981
 21
153.51020045579989
 31
0.0
  0
LINE
  5
3499
  8
0
 10
227.06250106694981
 20
134.8157996683999
 30
0.0
 11
228.6500000000498
 21
136.40329964919999
 31
0.0
  0
LINE
  5
349A
  8
0
 10
228.6500000000498
 20
136.40329964919999
 30
0.0
 11
228.6500000000498
 21
151.92269966000001
 31
0.0
  0
LINE
  5
349B
  8
0
 10
223.68550002574989
 20
154.7014588861999
 30
0.0
 11
223.68550002574989
 21
158.79594035439999
 31
0.0
  0
LINE
  5
349C
  8
0
 10
176.31449997424991
 20
158.79594035439999
 30
0.0
 11
176.31449997424991
 21
154.7014588861999
 31
0.0
  0
LINE
  5
349D
  8
0
 10
223.68550002574989
 20
158.79594035439999
 30
0.0
 11
222.49423973264979
 21
159.98719878489999
 31
0.0
  0
LINE
  5
349E
  8
0
 10
177.50576026734981
 20
159.98719878489999
 30
0.0
 11
176.31449997424991
 21
158.79594035439999
 31
0.0
  0
LINE
  5
349F
  8
0
 10
176.31449997424991
 20
154.7014588861999
 30
0.0
 11
177.03136010345941
 21
153.98459987790011
 31
0.0
  0
LINE
  5
34A0
  8
0
 10
222.49423973264979
 20
153.51020045579989
 30
0.0
 11
223.68550002574989
 21
154.7014588861999
 31
0.0
  0
LINE
  5
34A1
  8
0
 10
219.0500002354498
 20
134.18079960619991
 30
0.0
 11
218.41500028964981
 21
134.8157996683999
 31
0.0
  0
LINE
  5
34A2
  8
0
 10
219.0500002354498
 20
129.39459970590011
 30
0.0
 11
219.0500002354498
 21
134.18079960619991
 31
0.0
  0
LINE
  5
34A3
  8
0
 10
180.9499997645498
 20
134.18079960619991
 30
0.0
 11
180.9499997645498
 21
129.39459970589999
 31
0.0
  0
LINE
  5
34A4
  8
0
 10
180.94999976454969
 20
129.39459970589999
 30
0.0
 11
181.58499971034979
 21
128.7595997601
 31
0.0
  0
LINE
  5
34A5
  8
0
 10
218.4150002896497
 20
128.7595997601
 30
0.0
 11
219.0500002354498
 21
129.39459970589999
 31
0.0
  0
CIRCLE
  5
34A6
  8
0
 10
200.00000000004979
 20
144.45959976020009
 30
0.0
 40
5.8674000000564632
  0
CIRCLE
  5
34A7
  8
0
 10
200.00000000004979
 20
144.45959976020009
 30
0.0
 40
6.3754000000000133
  0
LINE
  5
34AB
  8
0
 10
227.06250106694989
 20
153.51020045579989
 30
0.0
 11
207.64169939075401
 21
153.5102004558
 31
0.0
  0
LINE
  5
34AC
  8
0
 10
172.93749893304971
 20
134.81579966839999
 30
0.0
 11
227.06250106694981
 21
134.8157996683999
 31
0.0
  0
LINE
  5
34AD
  8
0
 10
222.49423973264979
 20
159.98719878489999
 30
0.0
 11
177.50576026734981
 21
159.98719878489999
 31
0.0
  0
LINE
  5
34AE
  8
0
 10
181.58499971034979
 20
128.7595997601
 30
0.0
 11
218.4150002896497
 21
128.7595997601
 31
0.0
  0
CIRCLE
  5
34B2
  8
0
 10
200.00000000004979
 20
380.19149966845009
 30
0.0
 40
22.494239999999991
  0
CIRCLE
  5
34B3
  8
0
 10
200.00000000004979
 20
380.19149966845009
 30
0.0
 40
23.68549999999999
  0
LINE
  5
34B6
  8
0
 10
186.3873739917392
 20
405.40100012279999
 30
0.0
 11
213.61262600836031
 21
405.40100012279999
 31
0.0
  0
ARC
  5
34BA
  8
2
 10
600.0
 20
242.23459976020001
 30
0.0
 40
9.5250000000000341
 50
180.0
 51
0.0
  0
LINE
  5
34BC
  8
0
 10
186.38737399173931
 20
354.9819992141002
 30
0.0
 11
213.61262600836031
 21
354.9819992141002
 31
0.0
  0
ARC
  5
34C0
  8
0
 10
200.00000000004979
 20
380.19149966845009
 30
0.0
 40
28.649999999999999
 50
298.36815899685638
 51
61.631841003143599
  0
ARC
  5
34C1
  8
0
 10
200.00000000004979
 20
380.19149966845009
 30
0.0
 40
28.649999999999999
 50
118.36815899685629
 51
241.63184100314359
  0
LINE
  5
34C5
  8
0
 10
374.79049954565022
 20
366.57887366008953
 30
0.0
 11
374.79049954565022
 21
370.66649955070011
 31
0.0
  0
LINE
  5
34C6
  8
0
 10
374.79049954565022
 20
389.71649978620007
 30
0.0
 11
374.79049954565022
 21
393.80412567671073
 31
0.0
  0
LINE
  5
34CA
  8
0
 10
425.20950045434978
 20
366.57887366008953
 30
0.0
 11
425.20950045434978
 21
370.66649955070011
 31
0.0
  0
LINE
  5
34CB
  8
0
 10
425.20950045435001
 20
389.71649978620007
 30
0.0
 11
425.20950045435001
 21
393.80412567671073
 31
0.0
  0
ARC
  5
34CF
  8
0
 10
400.0
 20
380.19149966840013
 30
0.0
 40
28.649999999999999
 50
28.368158996857989
 51
151.631841003142
  0
ARC
  5
34D0
  8
0
 10
400.0
 20
380.19149966840013
 30
0.0
 40
28.649999999999999
 50
208.368158996858
 51
331.63184100314197
  0
LINE
  5
34D3
  8
0
 10
628.65000000005011
 20
151.92269966000001
 30
0.0
 11
627.06250106695029
 21
153.5102004558
 31
0.0
  0
LINE
  5
34D4
  8
0
 10
627.06250106695029
 20
134.81579966839999
 30
0.0
 11
628.65000000005011
 21
136.40329964919999
 31
0.0
  0
LINE
  5
34D5
  8
0
 10
628.65000000005011
 20
136.40329964919999
 30
0.0
 11
628.65000000005011
 21
151.92269966000001
 31
0.0
  0
LINE
  5
34D6
  8
0
 10
627.06250106695029
 20
153.5102004558
 30
0.0
 11
609.52500011769996
 21
153.5102004558
 31
0.0
  0
LINE
  5
34D7
  8
0
 10
607.04849999953171
 20
134.81579966839999
 30
0.0
 11
627.06250106695029
 21
134.81579966839999
 31
0.0
  0
LINE
  5
34D8
  8
0
 10
571.34999999994977
 20
151.92269966000001
 30
0.0
 11
572.93749893304971
 21
153.5102004558
 31
0.0
  0
LINE
  5
34D9
  8
0
 10
572.93749893304971
 20
134.81579966839999
 30
0.0
 11
571.34999999994977
 21
136.40329964919999
 31
0.0
  0
LINE
  5
34DA
  8
0
 10
571.34999999994977
 20
136.40329964919999
 30
0.0
 11
571.34999999994977
 21
151.92269966000001
 31
0.0
  0
LINE
  5
34DB
  8
0
 10
572.93749893304971
 20
153.5102004558
 30
0.0
 11
590.47499988229993
 21
153.5102004558
 31
0.0
  0
LINE
  5
34DC
  8
0
 10
592.95150000046817
 20
134.81579966839999
 30
0.0
 11
572.93749893304971
 21
134.81579966839999
 31
0.0
  0
LINE
  5
34E3
  8
1
 10
400.0
 20
418.84149966839999
 30
0.0
 11
400.0
 21
341.54149966840021
 31
0.0
  0
LINE
  5
34E4
  8
1
 10
454.6999999999997
 20
380.19149966845009
 30
0.0
 11
345.29999999999978
 21
380.19149966845021
 31
0.0
  0
LINE
  5
34E5
  8
1
 10
368.12499999999989
 20
360.66649955070011
 30
0.0
 11
368.12499999999989
 21
399.71649978620007
 31
0.0
  0
LINE
  5
34E6
  8
1
 10
431.8749999999996
 20
360.66649955075007
 30
0.0
 11
431.8749999999996
 21
399.7164997862501
 31
0.0
  0
LINE
  5
34E7
  8
1
 10
199.99999999999989
 20
180.39359815409989
 30
0.0
 11
200.0
 21
89.759599760200118
 31
0.0
  0
LINE
  5
34E8
  8
1
 10
399.99999999999977
 20
89.759599760200118
 30
0.0
 11
399.99999999999977
 21
261.7595997602001
 31
0.0
  0
LINE
  5
34E9
  8
1
 10
600.0
 20
89.759599760200118
 30
0.0
 11
600.0
 21
261.7595997602001
 31
0.0
  0
LINE
  5
34EA
  8
1
 10
348.5999999999998
 20
210.3595976034328
 30
0.0
 11
451.39999999999958
 21
210.35960191696739
 31
0.0
  0
LINE
  5
34EB
  8
1
 10
345.29999999999978
 20
144.45959976020009
 30
0.0
 11
454.6999999999997
 21
144.45959976020009
 31
0.0
  0
LINE
  5
34EC
  8
1
 10
588.62459999999976
 20
144.45959976020009
 30
0.0
 11
611.37540000000013
 21
144.45959976020009
 31
0.0
  0
LINE
  5
34ED
  8
1
 10
585.47499988230015
 20
242.2345968246
 30
0.0
 11
614.52500011769996
 21
242.2345968246
 31
0.0
  0
LINE
  5
352E
  8
0
 10
180.94999976455011
 20
134.1807996062
 30
0.0
 11
181.5849997103501
 21
134.81579966839999
 31
0.0
  0
LINE
  5
352F
  8
0
 10
172.93749893304971
 20
134.8157996683999
 30
0.0
 11
172.8186990373537
 21
134.93459964250019
 31
0.0
  0
ARC
  5
3531
  8
0
 10
399.99999999999977
 20
210.3595997602001
 30
0.0
 40
22.350000000000001
 50
0.0000024041569015
 51
180.0000024041569
  0
ARC
  5
3532
  8
1
 10
399.99999999999977
 20
210.3595997602001
 30
0.0
 40
31.875000000000082
 50
0.0000024041568583
 51
180.0000024041569
  0
LINE
  5
3533
  8
1
 10
368.12499999999972
 20
210.35959842271069
 30
0.0
 11
368.12499999999977
 21
124.1172996466
 31
0.0
  0
LINE
  5
3534
  8
1
 10
431.87499999999977
 20
210.35960109768951
 30
0.0
 11
431.87499999999977
 21
124.1173023215789
 31
0.0
  0
ARC
  5
3535
  8
0
 10
134.0999999999998
 20
380.19149966850011
 30
0.0
 40
41.39999999999997
 50
90.000002946317665
 51
270.00000240415648
  0
LINE
  5
3536
  8
0
 10
174.14646249006719
 20
357.84149966850009
 30
0.0
 11
134.09999779936709
 21
357.84149966850009
 31
0.0
  0
LINE
  5
3537
  8
0
 10
175.8299994297445
 20
338.79149966850008
 30
0.0
 11
134.09999779936709
 21
338.79149966850008
 31
0.0
  0
LINE
  5
3538
  8
0
 10
134.0999978710887
 20
402.54149966849991
 30
0.0
 11
174.14646256178881
 21
402.54149966849991
 31
0.0
  0
LINE
  5
3539
  8
0
 10
134.0999978710887
 20
421.59149966849998
 30
0.0
 11
175.8299994289996
 21
421.59149966849998
 31
0.0
  0
LINE
  5
353A
  8
0
 10
208.85640009149989
 20
339.9578987838002
 30
0.0
 11
210.34230011359989
 21
341.44379787460042
 31
0.0
  0
LINE
  5
353B
  8
0
 10
210.34230011359989
 20
354.14380051500041
 30
0.0
 11
209.7200000898998
 21
354.76609908350031
 31
0.0
  0
LINE
  5
353C
  8
0
 10
209.7200000898998
 20
405.61690025340027
 30
0.0
 11
210.34230011359989
 21
406.23919882190017
 31
0.0
  0
LINE
  5
353D
  8
0
 10
210.34230011359989
 20
418.93920146240032
 30
0.0
 11
208.85640009149989
 21
420.42510055310038
 31
0.0
  0
LINE
  5
353E
  8
0
 10
193.6245999997499
 20
335.99949888000009
 30
0.0
 11
194.13260014264981
 21
335.49149966850018
 31
0.0
  0
LINE
  5
353F
  8
0
 10
205.8673998573498
 20
335.49149966850018
 30
0.0
 11
206.37539976744981
 21
335.99949888000009
 31
0.0
  0
LINE
  5
3540
  8
0
 10
206.37539976744981
 20
335.99949888000009
 30
0.0
 11
206.37539976744981
 21
339.9578987838002
 31
0.0
  0
LINE
  5
3541
  8
0
 10
193.6245999997499
 20
339.9578987838002
 30
0.0
 11
193.6245999997499
 21
335.99949888000009
 31
0.0
  0
LINE
  5
3542
  8
0
 10
193.6245999997499
 20
424.38350045689998
 30
0.0
 11
193.6245999997499
 21
420.42510055310038
 31
0.0
  0
LINE
  5
3543
  8
0
 10
206.37539976744981
 20
420.42510055310038
 30
0.0
 11
206.37539976744981
 21
424.38350045689998
 31
0.0
  0
LINE
  5
3544
  8
0
 10
206.37539976744981
 20
424.38350045689998
 30
0.0
 11
205.8673998573498
 21
424.89149966849999
 31
0.0
  0
LINE
  5
3545
  8
0
 10
194.13260014264981
 20
424.89149966849999
 30
0.0
 11
193.6245999997499
 21
424.38350045689998
 31
0.0
  0
LINE
  5
3546
  8
0
 10
204.83235006684981
 20
354.76609908350031
 30
0.0
 11
204.8323500668499
 21
354.98199921415011
 31
0.0
  0
LINE
  5
3547
  8
0
 10
195.1676497002498
 20
354.98199921415011
 30
0.0
 11
195.1676497002498
 21
354.76609908350031
 31
0.0
  0
LINE
  5
3548
  8
0
 10
195.1676497002498
 20
405.61690025340027
 30
0.0
 11
195.1676497002498
 21
405.40100012284989
 31
0.0
  0
LINE
  5
3549
  8
0
 10
204.83235006684981
 20
405.40100012284989
 30
0.0
 11
204.83235006684981
 21
405.61690025340027
 31
0.0
  0
ARC
  5
354A
  8
0
 10
183.05873398794549
 20
369.15612835792967
 30
0.0
 40
14.403104027658561
 50
231.77331300648041
 51
272.4415138482828
  0
LINE
  5
354B
  8
0
 10
209.7200000898998
 20
354.76609908350031
 30
0.0
 11
183.6722998887999
 21
354.76609908350031
 31
0.0
  0
LINE
  5
354C
  8
0
 10
207.1672999772999
 20
339.9578987838002
 30
0.0
 11
207.1672999772999
 21
354.76609908350031
 31
0.0
  0
LINE
  5
354D
  8
0
 10
183.6722998887999
 20
339.9578987838002
 30
0.0
 11
208.85640009150009
 21
339.95789878379998
 31
0.0
  0
ARC
  5
354E
  8
0
 10
183.05874397845611
 20
391.226840097658
 30
0.0
 40
14.40313445543601
 50
87.558531091246152
 51
128.2266421310452
  0
LINE
  5
354F
  8
0
 10
208.85640009149989
 20
420.42510055310038
 30
0.0
 11
183.6722998887999
 21
420.42510055310038
 31
0.0
  0
LINE
  5
3550
  8
0
 10
207.1672999772999
 20
405.61690025340027
 30
0.0
 11
207.1672999772999
 21
420.42510055310038
 31
0.0
  0
LINE
  5
3551
  8
0
 10
183.6722998887999
 20
405.61690025340027
 30
0.0
 11
209.72000008989971
 21
405.6169002534001
 31
0.0
  0
LINE
  5
3552
  8
0
 10
210.34230011359989
 20
341.44379787460008
 30
0.0
 11
210.34230011359989
 21
354.14380051500041
 31
0.0
  0
LINE
  5
3553
  8
0
 10
210.34230011359989
 20
406.23919882190017
 30
0.0
 11
210.34230011359989
 21
418.93920146240021
 31
0.0
  0
LINE
  5
3554
  8
0
 10
194.13260014264981
 20
335.49149966850018
 30
0.0
 11
205.8673998573498
 21
335.49149966850018
 31
0.0
  0
LINE
  5
3555
  8
0
 10
193.62459999974999
 20
335.99949887999992
 30
0.0
 11
206.37539976744981
 21
335.99949888000009
 31
0.0
  0
LINE
  5
3556
  8
0
 10
206.37539976744981
 20
424.38350045689998
 30
0.0
 11
193.6245999997499
 21
424.38350045689998
 31
0.0
  0
LINE
  5
3557
  8
0
 10
205.8673998573498
 20
424.89149966849999
 30
0.0
 11
194.13260014264981
 21
424.89149966849999
 31
0.0
  0
LINE
  5
3558
  8
1
 10
238.6500000000498
 20
380.19149966850011
 30
0.0
 11
82.699999999999804
 21
380.19149966850011
 31
0.0
  0
LINE
  5
3559
  8
1
 10
134.10000215676709
 20
328.79149966850008
 30
0.0
 11
134.09999784323239
 21
431.59149966850009
 31
0.0
  0
LINE
  5
355A
  8
1
 10
199.99999999999989
 20
325.49149966850013
 30
0.0
 11
199.99999999999989
 21
434.89149966849999
 31
0.0
  0
ARC
  5
355B
  8
0
 10
134.0999999999998
 20
380.19149966850011
 30
0.0
 40
22.350000000000001
 50
90.000002404156533
 51
270.00000240415648
  0
ARC
  5
355C
  8
1
 10
134.0999999999998
 20
380.19149966850011
 30
0.0
 40
31.875000000000082
 50
90.000002404156533
 51
270.00000240415648
  0
LINE
  5
355D
  8
1
 10
134.10000133748929
 20
348.3164996685
 30
0.0
 11
220.34230011359989
 21
348.31649966850011
 31
0.0
  0
LINE
  5
355E
  8
1
 10
134.09999866251039
 20
412.06649966850023
 30
0.0
 11
220.34229743862099
 21
412.06649966850023
 31
0.0
  0
ARC
  5
355F
  8
0
 10
102.2250000000499
 20
144.45959976020009
 30
0.0
 40
9.5250000000000341
 50
90.0
 51
270.0
  0
LINE
  5
3560
  8
0
 10
102.2250029356499
 20
134.93459964250019
 30
0.0
 11
207.1672999773499
 21
134.93459964250019
 31
0.0
  0
LINE
  5
3561
  8
0
 10
207.1672999773499
 20
153.98459987790011
 30
0.0
 11
102.2250029356499
 21
153.98459987790011
 31
0.0
  0
LINE
  5
3562
  8
0
 10
207.1672999773499
 20
134.93459964250019
 30
0.0
 11
210.34230011364991
 21
138.10959983690009
 31
0.0
  0
LINE
  5
3563
  8
0
 10
210.34230011364991
 20
150.80959968340019
 30
0.0
 11
207.1672999773499
 21
153.98459987790011
 31
0.0
  0
LINE
  5
3564
  8
0
 10
207.1672999773499
 20
149.87479116840021
 30
0.0
 11
207.1672999773499
 21
153.98459987790011
 31
0.0
  0
LINE
  5
3565
  8
0
 10
203.36473285312371
 20
149.87479116840029
 30
0.0
 11
207.1672999773499
 21
149.87479116840021
 31
0.0
  0
LINE
  5
3566
  8
0
 10
183.67229988884989
 20
149.87479116840021
 30
0.0
 11
196.63526714697579
 21
149.87479116840021
 31
0.0
  0
POLYLINE
  5
3567
  8
0
 66
     1
 10
0.0
 20
0.0
 30
0.0
 70
   128
  0
VERTEX
  5
3751
  8
0
 10
183.67229988884989
 20
139.0444083519001
 30
0.0
  0
VERTEX
  5
3752
  8
0
 10
182.03498264854991
 20
139.14744382800021
 30
0.0
  0
VERTEX
  5
3753
  8
0
 10
180.43858213434979
 20
139.46809306820001
 30
0.0
  0
VERTEX
  5
3754
  8
0
 10
179.2290865451499
 20
139.89745978340011
 30
0.0
  0
VERTEX
  5
3755
  8
0
 10
178.11344591984991
 20
140.5044003770002
 30
0.0
  0
VERTEX
  5
3756
  8
0
 10
176.77897242914989
 20
141.73442650660019
 30
0.0
  0
VERTEX
  5
3757
  8
0
 10
176.06911836274989
 20
143.04224298410011
 30
0.0
  0
VERTEX
  5
3758
  8
0
 10
175.82999942904991
 20
144.45959976020009
 30
0.0
  0
VERTEX
  5
3759
  8
0
 10
176.0439167738499
 20
145.8018777341002
 30
0.0
  0
VERTEX
  5
375A
  8
0
 10
176.64112923744989
 20
146.99646960090021
 30
0.0
  0
VERTEX
  5
375B
  8
0
 10
177.22645802504991
 20
147.69188141520021
 30
0.0
  0
VERTEX
  5
375C
  8
0
 10
177.91796131144989
 20
148.2788218565002
 30
0.0
  0
VERTEX
  5
375D
  8
0
 10
178.9842325270499
 20
148.90909953120021
 30
0.0
  0
VERTEX
  5
375E
  8
0
 10
180.14887375834991
 20
149.36524177039999
 30
0.0
  0
VERTEX
  5
375F
  8
0
 10
181.88343970184991
 20
149.7514970981002
 30
0.0
  0
VERTEX
  5
3760
  8
0
 10
183.67229988884989
 20
149.87479116840021
 30
0.0
  0
SEQEND
  5
3761
  8
0
  0
LINE
  5
3568
  8
0
 10
196.6352671471364
 20
139.0444083519001
 30
0.0
 11
183.67229988884989
 21
139.0444083519001
 31
0.0
  0
LINE
  5
3569
  8
0
 10
207.1672999773499
 20
139.0444083519001
 30
0.0
 11
203.3647328529633
 21
139.04440835190019
 31
0.0
  0
LINE
  5
356A
  8
0
 10
207.1672999773499
 20
134.93459964250019
 30
0.0
 11
207.1672999773499
 21
139.0444083519001
 31
0.0
  0
LINE
  5
356B
  8
0
 10
183.67229988884989
 20
149.87479116840021
 30
0.0
 11
183.67229988884989
 21
139.0444083519001
 31
0.0
  0
ARC
  5
356C
  8
0
 10
198.9672626122499
 20
144.45959976020009
 30
0.0
 40
9.8267446683986002
 50
326.55977856889132
 51
33.44022143110795
  0
LINE
  5
356D
  8
0
 10
210.34230011364991
 20
138.10959983690009
 30
0.0
 11
210.34230011364991
 21
150.80959968340019
 31
0.0
  0
ARC
  5
356E
  8
2
 10
102.2250000000499
 20
144.45959976020009
 30
0.0
 40
9.5250000000000341
 50
270.0
 51
90.0
  0
LINE
  5
356F
  8
1
 10
238.6500000000498
 20
144.45959976020009
 30
0.0
 11
82.700000000049783
 21
144.45959976020009
 31
0.0
  0
LINE
  5
3570
  8
1
 10
102.2250029356499
 20
129.93459964250019
 30
0.0
 11
102.2250029356499
 21
158.98459987790011
 31
0.0
  0
ARC
  5
3571
  8
0
 10
487.0763937818341
 20
157.8281795701507
 30
0.0
 40
46.936165580183747
 50
166.69527326694009
 51
176.38535401799541
  0
ARC
  5
3572
  8
0
 10
312.9236062181655
 20
157.8281795701507
 30
0.0
 40
46.936165580183747
 50
3.614645982004606
 51
13.30472673306028
  0
ARC
  5
3573
  8
0
 10
186.6314201900492
 20
467.26789345033438
 30
0.0
 40
46.936165580183747
 50
256.6952732669447
 51
266.38535401799572
  0
ARC
  5
3574
  8
0
 10
186.631420190244
 20
293.11510588653567
 30
0.0
 40
46.936165580183747
 50
93.614645982132444
 51
103.3047267331834
  0
LINE
  5
3575
  8
0
 10
191.99999999999969
 20
101.3343991787001
 30
0.0
 11
193.57480034979989
 21
99.759599760200146
 31
0.0
  0
LINE
  5
3576
  8
0
 10
206.4251996501998
 20
99.759599760200146
 30
0.0
 11
207.9999999999998
 21
101.3343991787001
 31
0.0
  0
LINE
  5
3577
  8
0
 10
191.99999999999969
 20
101.3343991787001
 30
0.0
 11
207.9999999999998
 21
101.3343991787001
 31
0.0
  0
LINE
  5
3578
  8
0
 10
193.57480034979989
 20
99.759599760200146
 30
0.0
 11
206.4251996501996
 21
99.759599760200146
 31
0.0
  0
LINE
  5
3579
  8
0
 10
207.9999999999998
 20
101.3343991787001
 30
0.0
 11
207.9999999999998
 21
128.7595997601
 31
0.0
  0
LINE
  5
357A
  8
3
 10
206.91749999999979
 20
100.2518998188652
 30
0.0
 11
206.91749999999979
 21
128.7595997601
 31
0.0
  0
LINE
  5
357B
  8
3
 10
193.0824999999997
 20
100.2518998188655
 30
0.0
 11
193.0824999999997
 21
128.7595997601
 31
0.0
  0
LINE
  5
357C
  8
0
 10
191.99999999999969
 20
101.3343991787001
 30
0.0
 11
191.99999999999969
 21
128.7595997601
 31
0.0
  0
LINE
  5
357D
  8
0
 10
391.99999999999977
 20
101.3343991788002
 30
0.0
 11
393.5748003498
 21
99.759599760300205
 31
0.0
  0
LINE
  5
357E
  8
0
 10
406.42519965019977
 20
99.759599760300205
 30
0.0
 11
407.99999999999972
 21
101.3343991788002
 31
0.0
  0
LINE
  5
357F
  8
0
 10
391.99999999999977
 20
101.3343991788002
 30
0.0
 11
407.99999999999972
 21
101.3343991788002
 31
0.0
  0
LINE
  5
3580
  8
0
 10
393.5748003498
 20
99.759599760300205
 30
0.0
 11
406.4251996501996
 21
99.759599760300205
 31
0.0
  0
LINE
  5
3581
  8
0
 10
407.99999999999972
 20
101.3343991788002
 30
0.0
 11
407.99999999999972
 21
128.7595997602001
 31
0.0
  0
LINE
  5
3582
  8
3
 10
406.91749999999968
 20
100.2518998189653
 30
0.0
 11
406.91749999999968
 21
128.7595997602001
 31
0.0
  0
LINE
  5
3583
  8
3
 10
393.08249999999981
 20
100.2518998189655
 30
0.0
 11
393.08249999999981
 21
128.7595997602001
 31
0.0
  0
LINE
  5
3584
  8
0
 10
391.99999999999977
 20
101.3343991788002
 30
0.0
 11
391.99999999999977
 21
128.7595997602001
 31
0.0
  0
LINE
  5
3585
  8
0
 10
592.0
 20
101.3343991788002
 30
0.0
 11
593.57480034980017
 21
99.75959976030019
 31
0.0
  0
LINE
  5
3586
  8
0
 10
606.42519965020006
 20
99.75959976030019
 30
0.0
 11
608.0
 21
101.3343991788002
 31
0.0
  0
LINE
  5
3587
  8
0
 10
592.0
 20
101.3343991788002
 30
0.0
 11
608.0
 21
101.3343991788002
 31
0.0
  0
LINE
  5
3588
  8
0
 10
593.57480034980017
 20
99.75959976030019
 30
0.0
 11
606.42519965019983
 21
99.75959976030019
 31
0.0
  0
LINE
  5
3589
  8
0
 10
608.0
 20
101.3343991788002
 30
0.0
 11
608.0
 21
128.7595997602001
 31
0.0
  0
LINE
  5
358A
  8
3
 10
606.91750000000002
 20
100.2518998189653
 30
0.0
 11
606.91750000000002
 21
128.7595997602001
 31
0.0
  0
LINE
  5
358B
  8
3
 10
593.08249999999987
 20
100.2518998189655
 30
0.0
 11
593.08249999999987
 21
128.7595997602001
 31
0.0
  0
LINE
  5
358C
  8
0
 10
592.0
 20
101.3343991788002
 30
0.0
 11
592.0
 21
128.7595997602001
 31
0.0
  0
LINE
  5
358D
  8
0
 10
188.57000004499989
 20
160.3935981541
 30
0.0
 11
188.57000004499989
 21
159.98719878489999
 31
0.0
  0
LINE
  5
358E
  8
0
 10
211.42999995500011
 20
159.98719878489999
 30
0.0
 11
211.42999995500011
 21
160.3935981541
 31
0.0
  0
LINE
  5
358F
  8
0
 10
187.99999999999969
 20
170.3935981541
 30
0.0
 11
186.1435935394527
 21
169.30973030620001
 31
0.0
  0
LINE
  5
3590
  8
0
 10
186.1435935394527
 20
169.30973030620001
 30
0.0
 11
186.1435935394527
 21
160.3935981541
 31
0.0
  0
LINE
  5
3591
  8
0
 10
213.8564064605512
 20
160.3935981541
 30
0.0
 11
213.8564064605512
 21
169.30973030620001
 31
0.0
  0
LINE
  5
3592
  8
0
 10
193.07179676972439
 20
169.30973030620001
 30
0.0
 11
193.07179676972439
 21
160.3935981541
 31
0.0
  0
LINE
  5
3593
  8
0
 10
206.9282032302751
 20
160.3935981541
 30
0.0
 11
206.9282032302751
 21
169.30973030620001
 31
0.0
  0
LINE
  5
3594
  8
0
 10
186.1435935394527
 20
160.39359815409989
 30
0.0
 11
213.8564064605512
 21
160.39359815409989
 31
0.0
  0
LINE
  5
3595
  8
0
 10
187.99999999999969
 20
170.3935981541
 30
0.0
 11
212.0
 21
170.3935981541
 31
0.0
  0
ARC
  5
3596
  8
0
 10
199.99999999999949
 20
145.56033025063539
 30
0.0
 40
24.73932098904989
 50
73.736916330167233
 51
106.2630836698327
  0
ARC
  5
3597
  8
0
 10
189.6076951545885
 20
163.746343477674
 30
0.0
 40
6.5537220725174761
 50
58.091106072620029
 51
121.90889392737991
  0
ARC
  5
3598
  8
0
 10
210.39230484541369
 20
163.7464149717066
 30
0.0
 40
6.5536613820832939
 50
58.090775694674619
 51
121.9092243053331
  0
LINE
  5
3599
  8
0
 10
212.0
 20
170.3935981541
 30
0.0
 11
213.85640646054711
 21
169.30973030620001
 31
0.0
  0
LINE
  5
359A
  8
0
 10
388.57000004499969
 20
160.39359815419999
 30
0.0
 11
388.57000004499969
 21
159.987198785
 31
0.0
  0
LINE
  5
359B
  8
0
 10
411.42999995489947
 20
159.987198785
 30
0.0
 11
411.42999995489947
 21
160.39359815419999
 31
0.0
  0
LINE
  5
359C
  8
0
 10
399.99999999994981
 20
160.39359815419999
 30
0.0
 11
399.99999999994981
 21
169.3097303063
 31
0.0
  0
LINE
  5
359D
  8
0
 10
411.99999999999972
 20
170.39359815409989
 30
0.0
 11
411.99999999999972
 21
160.39359815419999
 31
0.0
  0
LINE
  5
359E
  8
0
 10
387.99999999999977
 20
160.39359815419999
 30
0.0
 11
411.99999999999972
 21
160.39359815419999
 31
0.0
  0
LINE
  5
359F
  8
0
 10
387.99999999999977
 20
160.39359815419999
 30
0.0
 11
387.99999999999949
 21
170.39359815409989
 31
0.0
  0
ARC
  5
35A0
  8
0
 10
393.99999999997431
 20
151.62044518396999
 30
0.0
 40
18.679154374296189
 50
71.263660737120844
 51
108.7363392628791
  0
ARC
  5
35A1
  8
0
 10
405.99999999997613
 20
151.62044518366079
 30
0.0
 40
18.6791543746054
 50
71.263660737285917
 51
108.7363392627141
  0
LINE
  5
35A2
  8
0
 10
387.99999999999949
 20
170.39359815409989
 30
0.0
 11
411.99999999999972
 21
170.39359815409989
 31
0.0
  0
LINE
  5
35A3
  8
0
 10
588.57000004495012
 20
160.3935981541
 30
0.0
 11
588.57000004495012
 21
159.98719878489999
 31
0.0
  0
LINE
  5
35A4
  8
0
 10
611.42999995494995
 20
159.98719878489999
 30
0.0
 11
611.42999995494995
 21
160.3935981541
 31
0.0
  0
LINE
  5
35A5
  8
0
 10
586.1435935394029
 20
169.30973030620001
 30
0.0
 11
586.1435935394029
 21
160.3935981541
 31
0.0
  0
LINE
  5
35A6
  8
0
 10
613.85640646050126
 20
160.3935981541
 30
0.0
 11
613.85640646050126
 21
169.30973030620001
 31
0.0
  0
LINE
  5
35A7
  8
0
 10
586.1435935394029
 20
160.39359815409989
 30
0.0
 11
590.47499988230015
 21
160.39359815409989
 31
0.0
  0
LINE
  5
35A8
  8
0
 10
609.52500011769996
 20
160.39359815409989
 30
0.0
 11
613.85640646050126
 21
160.39359815409989
 31
0.0
  0
LINE
  5
35A9
  8
0
 10
587.99999999994986
 20
170.3935981541
 30
0.0
 11
586.1435935394029
 21
169.30973030620001
 31
0.0
  0
LINE
  5
35AA
  8
0
 10
587.99999999994986
 20
170.3935981541
 30
0.0
 11
590.47499988230015
 21
170.3935981541
 31
0.0
  0
LINE
  5
35AB
  8
0
 10
609.52500011769996
 20
170.3935981541
 30
0.0
 11
611.99999999995009
 21
170.3935981541
 31
0.0
  0
ARC
  5
35AC
  8
0
 10
589.60769515453876
 20
163.746343477674
 30
0.0
 40
6.5537220725174761
 50
82.395298022067621
 51
121.90889392737991
  0
ARC
  5
35AD
  8
0
 10
610.39230484536392
 20
163.7464149717066
 30
0.0
 40
6.5536613820832939
 50
58.090775694674619
 51
97.604772817184553
  0
LINE
  5
35AE
  8
0
 10
611.99999999995009
 20
170.3935981541
 30
0.0
 11
613.85640646049717
 21
169.30973030620001
 31
0.0
  0
CIRCLE
  5
35AF
  8
0
 10
200.01342132410821
 20
380.19149966850023
 30
0.0
 40
6.3499999999976353
  0
CIRCLE
  5
35B0
  8
0
 10
200.01342132410821
 20
380.19149966850023
 30
0.0
 40
3.8099999999872121
  0
CIRCLE
  5
35B1
  8
0
 10
200.01342132410821
 20
380.19149966850023
 30
0.0
 40
11.99999999999994
  0
LINE
  5
35B2
  8
0
 10
186.15701486355721
 20
380.19149966850023
 30
0.0
 11
193.08521809383279
 21
368.1914996685
 31
0.0
  0
LINE
  5
35B3
  8
0
 10
206.94162455438379
 20
392.19149966850011
 30
0.0
 11
213.86982778465941
 21
380.1914996685
 31
0.0
  0
LINE
  5
35B4
  8
0
 10
206.94162455438379
 20
368.1914996685
 30
0.0
 11
193.08521809383279
 21
368.1914996685
 31
0.0
  0
LINE
  5
35B5
  8
0
 10
193.08521809383279
 20
392.19149966850011
 30
0.0
 11
206.94162455438379
 21
392.19149966850011
 31
0.0
  0
LINE
  5
35B6
  8
0
 10
213.86982778465941
 20
380.1914996685
 30
0.0
 11
206.94162455438379
 21
368.1914996685
 31
0.0
  0
LINE
  5
35B7
  8
0
 10
193.08521809383279
 20
392.19149966850011
 30
0.0
 11
186.15701486355721
 21
380.19149966850011
 31
0.0
  0
LINE
  5
35B8
  8
0
 10
400.0
 20
366.33509320779888
 30
0.0
 11
392.49778414595562
 21
370.66649955065009
 31
0.0
  0
LINE
  5
35B9
  8
0
 10
400.0
 20
394.0479061289011
 30
0.0
 11
407.50221585387078
 21
389.71649978615022
 31
0.0
  0
LINE
  5
35BA
  8
0
 10
407.50221585404432
 20
370.66649955065009
 30
0.0
 11
400.0
 21
366.33509320779888
 31
0.0
  0
LINE
  5
35BB
  8
0
 10
400.0
 20
394.0479061289011
 30
0.0
 11
392.49778414612911
 21
389.71649978615022
 31
0.0
  0
ARC
  5
35BC
  8
0
 10
400.0
 20
380.19149966840013
 30
0.0
 40
11.99999999999994
 50
232.53734985178249
 51
307.46265014821739
  0
ARC
  5
35BD
  8
0
 10
400.0
 20
380.19149966840013
 30
0.0
 40
11.99999999999994
 50
52.537349851782551
 51
127.46265014821741
  0
ARC
  5
36AB
  8
0
 10
199.99999999999989
 20
380.19149966850011
 30
0.0
 40
27.070000000049902
 50
111.3662166989586
 51
248.63378330162161
  0
ARC
  5
36AC
  8
0
 10
199.99999999999989
 20
380.19149966850011
 30
0.0
 40
27.070000000049902
 50
291.36621669837803
 51
68.633783301041305
  0
LINE
  5
36AE
  8
0
 10
213.61262600836031
 20
153.5102004558
 30
0.0
 11
213.61262600836031
 21
134.8157996683999
 31
0.0
  0
LINE
  5
36AF
  8
0
 10
186.38737399163949
 20
134.93459964250019
 30
0.0
 11
186.38737399163949
 21
134.8157996683999
 31
0.0
  0
LINE
  5
36B0
  8
0
 10
613.61262600831049
 20
153.5102004558
 30
0.0
 11
613.61262600831049
 21
134.8157996683999
 31
0.0
  0
LINE
  5
36B1
  8
0
 10
586.3873739915897
 20
153.5102004558
 30
0.0
 11
586.3873739915897
 21
134.8157996683999
 31
0.0
  0
ARC
  5
36B2
  8
0
 10
399.98657867589168
 20
380.19149966840013
 30
0.0
 40
27.070000000049902
 50
201.36621669895769
 51
338.63378330162152
  0
ARC
  5
36B3
  8
0
 10
399.98657867589168
 20
380.19149966840013
 30
0.0
 40
27.070000000049902
 50
21.36621669837827
 51
158.63378330104231
  0
ENDSEC
  0
EOF
