  0
SECTION
  2
HEADER
  9
$ACADVER
  1
AC1009
  9
$INSBASE
 10
0.0
 20
0.0
 30
0.0
  9
$EXTMIN
 10
0.0
 20
-2.960436562073669
 30
0.0
  9
$EXTMAX
 10
678.65000000005011
 20
484.89149966849999
 30
0.0
  9
$LIMMIN
 10
0.0
 20
0.0
  9
$LIMMAX
 10
750.0
 20
540.0
  9
$ORTHOMODE
 70
     1
  9
$REGENMODE
 70
     1
  9
$FILLMODE
 70
     1
  9
$QTEXTMODE
 70
     0
  9
$MIRRTEXT
 70
     0
  9
$DRAGMODE
 70
     2
  9
$LTSCALE
 40
20.0
  9
$OSMODE
 70
    37
  9
$ATTMODE
 70
     1
  9
$TEXTSIZE
 40
0.2
  9
$TRACEWID
 40
0.05
  9
$TEXTSTYLE
  7
STANDARD
  9
$CLAYER
  8
0
  9
$CELTYPE
  6
BYLAYER
  9
$CECOLOR
 62
   256
  9
$DIMSCALE
 40
2.0
  9
$DIMASZ
 40
3.0
  9
$DIMEXO
 40
2.0
  9
$DIMDLI
 40
0.38
  9
$DIMRND
 40
0.0
  9
$DIMDLE
 40
0.0
  9
$DIMEXE
 40
2.0
  9
$DIMTP
 40
0.0
  9
$DIMTM
 40
0.0
  9
$DIMTXT
 40
3.2000000000000002
  9
$DIMCEN
 40
0.0
  9
$DIMTSZ
 40
0.0
  9
$DIMTOL
 70
     0
  9
$DIMLIM
 70
     0
  9
$DIMTIH
 70
     0
  9
$DIMTOH
 70
     0
  9
$DIMSE1
 70
     0
  9
$DIMSE2
 70
     0
  9
$DIMTAD
 70
     1
  9
$DIMZIN
 70
     0
  9
$DIMBLK
  1

  9
$DIMASO
 70
     0
  9
$DIMSHO
 70
     0
  9
$DIMPOST
  1

  9
$DIMAPOST
  1

  9
$DIMALT
 70
     0
  9
$DIMALTD
 70
     2
  9
$DIMALTF
 40
25.399999999999999
  9
$DIMLFAC
 40
1.0
  9
$DIMTOFL
 70
     1
  9
$DIMTVP
 40
1.6000000000000001
  9
$DIMTIX
 70
     1
  9
$DIMSOXD
 70
     0
  9
$DIMSAH
 70
     0
  9
$DIMBLK1
  1

  9
$DIMBLK2
  1

  9
$DIMSTYLE
  2
STANDARD
  9
$DIMCLRD
 70
     0
  9
$DIMCLRE
 70
     0
  9
$DIMCLRT
 70
     0
  9
$DIMTFAC
 40
1.0
  9
$DIMGAP
 40
0.09
  9
$LUNITS
 70
     2
  9
$LUPREC
 70
     4
  9
$SKETCHINC
 40
0.1
  9
$FILLETRAD
 40
0.0
  9
$AUNITS
 70
     0
  9
$AUPREC
 70
     4
  9
$MENU
  1
E:\r13\win\SUPPORT\ACAD
  9
$ELEVATION
 40
0.0
  9
$PELEVATION
 40
0.0
  9
$THICKNESS
 40
0.0
  9
$LIMCHECK
 70
     0
  9
$BLIPMODE
 70
     0
  9
$CHAMFERA
 40
0.0
  9
$CHAMFERB
 40
0.0
  9
$SKPOLY
 70
     0
  9
$TDCREATE
 40
2449840.6096990742
  9
$TDUPDATE
 40
2457906.6016347338
  9
$TDINDWG
 40
0.1963028241
  9
$TDUSRTIMER
 40
0.1963028241
  9
$USRTIMER
 70
     1
  9
$ANGBASE
 50
0.0
  9
$ANGDIR
 70
     0
  9
$PDMODE
 70
     0
  9
$PDSIZE
 40
0.0
  9
$PLINEWID
 40
0.0
  9
$COORDS
 70
     1
  9
$SPLFRAME
 70
     0
  9
$SPLINETYPE
 70
     6
  9
$SPLINESEGS
 70
     8
  9
$ATTDIA
 70
     0
  9
$ATTREQ
 70
     1
  9
$HANDLING
 70
     1
  9
$HANDSEED
  5
4C88
  9
$SURFTAB1
 70
     6
  9
$SURFTAB2
 70
     6
  9
$SURFTYPE
 70
     6
  9
$SURFU
 70
     6
  9
$SURFV
 70
     6
  9
$UCSNAME
  2

  9
$UCSORG
 10
0.0
 20
0.0
 30
0.0
  9
$UCSXDIR
 10
1.0
 20
0.0
 30
0.0
  9
$UCSYDIR
 10
0.0
 20
1.0
 30
0.0
  9
$PUCSNAME
  2

  9
$PUCSORG
 10
0.0
 20
0.0
 30
0.0
  9
$PUCSXDIR
 10
1.0
 20
0.0
 30
0.0
  9
$PUCSYDIR
 10
0.0
 20
1.0
 30
0.0
  9
$USERI1
 70
     0
  9
$USERI2
 70
     1
  9
$USERI3
 70
     0
  9
$USERI4
 70
     0
  9
$USERI5
 70
     0
  9
$USERR1
 40
0.0
  9
$USERR2
 40
0.0
  9
$USERR3
 40
0.0
  9
$USERR4
 40
0.0
  9
$USERR5
 40
0.0
  9
$WORLDVIEW
 70
     1
  9
$SHADEDGE
 70
     3
  9
$SHADEDIF
 70
    70
  9
$TILEMODE
 70
     1
  9
$MAXACTVP
 70
    16
  9
$PLIMCHECK
 70
     0
  9
$PEXTMIN
 10
1.0000000000000000E+020
 20
1.0000000000000000E+020
 30
1.0000000000000000E+020
  9
$PEXTMAX
 10
-1.0000000000000000E+020
 20
-1.0000000000000000E+020
 30
-1.0000000000000000E+020
  9
$PLIMMIN
 10
0.0
 20
0.0
  9
$PLIMMAX
 10
12.0
 20
9.0
  9
$UNITMODE
 70
     0
  9
$VISRETAIN
 70
     0
  9
$PLINEGEN
 70
     0
  9
$PSLTSCALE
 70
     0
  0
ENDSEC
  0
SECTION
  2
TABLES
  0
TABLE
  2
VPORT
 70
     1
  0
VPORT
  2
*ACTIVE
 70
     0
 10
0.0
 20
0.0
 11
1.0
 21
1.0
 12
664.81163783487216
 22
240.9703359288178
 13
0.0
 23
0.0
 14
20.0
 24
20.0
 15
20.0
 25
20.0
 16
0.0
 26
0.0
 36
1.0
 17
0.0
 27
0.0
 37
0.0
 40
512.75968038076996
 41
2.6019575856443709
 42
50.0
 43
0.0
 44
0.0
 50
0.0
 51
0.0
 71
     0
 72
   500
 73
     1
 74
     0
 75
     0
 76
     0
 77
     0
 78
     2
  0
ENDTAB
  0
TABLE
  2
LTYPE
 70
     4
  0
LTYPE
  2
CONTINUOUS
 70
     0
  3
Solid Line
 72
    65
 73
     0
 40
0.0
  0
LTYPE
  2
CENTER
 70
     0
  3
____ _ ____ _ ____ _ ____ _ ____ _ ____ _ ____
 72
    65
 73
     4
 40
2.0
 49
1.25
 49
-0.25
 49
0.25
 49
-0.25
  0
LTYPE
  2
HIDDEN
 70
     0
  3
_ _ _ _ _ _ _ _ _ _ _ _ _ _ _ _ _ _ _ _ _ _ _
 72
    65
 73
     2
 40
0.375
 49
0.25
 49
-0.125
  0
LTYPE
  2
PHANTOM2
 70
     0
  3
___ _ _ ___ _ _ ___ _ _ ___ _ _
 72
    65
 73
     6
 40
1.25
 49
0.625
 49
-0.125
 49
0.125
 49
-0.125
 49
0.125
 49
-0.125
  0
ENDTAB
  0
TABLE
  2
LAYER
 70
     4
  0
LAYER
  2
0
 70
     0
 62
     7
  6
CONTINUOUS
  0
LAYER
  2
1
 70
     0
 62
     1
  6
CENTER
  0
LAYER
  2
2
 70
     0
 62
     2
  6
HIDDEN
  0
LAYER
  2
3
 70
     0
 62
     3
  6
CONTINUOUS
  0
ENDTAB
  0
TABLE
  2
STYLE
 70
     2
  0
STYLE
  2
STANDARD
 70
     0
 40
0.0
 41
1.0
 50
0.0
 71
     0
 42
0.2
  3
TXT
  4
BIGFONT
  0
STYLE
  2
STANDARD1
 70
     0
 40
0.0
 41
1.0
 50
0.0
 71
     0
 42
3.0
  3
txt
  4

  0
ENDTAB
  0
TABLE
  2
VIEW
 70
     1
  0
VIEW
  2
ALL
 70
     0
 40
540.0
 10
441.98319327731087
 20
270.0
 41
0.0
 11
0.0
 21
0.0
 31
1.0
 12
0.0
 22
0.0
 32
0.0
 42
0.0
 43
0.0
 44
0.0
 50
0.0
 71
     0
  0
ENDTAB
  0
TABLE
  2
UCS
 70
     0
  0
ENDTAB
  0
TABLE
  2
APPID
 70
     4
  0
APPID
  2
ACAD
 70
     0
  0
APPID
  2
ACAD_MLEADERVER
 70
     0
  0
APPID
  2
ACAD_NAV_VCDISPLAY
 70
     0
  0
APPID
  2
ACAD_EXEMPT_FROM_CAD_STANDARDS
 70
     0
  0
ENDTAB
  0
TABLE
  2
DIMSTYLE
 70
     1
  0
DIMSTYLE
  2
STANDARD
 70
     0
  3

  4

  5

  6

  7

 40
1.0
 41
0.18
 42
0.0625
 43
0.38
 44
0.18
 45
0.0
 46
0.0
 47
0.0
 48
0.0
140
0.18
141
0.09
142
0.0
143
25.399999999999999
144
1.0
145
0.0
146
1.0
147
0.09
 71
     0
 72
     0
 73
     1
 74
     1
 75
     0
 76
     0
 77
     0
 78
     0
170
     0
171
     2
172
     0
173
     0
174
     0
175
     0
176
     0
177
     0
178
     0
  0
ENDTAB
  0
ENDSEC
  0
SECTION
  2
BLOCKS
  0
BLOCK
  8
0
  2
$MODEL_SPACE
 70
     0
 10
0.0
 20
0.0
 30
0.0
  3
$MODEL_SPACE
  1

  0
ENDBLK
  5
1A2
  8
0
  0
BLOCK
 67
     1
  8
0
  2
$PAPER_SPACE
 70
     0
 10
0.0
 20
0.0
 30
0.0
  3
$PAPER_SPACE
  1

  0
ENDBLK
  5
1A0
 67
     1
  8
0
  0
ENDSEC
  0
SECTION
  2
ENTITIES
  0
TEXT
  5
4A24
  8
0
 62
     3
 10
0.0
 20
0.0
 30
0.0
 40
10.0
  1
HR20SL-LC
  7
STANDARD1
  0
ARC
  5
4A25
  8
0
 10
449.99999999999977
 20
258.05959976020017
 30
0.0
 40
41.39999999999997
 50
0.000002946319415
 51
180.0000024041569
  0
LINE
  5
4A26
  8
0
 10
427.64999999999969
 20
170.3131372701327
 30
0.0
 11
427.64999999999969
 21
258.05960196083282
 31
0.0
  0
LINE
  5
4A27
  8
0
 10
408.59999999999968
 20
168.62960033120001
 30
0.0
 11
408.59999999999968
 21
258.05960196083282
 31
0.0
  0
LINE
  5
4A28
  8
0
 10
472.34999999999962
 20
258.05960188911132
 30
0.0
 11
472.34999999999962
 21
170.3131371984112
 31
0.0
  0
LINE
  5
4A29
  8
0
 10
491.39999999999969
 20
258.05960188911132
 30
0.0
 11
491.39999999999969
 21
168.62960033120001
 31
0.0
  0
LINE
  5
4A2A
  8
0
 10
409.76639911529992
 20
135.6031996687
 30
0.0
 11
411.25229820609991
 21
134.1172996466
 31
0.0
  0
LINE
  5
4A2B
  8
0
 10
423.95230084650001
 20
134.1172996466
 30
0.0
 11
424.57459941499991
 21
134.73959967030001
 31
0.0
  0
LINE
  5
4A2C
  8
0
 10
475.42540058489988
 20
134.73959967030001
 30
0.0
 11
476.04769915339978
 21
134.1172996466
 31
0.0
  0
LINE
  5
4A2D
  8
0
 10
488.74770179389998
 20
134.1172996466
 30
0.0
 11
490.23360088459998
 21
135.6031996687
 31
0.0
  0
LINE
  5
4A2E
  8
0
 10
426.31449997419998
 20
154.7014588863
 30
0.0
 11
427.50576026729999
 21
153.5102004558
 31
0.0
  0
LINE
  5
4A2F
  8
0
 10
472.49423973259991
 20
153.5102004558
 30
0.0
 11
473.68550002569992
 21
154.7014588863
 31
0.0
  0
LINE
  5
4A30
  8
0
 10
473.68550002569992
 20
158.7959403545
 30
0.0
 11
472.49423973259991
 21
159.987198785
 31
0.0
  0
LINE
  5
4A31
  8
0
 10
427.50576026729999
 20
159.987198785
 30
0.0
 11
426.31449997419998
 21
158.7959403545
 31
0.0
  0
LINE
  5
4A32
  8
0
 10
473.68550002569992
 20
154.7014588863
 30
0.0
 11
473.68550002569992
 21
158.7959403545
 31
0.0
  0
LINE
  5
4A33
  8
0
 10
426.31449997419998
 20
158.7959403545
 30
0.0
 11
426.31449997419998
 21
154.7014588863
 31
0.0
  0
LINE
  5
4A34
  8
0
 10
469.05000023544972
 20
134.18079960630001
 30
0.0
 11
468.41500028964992
 21
134.81579966839999
 31
0.0
  0
LINE
  5
4A35
  8
0
 10
431.58499971034962
 20
134.81579966839999
 30
0.0
 11
430.94999976454977
 21
134.18079960630001
 31
0.0
  0
LINE
  5
4A36
  8
0
 10
469.0500002354496
 20
129.39459970589999
 30
0.0
 11
469.05000023544972
 21
134.18079960630001
 31
0.0
  0
LINE
  5
4A37
  8
0
 10
430.94999976454977
 20
134.18079960630001
 30
0.0
 11
430.94999976454977
 21
129.39459970589999
 31
0.0
  0
LINE
  5
4A38
  8
0
 10
430.94999976454977
 20
129.39459970590011
 30
0.0
 11
431.58499971034962
 21
128.7595997602001
 31
0.0
  0
LINE
  5
4A39
  8
0
 10
468.41500028964992
 20
128.7595997602001
 30
0.0
 11
469.05000023544972
 21
129.39459970590011
 31
0.0
  0
LINE
  5
4A3A
  8
0
 10
405.80799921149969
 20
150.83499976044999
 30
0.0
 11
405.29999999999978
 21
150.32699961755
 31
0.0
  0
LINE
  5
4A3B
  8
0
 10
405.29999999999978
 20
138.59219990285001
 30
0.0
 11
405.80799921149969
 21
138.08419999275009
 31
0.0
  0
LINE
  5
4A3C
  8
0
 10
405.80799921149969
 20
138.08419999275009
 30
0.0
 11
409.76639911529992
 21
138.08419999275009
 31
0.0
  0
LINE
  5
4A3D
  8
0
 10
409.76639911529992
 20
150.83499976044999
 30
0.0
 11
405.80799921149969
 21
150.83499976044999
 31
0.0
  0
LINE
  5
4A3E
  8
0
 10
494.1920007883997
 20
150.83499976044999
 30
0.0
 11
490.23360088459998
 21
150.83499976044999
 31
0.0
  0
LINE
  5
4A3F
  8
0
 10
490.23360088459998
 20
138.08419999275009
 30
0.0
 11
494.1920007883997
 21
138.08419999275009
 31
0.0
  0
LINE
  5
4A40
  8
0
 10
494.1920007883997
 20
138.08419999275009
 30
0.0
 11
494.6999999999997
 21
138.59219990285001
 31
0.0
  0
LINE
  5
4A41
  8
0
 10
494.6999999999997
 20
150.32699961755
 30
0.0
 11
494.1920007883997
 21
150.83499976044999
 31
0.0
  0
LINE
  5
4A42
  8
0
 10
424.57459941499991
 20
139.62724969335
 30
0.0
 11
424.7904995456496
 21
139.62724969335
 31
0.0
  0
LINE
  5
4A43
  8
0
 10
424.7904995456496
 20
149.29195005995001
 30
0.0
 11
424.57459941499991
 21
149.29195005995001
 31
0.0
  0
LINE
  5
4A44
  8
0
 10
475.42540058489988
 20
149.29195005995001
 30
0.0
 11
475.2095004543495
 21
149.29195005995001
 31
0.0
  0
LINE
  5
4A45
  8
0
 10
475.2095004543495
 20
139.62724969335011
 30
0.0
 11
475.42540058489988
 21
139.62724969335
 31
0.0
  0
ARC
  5
4A46
  8
0
 10
438.96462868942928
 20
161.40086577225441
 30
0.0
 40
14.403104027658561
 50
141.77331300648049
 51
182.44151384828331
  0
LINE
  5
4A47
  8
0
 10
424.57459941499991
 20
134.73959967030001
 30
0.0
 11
424.57459941499991
 21
160.78729987139999
 31
0.0
  0
LINE
  5
4A48
  8
0
 10
409.76639911529992
 20
137.29229978289999
 30
0.0
 11
424.57459941499991
 21
137.29229978289999
 31
0.0
  0
LINE
  5
4A49
  8
0
 10
409.76639911529992
 20
160.78729987139999
 30
0.0
 11
409.76639911529958
 21
135.6031996686998
 31
0.0
  0
ARC
  5
4A4A
  8
0
 10
461.03534042915771
 20
161.4008557817437
 30
0.0
 40
14.40313445543601
 50
357.55853109124303
 51
38.226642131045857
  0
LINE
  5
4A4B
  8
0
 10
490.23360088459998
 20
135.6031996687
 30
0.0
 11
490.23360088459998
 21
160.78729987139999
 31
0.0
  0
LINE
  5
4A4C
  8
0
 10
475.42540058489988
 20
137.29229978289999
 30
0.0
 11
490.23360088459998
 21
137.29229978289999
 31
0.0
  0
LINE
  5
4A4D
  8
0
 10
475.42540058489988
 20
160.78729987139999
 30
0.0
 11
475.42540058489982
 21
134.73959967030021
 31
0.0
  0
LINE
  5
4A4E
  8
0
 10
411.25229820609979
 20
134.1172996466
 30
0.0
 11
423.95230084650001
 21
134.1172996466
 31
0.0
  0
LINE
  5
4A4F
  8
0
 10
476.04769915339978
 20
134.1172996466
 30
0.0
 11
488.74770179389992
 21
134.1172996466
 31
0.0
  0
LINE
  5
4A52
  8
0
 10
475.20950045434938
 20
153.5102004558
 30
0.0
 11
424.79049954564948
 21
153.5102004558
 31
0.0
  0
LINE
  5
4A53
  8
0
 10
475.20950045434938
 20
153.5102004558
 30
0.0
 11
475.2095004543495
 21
134.81579966839999
 31
0.0
  0
LINE
  5
4A54
  8
0
 10
424.79049954564948
 20
153.5102004558
 30
0.0
 11
424.7904995456496
 21
134.81579966839999
 31
0.0
  0
LINE
  5
4A55
  8
0
 10
424.79049954564971
 20
134.81579966839999
 30
0.0
 11
475.2095004543495
 21
134.81579966839999
 31
0.0
  0
LINE
  5
4A58
  8
0
 10
472.49423973259991
 20
159.987198785
 30
0.0
 11
427.50576026729999
 21
159.987198785
 31
0.0
  0
LINE
  5
4A59
  8
0
 10
431.58499971034962
 20
128.7595997602001
 30
0.0
 11
468.41500028964992
 21
128.7595997602001
 31
0.0
  0
LINE
  5
4A5A
  8
0
 10
405.29999999999978
 20
150.32699961755
 30
0.0
 11
405.29999999999978
 21
138.59219990285001
 31
0.0
  0
LINE
  5
4A5B
  8
0
 10
405.80799921149952
 20
150.8349997604499
 30
0.0
 11
405.80799921149969
 21
138.08419999275009
 31
0.0
  0
LINE
  5
4A5C
  8
0
 10
494.1920007883997
 20
138.08419999275009
 30
0.0
 11
494.1920007883997
 21
150.83499976044999
 31
0.0
  0
LINE
  5
4A5D
  8
0
 10
494.6999999999997
 20
138.59219990285001
 30
0.0
 11
494.6999999999997
 21
150.32699961755
 31
0.0
  0
ARC
  5
4A5E
  8
0
 10
650.0
 20
289.93459976020011
 30
0.0
 40
9.5250000000000341
 50
0.0
 51
180.0
  0
LINE
  5
4A5F
  8
0
 10
640.47499988230015
 20
289.93459682460002
 30
0.0
 11
640.47499988230015
 21
137.29229978289999
 31
0.0
  0
LINE
  5
4A60
  8
0
 10
659.52500011769996
 20
137.29229978289999
 30
0.0
 11
659.52500011769996
 21
289.93459682460002
 31
0.0
  0
LINE
  5
4A61
  8
0
 10
640.47499988230015
 20
137.29229978289999
 30
0.0
 11
643.65000007670005
 21
134.1172996466
 31
0.0
  0
LINE
  5
4A62
  8
0
 10
656.34999992320013
 20
134.1172996466
 30
0.0
 11
659.52500011769996
 21
137.29229978289999
 31
0.0
  0
LINE
  5
4A63
  8
0
 10
673.68550002569998
 20
158.7959403545
 30
0.0
 11
672.49423973260014
 21
159.987198785
 31
0.0
  0
LINE
  5
4A64
  8
0
 10
627.50576026739998
 20
159.987198785
 30
0.0
 11
626.31449997419998
 21
158.7959403545
 31
0.0
  0
LINE
  5
4A65
  8
0
 10
626.31449997419998
 20
154.7014588863
 30
0.0
 11
627.50576026739998
 21
153.5102004558
 31
0.0
  0
LINE
  5
4A66
  8
0
 10
672.49423973260014
 20
153.5102004558
 30
0.0
 11
673.68550002569998
 21
154.7014588863
 31
0.0
  0
LINE
  5
4A67
  8
0
 10
673.68550002569998
 20
154.7014588863
 30
0.0
 11
673.68550002569998
 21
158.7959403545
 31
0.0
  0
LINE
  5
4A68
  8
0
 10
626.31449997419998
 20
158.7959403545
 30
0.0
 11
626.31449997419998
 21
154.7014588863
 31
0.0
  0
LINE
  5
4A69
  8
0
 10
669.05000023539992
 20
129.39459970590011
 30
0.0
 11
669.05000023539992
 21
134.18079960630001
 31
0.0
  0
LINE
  5
4A6A
  8
0
 10
630.94999976450003
 20
134.18079960630001
 30
0.0
 11
630.94999976450015
 21
129.39459970589991
 31
0.0
  0
LINE
  5
4A6B
  8
0
 10
669.05000023539992
 20
134.18079960630001
 30
0.0
 11
668.41500028969995
 21
134.81579966839999
 31
0.0
  0
LINE
  5
4A6C
  8
0
 10
631.58499971030005
 20
134.81579966839999
 30
0.0
 11
630.94999976450003
 21
134.18079960630001
 31
0.0
  0
LINE
  5
4A6D
  8
0
 10
630.94999976450003
 20
129.39459970590011
 30
0.0
 11
631.58499971030005
 21
128.7595997602001
 31
0.0
  0
LINE
  5
4A6E
  8
0
 10
668.41500028969995
 20
128.7595997602001
 30
0.0
 11
669.05000023539992
 21
129.39459970590011
 31
0.0
  0
LINE
  5
4A6F
  8
0
 10
655.41519140820014
 20
137.29229978289999
 30
0.0
 11
659.52500011769996
 21
137.29229978289999
 31
0.0
  0
LINE
  5
4A70
  8
0
 10
655.41519140820026
 20
141.0948669071262
 30
0.0
 11
655.41519140820014
 21
137.29229978289999
 31
0.0
  0
LINE
  5
4A71
  8
0
 10
655.41519140820014
 20
160.78729987139999
 30
0.0
 11
655.41519140820014
 21
147.82433261327409
 31
0.0
  0
POLYLINE
  5
4A72
  8
0
 66
     1
 10
0.0
 20
0.0
 30
0.0
 70
   128
  0
VERTEX
  5
4C66
  8
0
 10
644.58480859170004
 20
160.78729987139999
 30
0.0
  0
VERTEX
  5
4C67
  8
0
 10
644.68784406780014
 20
162.4246171117
 30
0.0
  0
VERTEX
  5
4C68
  8
0
 10
645.00849330799986
 20
164.02101762589999
 30
0.0
  0
VERTEX
  5
4C69
  8
0
 10
645.43786002320007
 20
165.23051321509999
 30
0.0
  0
VERTEX
  5
4C6A
  8
0
 10
646.04480061679999
 20
166.34615384040001
 30
0.0
  0
VERTEX
  5
4C6B
  8
0
 10
647.27482674640009
 20
167.6806273311
 30
0.0
  0
VERTEX
  5
4C6C
  8
0
 10
648.58264322390005
 20
168.3904813975
 30
0.0
  0
VERTEX
  5
4C6D
  8
0
 10
650.0
 20
168.62960033120001
 30
0.0
  0
VERTEX
  5
4C6E
  8
0
 10
651.34227797389997
 20
168.41568298639999
 30
0.0
  0
VERTEX
  5
4C6F
  8
0
 10
652.53686984069998
 20
167.8184705228
 30
0.0
  0
VERTEX
  5
4C70
  8
0
 10
653.23228165500007
 20
167.23314173520001
 30
0.0
  0
VERTEX
  5
4C71
  8
0
 10
653.81922209630011
 20
166.5416384488
 30
0.0
  0
VERTEX
  5
4C72
  8
0
 10
654.44949977100009
 20
165.47536723319999
 30
0.0
  0
VERTEX
  5
4C73
  8
0
 10
654.90564201019993
 20
164.31072600190001
 30
0.0
  0
VERTEX
  5
4C74
  8
0
 10
655.29189733789997
 20
162.57616005840001
 30
0.0
  0
VERTEX
  5
4C75
  8
0
 10
655.41519140820014
 20
160.78729987139999
 30
0.0
  0
SEQEND
  5
4C76
  8
0
  0
LINE
  5
4A73
  8
0
 10
644.58480859170004
 20
147.8243326131134
 30
0.0
 11
644.58480859170004
 21
160.78729987139999
 31
0.0
  0
LINE
  5
4A74
  8
0
 10
644.58480859170004
 20
137.29229978289999
 30
0.0
 11
644.58480859170015
 21
141.09486690728659
 31
0.0
  0
LINE
  5
4A75
  8
0
 10
640.47499988230015
 20
137.29229978289999
 30
0.0
 11
644.58480859170004
 21
137.29229978289999
 31
0.0
  0
LINE
  5
4A76
  8
0
 10
655.41519140820014
 20
160.78729987139999
 30
0.0
 11
644.58480859170004
 21
160.78729987139999
 31
0.0
  0
ARC
  5
4A77
  8
0
 10
650.0
 20
145.49233714799999
 30
0.0
 40
9.8267446683986002
 50
236.5597785688928
 51
303.4402214311072
  0
LINE
  5
4A78
  8
0
 10
643.65000007670005
 20
134.1172996466
 30
0.0
 11
656.34999992320013
 21
134.1172996466
 31
0.0
  0
CIRCLE
  5
4A79
  8
0
 10
650.0
 20
144.45959976020009
 30
0.0
 40
5.8674000000672617
  0
CIRCLE
  5
4A7A
  8
0
 10
650.0
 20
144.45959976020009
 30
0.0
 40
6.3754000000000133
  0
LINE
  5
4A7B
  8
0
 10
672.49423973260014
 20
159.987198785
 30
0.0
 11
659.52500011769996
 21
159.987198785
 31
0.0
  0
LINE
  5
4A7C
  8
0
 10
640.47499988230015
 20
159.987198785
 30
0.0
 11
627.50576026739998
 21
159.987198785
 31
0.0
  0
LINE
  5
4A7D
  8
0
 10
631.58499971030005
 20
128.7595997602001
 30
0.0
 11
668.41500028969995
 21
128.7595997602001
 31
0.0
  0
LINE
  5
4A7E
  8
0
 10
418.12499999999977
 20
420.66649955070011
 30
0.0
 11
481.8749999999996
 21
420.6664995507
 31
0.0
  0
LINE
  5
4A7F
  8
0
 10
481.8749999999996
 20
439.71649978620007
 30
0.0
 11
418.12499999999977
 21
439.71649978620007
 31
0.0
  0
LINE
  5
4A80
  8
0
 10
405.80799921149969
 20
436.56689955230019
 30
0.0
 11
405.29999999999978
 21
436.05889987510022
 31
0.0
  0
LINE
  5
4A81
  8
0
 10
405.29999999999978
 20
424.32409946180019
 30
0.0
 11
405.80799921149969
 21
423.81609978460011
 31
0.0
  0
LINE
  5
4A82
  8
0
 10
405.80799921149969
 20
423.81609978460011
 30
0.0
 11
409.76639911529992
 21
423.81609978460011
 31
0.0
  0
LINE
  5
4A83
  8
0
 10
409.76639911529992
 20
436.56689955230007
 30
0.0
 11
405.80799921149969
 21
436.56689955230019
 31
0.0
  0
LINE
  5
4A84
  8
0
 10
494.1920007883997
 20
423.81609978460011
 30
0.0
 11
494.6999999999997
 21
424.32409946180007
 31
0.0
  0
LINE
  5
4A85
  8
0
 10
494.6999999999997
 20
436.05889987510011
 30
0.0
 11
494.1920007883997
 21
436.56689955230007
 31
0.0
  0
LINE
  5
4A86
  8
0
 10
494.1920007883997
 20
436.56689955230007
 30
0.0
 11
490.23360088459998
 21
436.56689955230007
 31
0.0
  0
LINE
  5
4A87
  8
0
 10
490.23360088459998
 20
423.81609978460011
 30
0.0
 11
494.1920007883997
 21
423.81609978460011
 31
0.0
  0
ARC
  5
4A88
  8
0
 10
481.8749999999996
 20
430.19149966845009
 30
0.0
 40
9.5250000000000341
 50
0.0
 51
90.0
  0
ARC
  5
4A89
  8
0
 10
481.8749999999996
 20
430.19149966845009
 30
0.0
 40
9.5250000000000341
 50
270.0
 51
0.0
  0
ARC
  5
4A8A
  8
0
 10
418.12499999999977
 20
430.19149966840013
 30
0.0
 40
9.5250000000000341
 50
180.0
 51
270.0
  0
ARC
  5
4A8B
  8
0
 10
418.12499999999977
 20
430.19149966840013
 30
0.0
 40
9.5250000000000341
 50
90.0
 51
180.0
  0
ARC
  5
4A8C
  8
0
 10
450.0
 20
430.19149966840013
 30
0.0
 40
22.494240000000051
 50
25.052070075397129
 51
90.0
  0
ARC
  5
4A8D
  8
0
 10
450.0
 20
430.19149966840013
 30
0.0
 40
22.494240000000019
 50
205.0520700753971
 51
334.94792992460287
  0
ARC
  5
4A8E
  8
0
 10
450.0
 20
430.19149966840013
 30
0.0
 40
22.494240000000051
 50
90.0
 51
154.94792992460279
  0
ARC
  5
4A8F
  8
0
 10
450.0
 20
430.19149966840013
 30
0.0
 40
23.68550000000004
 50
23.712327184403069
 51
90.0
  0
ARC
  5
4A90
  8
0
 10
450.0
 20
430.19149966840013
 30
0.0
 40
23.685500000000019
 50
203.71232718440311
 51
336.28767281559658
  0
ARC
  5
4A91
  8
0
 10
450.0
 20
430.19149966840013
 30
0.0
 40
23.68549999999999
 50
90.0
 51
156.28767281559649
  0
LINE
  5
4A92
  8
0
 10
405.29999999999978
 20
436.05889987510022
 30
0.0
 11
405.29999999999978
 21
424.32409946180019
 31
0.0
  0
LINE
  5
4A93
  8
0
 10
405.80799921149969
 20
436.56689955230019
 30
0.0
 11
405.80799921149969
 21
423.81609978460011
 31
0.0
  0
LINE
  5
4A94
  8
0
 10
409.76639911529992
 20
423.81609978460011
 30
0.0
 11
409.76639911529992
 21
425.62428867586931
 31
0.0
  0
LINE
  5
4A95
  8
0
 10
409.76639911529992
 20
434.75871066093089
 30
0.0
 11
409.76639911529992
 21
436.56689955230007
 31
0.0
  0
LINE
  5
4A96
  8
0
 10
494.6999999999997
 20
424.32409946180007
 30
0.0
 11
494.6999999999997
 21
436.05889987510011
 31
0.0
  0
LINE
  5
4A97
  8
0
 10
494.1920007883997
 20
423.81609978460011
 30
0.0
 11
494.1920007883997
 21
436.56689955230007
 31
0.0
  0
LINE
  5
4A98
  8
0
 10
490.23360088459998
 20
436.56689955230007
 30
0.0
 11
490.23360088459992
 21
434.75871066116309
 31
0.0
  0
LINE
  5
4A99
  8
0
 10
490.23360088459992
 20
425.62428867573698
 30
0.0
 11
490.23360088459998
 21
423.81609978460011
 31
0.0
  0
LINE
  5
4A9A
  8
0
 10
278.65000000004977
 20
151.92269966000001
 30
0.0
 11
277.06250106694978
 21
153.51020045579989
 31
0.0
  0
LINE
  5
4A9B
  8
0
 10
277.06250106694978
 20
134.8157996683999
 30
0.0
 11
278.65000000004977
 21
136.40329964919999
 31
0.0
  0
LINE
  5
4A9C
  8
0
 10
278.65000000004977
 20
136.40329964919999
 30
0.0
 11
278.65000000004977
 21
151.92269966000001
 31
0.0
  0
LINE
  5
4A9D
  8
0
 10
273.68550002574989
 20
154.7014588861999
 30
0.0
 11
273.68550002574989
 21
158.79594035439999
 31
0.0
  0
LINE
  5
4A9E
  8
0
 10
226.31449997424991
 20
158.79594035439999
 30
0.0
 11
226.31449997424991
 21
154.7014588861999
 31
0.0
  0
LINE
  5
4A9F
  8
0
 10
273.68550002574989
 20
158.79594035439999
 30
0.0
 11
272.49423973264982
 21
159.98719878489999
 31
0.0
  0
LINE
  5
4AA0
  8
0
 10
227.50576026734981
 20
159.98719878489999
 30
0.0
 11
226.31449997424991
 21
158.79594035439999
 31
0.0
  0
LINE
  5
4AA1
  8
0
 10
226.31449997424991
 20
154.7014588861999
 30
0.0
 11
227.03136010345941
 21
153.98459987790011
 31
0.0
  0
LINE
  5
4AA2
  8
0
 10
272.49423973264982
 20
153.51020045579989
 30
0.0
 11
273.68550002574989
 21
154.7014588861999
 31
0.0
  0
LINE
  5
4AA3
  8
0
 10
269.05000023544977
 20
134.18079960619991
 30
0.0
 11
268.41500028964981
 21
134.8157996683999
 31
0.0
  0
LINE
  5
4AA4
  8
0
 10
269.05000023544977
 20
129.39459970590011
 30
0.0
 11
269.05000023544977
 21
134.18079960619991
 31
0.0
  0
LINE
  5
4AA5
  8
0
 10
230.9499997645498
 20
134.18079960619991
 30
0.0
 11
230.9499997645498
 21
129.39459970589999
 31
0.0
  0
LINE
  5
4AA6
  8
0
 10
230.9499997645498
 20
129.39459970589999
 30
0.0
 11
231.58499971034979
 21
128.7595997601
 31
0.0
  0
LINE
  5
4AA7
  8
0
 10
268.4150002896497
 20
128.7595997601
 30
0.0
 11
269.05000023544977
 21
129.39459970589999
 31
0.0
  0
CIRCLE
  5
4AA8
  8
0
 10
250.00000000004979
 20
144.45959976020009
 30
0.0
 40
5.8674000000564632
  0
CIRCLE
  5
4AA9
  8
0
 10
250.00000000004979
 20
144.45959976020009
 30
0.0
 40
6.3754000000000133
  0
LINE
  5
4AAD
  8
0
 10
277.06250106694989
 20
153.51020045579989
 30
0.0
 11
257.6416993907539
 21
153.5102004558
 31
0.0
  0
LINE
  5
4AAE
  8
0
 10
222.93749893304971
 20
134.81579966839999
 30
0.0
 11
277.06250106694978
 21
134.8157996683999
 31
0.0
  0
LINE
  5
4AAF
  8
0
 10
272.49423973264982
 20
159.98719878489999
 30
0.0
 11
227.50576026734981
 21
159.98719878489999
 31
0.0
  0
LINE
  5
4AB0
  8
0
 10
231.58499971034979
 20
128.7595997601
 30
0.0
 11
268.4150002896497
 21
128.7595997601
 31
0.0
  0
CIRCLE
  5
4AB1
  8
0
 10
250.00000000004979
 20
430.19149966845009
 30
0.0
 40
22.494239999999991
  0
CIRCLE
  5
4AB2
  8
0
 10
250.00000000004979
 20
430.19149966845009
 30
0.0
 40
23.68549999999999
  0
LINE
  5
4AB5
  8
0
 10
236.3873739917392
 20
455.40100012279999
 30
0.0
 11
263.61262600836028
 21
455.40100012279999
 31
0.0
  0
ARC
  5
4AB9
  8
2
 10
650.0
 20
289.93459976020011
 30
0.0
 40
9.5250000000000341
 50
180.0
 51
0.0
  0
LINE
  5
4ABB
  8
0
 10
236.38737399173931
 20
404.9819992141002
 30
0.0
 11
263.61262600836028
 21
404.98199921410009
 31
0.0
  0
ARC
  5
4ABF
  8
0
 10
250.00000000004979
 20
430.19149966845009
 30
0.0
 40
28.649999999999999
 50
298.36815899685638
 51
61.631841003143599
  0
ARC
  5
4AC0
  8
0
 10
250.00000000004979
 20
430.19149966845009
 30
0.0
 40
28.649999999999999
 50
118.36815899685629
 51
241.63184100314359
  0
LINE
  5
4AC4
  8
0
 10
424.79049954565011
 20
416.57887366008941
 30
0.0
 11
424.79049954565011
 21
420.66649955070011
 31
0.0
  0
LINE
  5
4AC5
  8
0
 10
424.79049954565011
 20
439.71649978620007
 30
0.0
 11
424.79049954565011
 21
443.80412567671073
 31
0.0
  0
LINE
  5
4AC9
  8
0
 10
475.20950045434978
 20
416.57887366008941
 30
0.0
 11
475.20950045434978
 21
420.66649955070011
 31
0.0
  0
LINE
  5
4ACA
  8
0
 10
475.20950045435001
 20
439.71649978620007
 30
0.0
 11
475.20950045435001
 21
443.80412567671073
 31
0.0
  0
ARC
  5
4ACE
  8
0
 10
450.0
 20
430.19149966840013
 30
0.0
 40
28.649999999999999
 50
28.368158996857922
 51
151.63184100314211
  0
ARC
  5
4ACF
  8
0
 10
450.0
 20
430.19149966840013
 30
0.0
 40
28.649999999999999
 50
208.36815899685789
 51
331.63184100314209
  0
LINE
  5
4AD2
  8
0
 10
678.65000000005011
 20
151.92269966000001
 30
0.0
 11
677.06250106695029
 21
153.5102004558
 31
0.0
  0
LINE
  5
4AD3
  8
0
 10
677.06250106695029
 20
134.81579966839999
 30
0.0
 11
678.65000000005011
 21
136.40329964919999
 31
0.0
  0
LINE
  5
4AD4
  8
0
 10
678.65000000005011
 20
136.40329964919999
 30
0.0
 11
678.65000000005011
 21
151.92269966000001
 31
0.0
  0
LINE
  5
4AD5
  8
0
 10
677.06250106695029
 20
153.5102004558
 30
0.0
 11
659.52500011769996
 21
153.5102004558
 31
0.0
  0
LINE
  5
4AD6
  8
0
 10
657.04849999953171
 20
134.81579966839999
 30
0.0
 11
677.06250106695029
 21
134.81579966839999
 31
0.0
  0
LINE
  5
4AD7
  8
0
 10
621.34999999994977
 20
151.92269966000001
 30
0.0
 11
622.93749893304971
 21
153.5102004558
 31
0.0
  0
LINE
  5
4AD8
  8
0
 10
622.93749893304971
 20
134.81579966839999
 30
0.0
 11
621.34999999994977
 21
136.40329964919999
 31
0.0
  0
LINE
  5
4AD9
  8
0
 10
621.34999999994977
 20
136.40329964919999
 30
0.0
 11
621.34999999994977
 21
151.92269966000001
 31
0.0
  0
LINE
  5
4ADA
  8
0
 10
622.93749893304971
 20
153.5102004558
 30
0.0
 11
640.47499988229993
 21
153.5102004558
 31
0.0
  0
LINE
  5
4ADB
  8
0
 10
642.95150000046817
 20
134.81579966839999
 30
0.0
 11
622.93749893304971
 21
134.81579966839999
 31
0.0
  0
LINE
  5
4AE2
  8
1
 10
450.0
 20
468.84149966839999
 30
0.0
 11
450.0
 21
391.54149966840021
 31
0.0
  0
LINE
  5
4AE3
  8
1
 10
504.6999999999997
 20
430.19149966845009
 30
0.0
 11
395.29999999999978
 21
430.19149966845021
 31
0.0
  0
LINE
  5
4AE4
  8
1
 10
418.12499999999977
 20
410.66649955070011
 30
0.0
 11
418.12499999999977
 21
449.71649978620007
 31
0.0
  0
LINE
  5
4AE5
  8
1
 10
481.8749999999996
 20
410.66649955075002
 30
0.0
 11
481.8749999999996
 21
449.71649978624998
 31
0.0
  0
LINE
  5
4AE6
  8
1
 10
249.99999999999989
 20
183.75959975999851
 30
0.0
 11
250.0
 21
84.759599760200103
 31
0.0
  0
LINE
  5
4AE7
  8
1
 10
449.99999999999977
 20
84.759599760200103
 30
0.0
 11
449.99999999999977
 21
309.45959976020009
 31
0.0
  0
LINE
  5
4AE8
  8
1
 10
650.0
 20
84.759599760200103
 30
0.0
 11
650.0
 21
309.45959976020009
 31
0.0
  0
LINE
  5
4AE9
  8
1
 10
398.5999999999998
 20
258.05959760343291
 30
0.0
 11
501.39999999999958
 21
258.05960191696749
 31
0.0
  0
LINE
  5
4AEA
  8
1
 10
395.29999999999978
 20
144.45959976020009
 30
0.0
 11
504.6999999999997
 21
144.45959976020009
 31
0.0
  0
LINE
  5
4AEB
  8
1
 10
638.62459999999976
 20
144.45959976020009
 30
0.0
 11
661.37540000000013
 21
144.45959976020009
 31
0.0
  0
LINE
  5
4AEC
  8
1
 10
635.47499988230015
 20
289.93459682460002
 30
0.0
 11
664.52500011769996
 21
289.93459682460002
 31
0.0
  0
LINE
  5
4AED
  8
0
 10
230.94999976455011
 20
134.1807996062
 30
0.0
 11
231.58499971035019
 21
134.81579966839999
 31
0.0
  0
LINE
  5
4AEE
  8
0
 10
222.93749893304971
 20
134.8157996683999
 30
0.0
 11
222.8186990373537
 21
134.93459964250019
 31
0.0
  0
ARC
  5
4AF0
  8
0
 10
449.99999999999977
 20
258.05959976020017
 30
0.0
 40
22.350000000000001
 50
0.0000024041569015
 51
180.0000024041569
  0
ARC
  5
4AF1
  8
1
 10
449.99999999999977
 20
258.05959976020017
 30
0.0
 40
31.875000000000082
 50
0.0000024041568583
 51
180.0000024041569
  0
LINE
  5
4AF2
  8
1
 10
418.1249999999996
 20
258.05959842271068
 30
0.0
 11
418.12499999999972
 21
124.1172996466
 31
0.0
  0
LINE
  5
4AF3
  8
1
 10
481.87499999999977
 20
258.05960109768961
 30
0.0
 11
481.87499999999977
 21
124.1173023215789
 31
0.0
  0
ARC
  5
4AF4
  8
0
 10
136.39999999999981
 20
430.19149966850011
 30
0.0
 40
41.39999999999997
 50
90.000002946317665
 51
270.00000240415648
  0
LINE
  5
4AF5
  8
0
 10
224.14646249006719
 20
407.84149966849998
 30
0.0
 11
136.3999977993671
 21
407.84149966849998
 31
0.0
  0
LINE
  5
4AF6
  8
0
 10
225.8299994297445
 20
388.79149966850008
 30
0.0
 11
136.3999977993671
 21
388.79149966850008
 31
0.0
  0
LINE
  5
4AF7
  8
0
 10
136.39999787108869
 20
452.54149966849991
 30
0.0
 11
224.14646256178881
 21
452.54149966849991
 31
0.0
  0
LINE
  5
4AF8
  8
0
 10
136.39999787108869
 20
471.59149966849998
 30
0.0
 11
225.82999942899971
 21
471.59149966849998
 31
0.0
  0
LINE
  5
4AF9
  8
0
 10
258.85640009149989
 20
389.95789878380032
 30
0.0
 11
260.34230011359989
 21
391.44379787460042
 31
0.0
  0
LINE
  5
4AFA
  8
0
 10
260.34230011359989
 20
404.14380051500041
 30
0.0
 11
259.72000008989983
 21
404.76609908350019
 31
0.0
  0
LINE
  5
4AFB
  8
0
 10
259.72000008989983
 20
455.61690025340027
 30
0.0
 11
260.34230011359989
 21
456.23919882190017
 31
0.0
  0
LINE
  5
4AFC
  8
0
 10
260.34230011359989
 20
468.93920146240032
 30
0.0
 11
258.85640009149989
 21
470.42510055310038
 31
0.0
  0
LINE
  5
4AFD
  8
0
 10
243.6245999997499
 20
385.99949888000009
 30
0.0
 11
244.13260014264989
 21
385.49149966850018
 31
0.0
  0
LINE
  5
4AFE
  8
0
 10
255.8673998573498
 20
385.49149966850018
 30
0.0
 11
256.37539976744978
 21
385.99949888000009
 31
0.0
  0
LINE
  5
4AFF
  8
0
 10
256.37539976744978
 20
385.99949888000009
 30
0.0
 11
256.37539976744978
 21
389.95789878380032
 31
0.0
  0
LINE
  5
4B00
  8
0
 10
243.6245999997499
 20
389.95789878380032
 30
0.0
 11
243.6245999997499
 21
385.99949888000009
 31
0.0
  0
LINE
  5
4B01
  8
0
 10
243.6245999997499
 20
474.38350045689998
 30
0.0
 11
243.6245999997499
 21
470.42510055310038
 31
0.0
  0
LINE
  5
4B02
  8
0
 10
256.37539976744978
 20
470.42510055310038
 30
0.0
 11
256.37539976744978
 21
474.38350045689998
 31
0.0
  0
LINE
  5
4B03
  8
0
 10
256.37539976744978
 20
474.38350045689998
 30
0.0
 11
255.8673998573498
 21
474.89149966849999
 31
0.0
  0
LINE
  5
4B04
  8
0
 10
244.13260014264989
 20
474.89149966849999
 30
0.0
 11
243.6245999997499
 21
474.38350045689998
 31
0.0
  0
LINE
  5
4B05
  8
0
 10
254.83235006684981
 20
404.76609908350019
 30
0.0
 11
254.8323500668499
 21
404.98199921414999
 31
0.0
  0
LINE
  5
4B06
  8
0
 10
245.16764970024991
 20
404.98199921414999
 30
0.0
 11
245.16764970024991
 21
404.76609908350019
 31
0.0
  0
LINE
  5
4B07
  8
0
 10
245.16764970024991
 20
455.61690025340027
 30
0.0
 11
245.16764970024991
 21
455.40100012284989
 31
0.0
  0
LINE
  5
4B08
  8
0
 10
254.83235006684981
 20
455.40100012284989
 30
0.0
 11
254.83235006684981
 21
455.61690025340027
 31
0.0
  0
ARC
  5
4B09
  8
0
 10
233.05873398794549
 20
419.15612835792967
 30
0.0
 40
14.403104027658561
 50
231.77331300648041
 51
272.44151384828291
  0
LINE
  5
4B0A
  8
0
 10
259.72000008989983
 20
404.76609908350019
 30
0.0
 11
233.6722998887999
 21
404.76609908350019
 31
0.0
  0
LINE
  5
4B0B
  8
0
 10
257.16729997729988
 20
389.95789878380032
 30
0.0
 11
257.16729997729988
 21
404.76609908350019
 31
0.0
  0
LINE
  5
4B0C
  8
0
 10
233.6722998887999
 20
389.95789878380032
 30
0.0
 11
258.85640009150012
 21
389.95789878379998
 31
0.0
  0
ARC
  5
4B0D
  8
0
 10
233.05874397845619
 20
441.22684009765788
 30
0.0
 40
14.40313445543601
 50
87.558531091246152
 51
128.22664213104511
  0
LINE
  5
4B0E
  8
0
 10
258.85640009149989
 20
470.42510055310038
 30
0.0
 11
233.6722998887999
 21
470.42510055310038
 31
0.0
  0
LINE
  5
4B0F
  8
0
 10
257.16729997729988
 20
455.61690025340027
 30
0.0
 11
257.16729997729988
 21
470.42510055310038
 31
0.0
  0
LINE
  5
4B10
  8
0
 10
233.6722998887999
 20
455.61690025340027
 30
0.0
 11
259.72000008989971
 21
455.6169002534001
 31
0.0
  0
LINE
  5
4B11
  8
0
 10
260.34230011359989
 20
391.44379787460008
 30
0.0
 11
260.34230011359989
 21
404.14380051500041
 31
0.0
  0
LINE
  5
4B12
  8
0
 10
260.34230011359989
 20
456.23919882190017
 30
0.0
 11
260.34230011359989
 21
468.93920146240021
 31
0.0
  0
LINE
  5
4B13
  8
0
 10
244.13260014264989
 20
385.49149966850018
 30
0.0
 11
255.8673998573498
 21
385.49149966850018
 31
0.0
  0
LINE
  5
4B14
  8
0
 10
243.62459999974999
 20
385.99949887999992
 30
0.0
 11
256.37539976744978
 21
385.99949888000009
 31
0.0
  0
LINE
  5
4B15
  8
0
 10
256.37539976744978
 20
474.38350045689998
 30
0.0
 11
243.6245999997499
 21
474.38350045689998
 31
0.0
  0
LINE
  5
4B16
  8
0
 10
255.8673998573498
 20
474.89149966849999
 30
0.0
 11
244.13260014264989
 21
474.89149966849999
 31
0.0
  0
LINE
  5
4B17
  8
1
 10
288.65000000004977
 20
430.19149966850011
 30
0.0
 11
84.999999999999815
 21
430.19149966850011
 31
0.0
  0
LINE
  5
4B18
  8
1
 10
136.4000021567671
 20
378.79149966850008
 30
0.0
 11
136.39999784323251
 21
481.59149966850009
 31
0.0
  0
LINE
  5
4B19
  8
1
 10
249.99999999999989
 20
375.49149966850013
 30
0.0
 11
249.99999999999989
 21
484.89149966849999
 31
0.0
  0
ARC
  5
4B1A
  8
0
 10
136.39999999999981
 20
430.19149966850011
 30
0.0
 40
22.350000000000001
 50
90.000002404156533
 51
270.00000240415648
  0
ARC
  5
4B1B
  8
1
 10
136.39999999999981
 20
430.19149966850011
 30
0.0
 40
31.875000000000082
 50
90.000002404156533
 51
270.00000240415648
  0
LINE
  5
4B1C
  8
1
 10
136.4000013374893
 20
398.3164996685
 30
0.0
 11
270.34230011359989
 21
398.31649966850011
 31
0.0
  0
LINE
  5
4B1D
  8
1
 10
136.3999986625104
 20
462.06649966850023
 30
0.0
 11
270.34229743862102
 21
462.06649966850023
 31
0.0
  0
ARC
  5
4B1E
  8
0
 10
104.5250000000498
 20
144.45959976020009
 30
0.0
 40
9.5250000000000341
 50
90.0
 51
270.0
  0
LINE
  5
4B1F
  8
0
 10
104.52500293564989
 20
134.93459964250019
 30
0.0
 11
257.1672999773499
 21
134.93459964250019
 31
0.0
  0
LINE
  5
4B20
  8
0
 10
257.1672999773499
 20
153.98459987790011
 30
0.0
 11
104.52500293564989
 21
153.98459987790011
 31
0.0
  0
LINE
  5
4B21
  8
0
 10
257.1672999773499
 20
134.93459964250019
 30
0.0
 11
260.34230011364991
 21
138.10959983690009
 31
0.0
  0
LINE
  5
4B22
  8
0
 10
260.34230011364991
 20
150.80959968340019
 30
0.0
 11
257.1672999773499
 21
153.98459987790011
 31
0.0
  0
LINE
  5
4B23
  8
0
 10
257.1672999773499
 20
149.87479116840021
 30
0.0
 11
257.1672999773499
 21
153.98459987790011
 31
0.0
  0
LINE
  5
4B24
  8
0
 10
253.36473285312371
 20
149.87479116840029
 30
0.0
 11
257.1672999773499
 21
149.87479116840021
 31
0.0
  0
LINE
  5
4B25
  8
0
 10
233.67229988884989
 20
149.87479116840021
 30
0.0
 11
246.63526714697579
 21
149.87479116840021
 31
0.0
  0
POLYLINE
  5
4B26
  8
0
 66
     1
 10
0.0
 20
0.0
 30
0.0
 70
   128
  0
VERTEX
  5
4C77
  8
0
 10
233.67229988884989
 20
139.0444083519001
 30
0.0
  0
VERTEX
  5
4C78
  8
0
 10
232.03498264854991
 20
139.14744382800021
 30
0.0
  0
VERTEX
  5
4C79
  8
0
 10
230.4385821343499
 20
139.46809306820001
 30
0.0
  0
VERTEX
  5
4C7A
  8
0
 10
229.2290865451499
 20
139.89745978340011
 30
0.0
  0
VERTEX
  5
4C7B
  8
0
 10
228.11344591984991
 20
140.5044003770002
 30
0.0
  0
VERTEX
  5
4C7C
  8
0
 10
226.77897242914989
 20
141.73442650660019
 30
0.0
  0
VERTEX
  5
4C7D
  8
0
 10
226.06911836274989
 20
143.04224298410011
 30
0.0
  0
VERTEX
  5
4C7E
  8
0
 10
225.82999942904991
 20
144.45959976020009
 30
0.0
  0
VERTEX
  5
4C7F
  8
0
 10
226.0439167738499
 20
145.8018777341002
 30
0.0
  0
VERTEX
  5
4C80
  8
0
 10
226.64112923744989
 20
146.99646960090021
 30
0.0
  0
VERTEX
  5
4C81
  8
0
 10
227.22645802504991
 20
147.69188141520021
 30
0.0
  0
VERTEX
  5
4C82
  8
0
 10
227.91796131144989
 20
148.2788218565002
 30
0.0
  0
VERTEX
  5
4C83
  8
0
 10
228.9842325270499
 20
148.90909953120021
 30
0.0
  0
VERTEX
  5
4C84
  8
0
 10
230.14887375834991
 20
149.36524177039999
 30
0.0
  0
VERTEX
  5
4C85
  8
0
 10
231.88343970184991
 20
149.7514970981002
 30
0.0
  0
VERTEX
  5
4C86
  8
0
 10
233.67229988884989
 20
149.87479116840021
 30
0.0
  0
SEQEND
  5
4C87
  8
0
  0
LINE
  5
4B27
  8
0
 10
246.63526714713649
 20
139.0444083519001
 30
0.0
 11
233.67229988884989
 21
139.0444083519001
 31
0.0
  0
LINE
  5
4B28
  8
0
 10
257.1672999773499
 20
139.0444083519001
 30
0.0
 11
253.3647328529633
 21
139.04440835190019
 31
0.0
  0
LINE
  5
4B29
  8
0
 10
257.1672999773499
 20
134.93459964250019
 30
0.0
 11
257.1672999773499
 21
139.0444083519001
 31
0.0
  0
LINE
  5
4B2A
  8
0
 10
233.67229988884989
 20
149.87479116840021
 30
0.0
 11
233.67229988884989
 21
139.0444083519001
 31
0.0
  0
ARC
  5
4B2B
  8
0
 10
248.9672626122499
 20
144.45959976020009
 30
0.0
 40
9.8267446683986002
 50
326.55977856889132
 51
33.440221431107929
  0
LINE
  5
4B2C
  8
0
 10
260.34230011364991
 20
138.10959983690009
 30
0.0
 11
260.34230011364991
 21
150.80959968340019
 31
0.0
  0
ARC
  5
4B2D
  8
2
 10
104.5250000000498
 20
144.45959976020009
 30
0.0
 40
9.5250000000000341
 50
270.0
 51
90.0
  0
LINE
  5
4B2E
  8
1
 10
288.65000000004977
 20
144.45959976020009
 30
0.0
 11
85.000000000049795
 21
144.45959976020009
 31
0.0
  0
LINE
  5
4B2F
  8
1
 10
104.52500293564989
 20
129.93459964250019
 30
0.0
 11
104.52500293564989
 21
158.98459987790011
 31
0.0
  0
ARC
  5
4B30
  8
0
 10
537.0763937818341
 20
157.8281795701507
 30
0.0
 40
46.936165580183747
 50
166.69527326694009
 51
176.38535401799541
  0
ARC
  5
4B31
  8
0
 10
362.9236062181655
 20
157.8281795701507
 30
0.0
 40
46.936165580183747
 50
3.614645982004602
 51
13.304726733060299
  0
ARC
  5
4B32
  8
0
 10
236.6314201900492
 20
517.26789345033444
 30
0.0
 40
46.936165580183747
 50
256.69527326694458
 51
266.38535401799572
  0
ARC
  5
4B33
  8
0
 10
236.63142019024411
 20
343.11510588653567
 30
0.0
 40
46.936165580183747
 50
93.614645982132288
 51
103.3047267331834
  0
LINE
  5
4B34
  8
0
 10
240.0
 20
96.715399518600094
 30
0.0
 11
241.95579975849981
 21
94.759599760200103
 31
0.0
  0
LINE
  5
4B35
  8
0
 10
258.04420024149999
 20
94.759599760200103
 30
0.0
 11
260.0
 21
96.715399518600094
 31
0.0
  0
LINE
  5
4B36
  8
0
 10
241.95579975850001
 20
94.759599760200103
 30
0.0
 11
258.04420024149999
 21
94.759599760200103
 31
0.0
  0
LINE
  5
4B37
  8
0
 10
260.0
 20
96.715399518600094
 30
0.0
 11
260.0
 21
128.7595997602001
 31
0.0
  0
LINE
  5
4B38
  8
3
 10
258.64700000000022
 20
95.362399518669235
 30
0.0
 11
258.64699999999988
 21
128.7595997602001
 31
0.0
  0
LINE
  5
4B39
  8
3
 10
241.35300000000029
 20
95.362399518668937
 30
0.0
 11
241.35300000000009
 21
128.7595997602001
 31
0.0
  0
LINE
  5
4B3A
  8
0
 10
240.0
 20
96.715399518600094
 30
0.0
 11
240.0
 21
128.7595997602001
 31
0.0
  0
LINE
  5
4B3B
  8
0
 10
240.0
 20
96.715399518600094
 30
0.0
 11
260.0
 21
96.715399518600094
 31
0.0
  0
LINE
  5
4B3C
  8
0
 10
440.0
 20
96.715399518700167
 30
0.0
 11
441.95579975849972
 21
94.759599760300176
 31
0.0
  0
LINE
  5
4B3D
  8
0
 10
458.04420024149999
 20
94.759599760300176
 30
0.0
 11
460.0
 21
96.715399518700167
 31
0.0
  0
LINE
  5
4B3E
  8
0
 10
441.95579975850001
 20
94.759599760300176
 30
0.0
 11
458.04420024149999
 21
94.759599760300176
 31
0.0
  0
LINE
  5
4B3F
  8
0
 10
460.0
 20
96.715399518700167
 30
0.0
 11
460.0
 21
128.7595997603002
 31
0.0
  0
LINE
  5
4B40
  8
3
 10
458.64700000000022
 20
95.362399518769294
 30
0.0
 11
458.64699999999988
 21
128.7595997603002
 31
0.0
  0
LINE
  5
4B41
  8
3
 10
441.35300000000029
 20
95.362399518769024
 30
0.0
 11
441.35300000000001
 21
128.7595997603002
 31
0.0
  0
LINE
  5
4B42
  8
0
 10
440.0
 20
96.715399518700167
 30
0.0
 11
440.0
 21
128.7595997603002
 31
0.0
  0
LINE
  5
4B43
  8
0
 10
440.0
 20
96.715399518700167
 30
0.0
 11
460.0
 21
96.715399518700167
 31
0.0
  0
LINE
  5
4B44
  8
0
 10
640.00000000000023
 20
96.715399518700139
 30
0.0
 11
641.95579975850001
 21
94.759599760300148
 31
0.0
  0
LINE
  5
4B45
  8
0
 10
658.04420024150022
 20
94.759599760300148
 30
0.0
 11
660.00000000000023
 21
96.715399518700139
 31
0.0
  0
LINE
  5
4B46
  8
0
 10
641.95579975850023
 20
94.759599760300148
 30
0.0
 11
658.04420024150022
 21
94.759599760300148
 31
0.0
  0
LINE
  5
4B47
  8
0
 10
660.00000000000023
 20
96.715399518700139
 30
0.0
 11
660.00000000000023
 21
128.75959976030009
 31
0.0
  0
LINE
  5
4B48
  8
3
 10
658.64700000000028
 20
95.362399518769266
 30
0.0
 11
658.64700000000016
 21
128.75959976030009
 31
0.0
  0
LINE
  5
4B49
  8
3
 10
641.35300000000052
 20
95.362399518768996
 30
0.0
 11
641.35300000000029
 21
128.75959976030009
 31
0.0
  0
LINE
  5
4B4A
  8
0
 10
640.00000000000023
 20
96.715399518700139
 30
0.0
 11
640.00000000000023
 21
128.75959976030009
 31
0.0
  0
LINE
  5
4B4B
  8
0
 10
640.00000000000023
 20
96.715399518700139
 30
0.0
 11
660.00000000000023
 21
96.715399518700139
 31
0.0
  0
LINE
  5
4B4C
  8
0
 10
235.75059976430001
 20
161.25959975999851
 30
0.0
 11
235.75059976430001
 21
159.98719878489999
 31
0.0
  0
LINE
  5
4B4D
  8
0
 10
264.2494002356998
 20
159.98719878489999
 30
0.0
 11
264.2494002356998
 21
161.25959975999851
 31
0.0
  0
LINE
  5
4B4E
  8
0
 10
234.9999999999998
 20
173.75959975999851
 30
0.0
 11
232.67949192431109
 21
172.43977411069841
 31
0.0
  0
LINE
  5
4B4F
  8
0
 10
232.67949192431109
 20
172.43977411069841
 30
0.0
 11
232.67949192431121
 21
161.25959975999851
 31
0.0
  0
LINE
  5
4B50
  8
0
 10
267.32050807568839
 20
161.25959975999851
 30
0.0
 11
267.32050807568839
 21
172.43977411069841
 31
0.0
  0
ARC
  5
4B51
  8
0
 10
250.0000000000002
 20
142.49230865263689
 30
0.0
 40
31.174519841719381
 50
73.87110713741788
 51
106.12889286258211
  0
ARC
  5
4B52
  8
0
 10
237.0096189432343
 20
165.340193012192
 30
0.0
 40
8.3158915201122827
 50
58.620440757249561
 51
121.37955924276569
  0
ARC
  5
4B53
  8
0
 10
262.99038105676732
 20
165.3406539480541
 30
0.0
 40
8.3154980057513264
 50
58.618787019313032
 51
121.3812129807017
  0
LINE
  5
4B54
  8
0
 10
264.99999999999977
 20
173.75959975999851
 30
0.0
 11
234.9999999999998
 21
173.75959975999851
 31
0.0
  0
LINE
  5
4B55
  8
0
 10
267.32050807568839
 20
161.25959975999851
 30
0.0
 11
232.67949192431109
 21
161.25959975999851
 31
0.0
  0
LINE
  5
4B56
  8
0
 10
241.3397459621556
 20
172.43977411069929
 30
0.0
 11
241.3397459621556
 21
161.28819955869929
 31
0.0
  0
LINE
  5
4B57
  8
0
 10
258.66025403784511
 20
161.28819955869849
 30
0.0
 11
258.66025403784511
 21
172.43977411069841
 31
0.0
  0
LINE
  5
4B58
  8
0
 10
265.0
 20
173.75959975999851
 30
0.0
 11
267.32050807568839
 21
172.43977411069841
 31
0.0
  0
LINE
  5
4B59
  8
0
 10
435.7505997642499
 20
161.2595997601
 30
0.0
 11
435.7505997642499
 21
159.987198785
 31
0.0
  0
LINE
  5
4B5A
  8
0
 10
464.24940023564977
 20
159.987198785
 30
0.0
 11
464.24940023564977
 21
161.2595997601
 31
0.0
  0
LINE
  5
4B5B
  8
0
 10
449.9999999998995
 20
172.4397741107999
 30
0.0
 11
449.9999999998995
 21
161.2595997601
 31
0.0
  0
ARC
  5
4B5C
  8
0
 10
457.5000023963425
 20
150.1078296654442
 30
0.0
 40
23.557711660029849
 50
71.435792011406505
 51
108.5642079887858
  0
ARC
  5
4B5D
  8
0
 10
442.50000239630481
 20
150.10786002985509
 30
0.0
 40
23.557681349670968
 50
71.435779549946403
 51
108.5642204500536
  0
LINE
  5
4B5E
  8
0
 10
465.00000479271063
 20
173.7595997601
 30
0.0
 11
435.00000479271051
 21
173.7595997601
 31
0.0
  0
LINE
  5
4B5F
  8
0
 10
465.00000479271063
 20
161.2595997601
 30
0.0
 11
435.00000479271051
 21
161.2595997601
 31
0.0
  0
LINE
  5
4B60
  8
0
 10
465.00000479271063
 20
173.7595997601
 30
0.0
 11
465.00000479271063
 21
161.2595997601
 31
0.0
  0
LINE
  5
4B61
  8
0
 10
435.00000479271068
 20
161.2595997601
 30
0.0
 11
435.00000479271051
 21
173.7595997601
 31
0.0
  0
LINE
  5
4B62
  8
0
 10
635.75059976424996
 20
161.2595997601
 30
0.0
 11
635.75059976425007
 21
159.987198785
 31
0.0
  0
LINE
  5
4B63
  8
0
 10
664.24940023565023
 20
159.987198785
 30
0.0
 11
664.24940023565
 21
161.2595997601
 31
0.0
  0
LINE
  5
4B64
  8
0
 10
632.67949192426136
 20
172.43977411079999
 30
0.0
 11
632.67949192426124
 21
161.2595997601
 31
0.0
  0
LINE
  5
4B65
  8
0
 10
667.32050807563871
 20
161.2595997601
 30
0.0
 11
667.32050807563849
 21
172.43977411079999
 31
0.0
  0
LINE
  5
4B66
  8
0
 10
634.99999999994986
 20
173.7595997601
 30
0.0
 11
632.67949192426136
 21
172.43977411079999
 31
0.0
  0
ARC
  5
4B67
  8
0
 10
637.00961894318436
 20
165.34019301229361
 30
0.0
 40
8.3158915201122827
 50
65.372451826156151
 51
121.37955924276569
  0
ARC
  5
4B68
  8
0
 10
662.99038105671752
 20
165.34065394815559
 30
0.0
 40
8.3154980057513264
 50
58.618787019313032
 51
114.6287911362965
  0
LINE
  5
4B69
  8
0
 10
664.99999999994998
 20
173.7595997601
 30
0.0
 11
659.52500011769996
 21
173.7595997601
 31
0.0
  0
LINE
  5
4B6A
  8
0
 10
667.32050807563849
 20
161.2595997601
 30
0.0
 11
659.52500011769996
 21
161.2595997601
 31
0.0
  0
LINE
  5
4B6B
  8
0
 10
640.47499988230015
 20
173.7595997601
 30
0.0
 11
634.99999999994986
 21
173.7595997601
 31
0.0
  0
LINE
  5
4B6C
  8
0
 10
640.47499988230015
 20
161.2595997601
 30
0.0
 11
632.67949192426124
 21
161.2595997601
 31
0.0
  0
LINE
  5
4B6D
  8
0
 10
664.99999999994998
 20
173.7595997601
 30
0.0
 11
667.32050807563883
 21
172.43977411079999
 31
0.0
  0
CIRCLE
  5
4B6E
  8
0
 10
249.9999999999998
 20
430.19149966850011
 30
0.0
 40
15.00000000000006
  0
CIRCLE
  5
4B6F
  8
0
 10
249.9999999999998
 20
430.19149966850011
 30
0.0
 40
6.3499999999976353
  0
CIRCLE
  5
4B70
  8
0
 10
249.9999999999998
 20
430.19149966850011
 30
0.0
 40
3.8099999999872121
  0
LINE
  5
4B71
  8
0
 10
241.33974596215529
 20
415.19149966850011
 30
0.0
 11
232.6794919243109
 21
430.19149966850023
 31
0.0
  0
LINE
  5
4B72
  8
0
 10
258.6602540378442
 20
445.19149966850011
 30
0.0
 11
267.32050807568862
 21
430.19149966850023
 31
0.0
  0
LINE
  5
4B73
  8
0
 10
258.6602540378442
 20
415.19149966850011
 30
0.0
 11
241.33974596215529
 21
415.19149966850011
 31
0.0
  0
LINE
  5
4B74
  8
0
 10
258.6602540378442
 20
445.19149966850011
 30
0.0
 11
241.33974596215529
 21
445.19149966850011
 31
0.0
  0
LINE
  5
4B75
  8
0
 10
267.32050807568862
 20
430.19149966850023
 30
0.0
 11
258.6602540378442
 21
415.19149966850011
 31
0.0
  0
LINE
  5
4B76
  8
0
 10
241.33974596215529
 20
445.19149966850011
 30
0.0
 11
232.6794919243109
 21
430.19149966850023
 31
0.0
  0
LINE
  5
4B77
  8
0
 10
450.00000000005002
 20
412.87099159271122
 30
0.0
 11
436.49778414600581
 21
420.6664995507
 31
0.0
  0
LINE
  5
4B78
  8
0
 10
463.50221585392092
 20
439.71649978620007
 30
0.0
 11
450.00000000005002
 21
447.51200774408869
 31
0.0
  0
LINE
  5
4B79
  8
0
 10
463.50221585409412
 20
420.6664995507
 30
0.0
 11
450.00000000004979
 21
412.87099159271122
 31
0.0
  0
LINE
  5
4B7A
  8
0
 10
450.00000000005002
 20
447.51200774408869
 30
0.0
 11
436.49778414617867
 21
439.71649978620007
 31
0.0
  0
ARC
  5
4B7B
  8
0
 10
450.0
 20
430.19149966845009
 30
0.0
 40
15.00000000000006
 50
219.41998504928381
 51
320.58001495071619
  0
ARC
  5
4B7C
  8
0
 10
450.0
 20
430.19149966845009
 30
0.0
 40
15.00000000000006
 50
39.419985049283753
 51
140.58001495071619
  0
ARC
  5
4BCB
  8
0
 10
249.99999999999989
 20
430.19149966850011
 30
0.0
 40
27.070000000049902
 50
111.3662166989586
 51
248.63378330162161
  0
ARC
  5
4BCC
  8
0
 10
249.99999999999989
 20
430.19149966850011
 30
0.0
 40
27.070000000049902
 50
291.36621669837803
 51
68.633783301041305
  0
ARC
  5
4BCD
  8
0
 10
450.0
 20
430.19149966840013
 30
0.0
 40
27.070000000049902
 50
201.36621669895769
 51
338.63378330162152
  0
ARC
  5
4BCE
  8
0
 10
450.0
 20
430.19149966840013
 30
0.0
 40
27.070000000049902
 50
21.36621669837827
 51
158.63378330104231
  0
LINE
  5
4BD6
  8
0
 10
263.61262600836119
 20
153.51020045579989
 30
0.0
 11
263.61262600836119
 21
134.8157996683999
 31
0.0
  0
LINE
  5
4BD7
  8
0
 10
236.3873739917384
 20
134.93459964250019
 30
0.0
 11
236.3873739917384
 21
134.8157996683999
 31
0.0
  0
LINE
  5
4BD8
  8
0
 10
663.61262600831139
 20
153.51020045579989
 30
0.0
 11
663.61262600831139
 21
134.8157996683999
 31
0.0
  0
LINE
  5
4BD9
  8
0
 10
636.38737399168849
 20
153.51020045579989
 30
0.0
 11
636.38737399168849
 21
134.8157996683999
 31
0.0
  0
ENDSEC
  0
EOF
