  0
SECTION
  2
HEADER
  9
$ACADVER
  1
AC1009
  9
$INSBASE
 10
0.0
 20
0.0
 30
0.0
  9
$EXTMIN
 10
0.0
 20
-2.960436562073669
 30
0.0
  9
$EXTMAX
 10
447.92821634374968
 20
448.56651841724641
 30
0.0
  9
$LIMMIN
 10
0.0
 20
0.0
  9
$LIMMAX
 10
375.0
 20
278.0
  9
$ORTHOMODE
 70
     1
  9
$REGENMODE
 70
     1
  9
$FILLMODE
 70
     1
  9
$QTEXTMODE
 70
     0
  9
$MIRRTEXT
 70
     0
  9
$DRAGMODE
 70
     2
  9
$LTSCALE
 40
10.0
  9
$OSMODE
 70
    55
  9
$ATTMODE
 70
     1
  9
$TEXTSIZE
 40
0.2
  9
$TRACEWID
 40
0.05
  9
$TEXTSTYLE
  7
STANDARD
  9
$CLAYER
  8
0
  9
$CELTYPE
  6
BYLAYER
  9
$CECOLOR
 62
   256
  9
$DIMSCALE
 40
1.0
  9
$DIMASZ
 40
3.0
  9
$DIMEXO
 40
1.0
  9
$DIMDLI
 40
6.0
  9
$DIMRND
 40
0.0
  9
$DIMDLE
 40
0.0
  9
$DIMEXE
 40
1.0
  9
$DIMTP
 40
495.0
  9
$DIMTM
 40
0.0
  9
$DIMTXT
 40
3.0
  9
$DIMCEN
 40
0.0
  9
$DIMTSZ
 40
0.0
  9
$DIMTOL
 70
     0
  9
$DIMLIM
 70
     0
  9
$DIMTIH
 70
     0
  9
$DIMTOH
 70
     0
  9
$DIMSE1
 70
     0
  9
$DIMSE2
 70
     0
  9
$DIMTAD
 70
     1
  9
$DIMZIN
 70
     0
  9
$DIMBLK
  1

  9
$DIMASO
 70
     0
  9
$DIMSHO
 70
     0
  9
$DIMPOST
  1

  9
$DIMAPOST
  1

  9
$DIMALT
 70
     0
  9
$DIMALTD
 70
     2
  9
$DIMALTF
 40
25.399999999999999
  9
$DIMLFAC
 40
1.0
  9
$DIMTOFL
 70
     1
  9
$DIMTVP
 40
0.0
  9
$DIMTIX
 70
     1
  9
$DIMSOXD
 70
     0
  9
$DIMSAH
 70
     0
  9
$DIMBLK1
  1

  9
$DIMBLK2
  1

  9
$DIMSTYLE
  2
STANDARD
  9
$DIMCLRD
 70
     0
  9
$DIMCLRE
 70
     0
  9
$DIMCLRT
 70
     4
  9
$DIMTFAC
 40
1.0
  9
$DIMGAP
 40
1.0
  9
$LUNITS
 70
     2
  9
$LUPREC
 70
     4
  9
$SKETCHINC
 40
0.1
  9
$FILLETRAD
 40
0.0
  9
$AUNITS
 70
     0
  9
$AUPREC
 70
     0
  9
$MENU
  1
C:\R13\WIN\SUPPORT\ACAD-I
  9
$ELEVATION
 40
0.0
  9
$PELEVATION
 40
0.0
  9
$THICKNESS
 40
0.0
  9
$LIMCHECK
 70
     0
  9
$BLIPMODE
 70
     0
  9
$CHAMFERA
 40
0.0
  9
$CHAMFERB
 40
0.0
  9
$SKPOLY
 70
     0
  9
$TDCREATE
 40
2450834.4199027782
  9
$TDUPDATE
 40
2456598.6894023148
  9
$TDINDWG
 40
0.2188480093
  9
$TDUSRTIMER
 40
0.2188480093
  9
$USRTIMER
 70
     1
  9
$ANGBASE
 50
0.0
  9
$ANGDIR
 70
     0
  9
$PDMODE
 70
     0
  9
$PDSIZE
 40
0.0
  9
$PLINEWID
 40
0.0
  9
$COORDS
 70
     1
  9
$SPLFRAME
 70
     0
  9
$SPLINETYPE
 70
     6
  9
$SPLINESEGS
 70
     8
  9
$ATTDIA
 70
     0
  9
$ATTREQ
 70
     1
  9
$HANDLING
 70
     1
  9
$HANDSEED
  5
10A9
  9
$SURFTAB1
 70
     6
  9
$SURFTAB2
 70
     6
  9
$SURFTYPE
 70
     6
  9
$SURFU
 70
     6
  9
$SURFV
 70
     6
  9
$UCSNAME
  2

  9
$UCSORG
 10
0.0
 20
0.0
 30
0.0
  9
$UCSXDIR
 10
1.0
 20
0.0
 30
0.0
  9
$UCSYDIR
 10
0.0
 20
1.0
 30
0.0
  9
$PUCSNAME
  2

  9
$PUCSORG
 10
0.0
 20
0.0
 30
0.0
  9
$PUCSXDIR
 10
1.0
 20
0.0
 30
0.0
  9
$PUCSYDIR
 10
0.0
 20
1.0
 30
0.0
  9
$USERI1
 70
     4
  9
$USERI2
 70
     1
  9
$USERI3
 70
     0
  9
$USERI4
 70
     0
  9
$USERI5
 70
     0
  9
$USERR1
 40
1.0
  9
$USERR2
 40
3.0
  9
$USERR3
 40
3.0
  9
$USERR4
 40
3.0
  9
$USERR5
 40
10.0
  9
$WORLDVIEW
 70
     1
  9
$SHADEDGE
 70
     3
  9
$SHADEDIF
 70
    70
  9
$TILEMODE
 70
     1
  9
$MAXACTVP
 70
    16
  9
$PLIMCHECK
 70
     0
  9
$PEXTMIN
 10
1.0000000000000000E+020
 20
1.0000000000000000E+020
 30
1.0000000000000000E+020
  9
$PEXTMAX
 10
-1.0000000000000000E+020
 20
-1.0000000000000000E+020
 30
-1.0000000000000000E+020
  9
$PLIMMIN
 10
0.0
 20
0.0
  9
$PLIMMAX
 10
12.0
 20
9.0
  9
$UNITMODE
 70
     0
  9
$VISRETAIN
 70
     0
  9
$PLINEGEN
 70
     0
  9
$PSLTSCALE
 70
     0
  0
ENDSEC
  0
SECTION
  2
TABLES
  0
TABLE
  2
VPORT
 70
     1
  0
VPORT
  2
*ACTIVE
 70
     0
 10
0.0
 20
0.0
 11
1.0
 21
1.0
 12
223.9641092147892
 22
291.28768437051389
 13
0.0
 23
0.0
 14
10.0
 24
10.0
 15
10.0
 25
10.0
 16
0.0
 26
0.0
 36
1.0
 17
0.0
 27
0.0
 37
0.0
 40
593.74800582289345
 41
1.7807262569832401
 42
50.0
 43
0.0
 44
0.0
 50
0.0
 51
0.0
 71
     0
 72
   100
 73
     1
 74
     0
 75
     0
 76
     0
 77
     0
 78
     0
  0
ENDTAB
  0
TABLE
  2
LTYPE
 70
     4
  0
LTYPE
  2
CONTINUOUS
 70
     0
  3
Solid Line
 72
    65
 73
     0
 40
0.0
  0
LTYPE
  2
CENTER
 70
     0
  3
____ _ ____ _ ____ _ ____ _ ____ _ ____ _ ____
 72
    65
 73
     4
 40
2.0
 49
1.25
 49
-0.25
 49
0.25
 49
-0.25
  0
LTYPE
  2
HIDDEN
 70
     0
  3
__ __ __ __ __ __ __ __ __ __ __ __ __ __ __ __
 72
    65
 73
     2
 40
0.375
 49
0.25
 49
-0.125
  0
LTYPE
  2
PHANTOM2
 70
     0
  3
___ _ _ ___ _ _ ___ _ _ ___ _ _
 72
    65
 73
     6
 40
1.25
 49
0.625
 49
-0.125
 49
0.125
 49
-0.125
 49
0.125
 49
-0.125
  0
ENDTAB
  0
TABLE
  2
LAYER
 70
     4
  0
LAYER
  2
0
 70
     0
 62
     7
  6
CONTINUOUS
  0
LAYER
  2
1
 70
     0
 62
     1
  6
CENTER
  0
LAYER
  2
3
 70
     0
 62
     3
  6
CONTINUOUS
  0
LAYER
  2
2
 70
     0
 62
     2
  6
HIDDEN
  0
ENDTAB
  0
TABLE
  2
STYLE
 70
     3
  0
STYLE
  2
STANDARD
 70
     0
 40
0.0
 41
1.0
 50
0.0
 71
     0
 42
0.2
  3
SIMPLEX
  4
BIGFONT
  0
STYLE
  2
ROMANS
 70
     0
 40
0.0
 41
1.0
 50
0.0
 71
     0
 42
0.18
  3
romans
  4

  0
STYLE
  2
STANDARD1
 70
     0
 40
0.0
 41
1.0
 50
0.0
 71
     0
 42
3.0
  3
txt
  4

  0
ENDTAB
  0
TABLE
  2
VIEW
 70
     0
  0
ENDTAB
  0
TABLE
  2
UCS
 70
     0
  0
ENDTAB
  0
TABLE
  2
APPID
 70
    40
  0
APPID
  2
ACAD
 70
     0
  0
APPID
  2
GENIUS_GENOBJ_13
 70
     0
  0
APPID
  2
GENIUS_GENODEF_13
 70
     0
  0
APPID
  2
GENIUS_GENOENT_13
 70
     0
  0
APPID
  2
GENIUS_GENOLIS_13
 70
     0
  0
APPID
  2
GENIUS_GENOREF_13
 70
     0
  0
APPID
  2
GENIUS_GENOBJ-N-TIT_13
 70
     0
  0
APPID
  2
GENIUS_GENTITLE_13
 70
     0
  0
APPID
  2
GENIUS_GENZVEED_13
 70
     0
  0
APPID
  2
GENIUS_GENOBJ-N-FIL_13
 70
     0
  0
APPID
  2
GENIUS_GENOBJ-N-CRS_13
 70
     0
  0
APPID
  2
GENIUS_GEFINERT_13
 70
     0
  0
APPID
  2
GENIUS_GENOBJ-F-INER_13
 70
     0
  0
APPID
  2
GENIUS_GENOBJ-N-ZOO_13
 70
     0
  0
APPID
  2
GENIUS_GENZOO_13
 70
     0
  0
APPID
  2
GENIUS_GENOBJ-F-TOL_13
 70
     0
  0
APPID
  2
GENIUS_GENOBJ-N-RSSYM_13
 70
     0
  0
APPID
  2
GENIUS_GENSYMENT_13
 70
     0
  0
APPID
  2
GENIUS_GENBH_13
 70
     0
  0
APPID
  2
GENIUS_GENOBJ-NBEHI-BHF_13
 70
     0
  0
APPID
  2
GENIUS_GENOBJ-NBEHI-BHB_13
 70
     0
  0
APPID
  2
GENIUS_GENOBJ-F-PART_13
 70
     0
  0
APPID
  2
GENIUS_GEFSTDP_13
 70
     0
  0
APPID
  2
GENIUS_GENOBJ-N-LEADER_13
 70
     0
  0
APPID
  2
GENIUS_GENOBJ-N-REV_13
 70
     0
  0
APPID
  2
GENIUS_GENCFG_13
 70
     0
  0
APPID
  2
GENIUS_GENCFG0_13
 70
     0
  0
APPID
  2
GENIUS_GENCFG1_13
 70
     0
  0
APPID
  2
GENIUS_GENCFG2_13
 70
     0
  0
APPID
  2
GENIUS_GENCFG3_13
 70
     0
  0
APPID
  2
GENIUS_GEVCFG0_13
 70
     0
  0
APPID
  2
GENIUS_GENCFG4_13
 70
     0
  0
APPID
  2
GENIUS_GENOBJ-N-REC_13
 70
     0
  0
APPID
  2
GENIUS_GENFIL_13
 70
     0
  0
APPID
  2
GENIUS_GENOBJ-N-CHA_13
 70
     0
  0
APPID
  2
GENIUS_GENREC_13
 70
     0
  0
APPID
  2
MCAD_NO_VIS
 70
     0
  0
APPID
  2
ACAD_TEMP_GRAPHIC
 70
     0
  0
APPID
  2
ACAD_MLEADERVER
 70
     0
  0
APPID
  2
ACAD_NAV_VCDISPLAY
 70
     0
  0
ENDTAB
  0
TABLE
  2
DIMSTYLE
 70
     1
  0
DIMSTYLE
  2
STANDARD
 70
     0
  3

  4

  5

  6

  7

 40
1.0
 41
0.18
 42
0.0625
 43
0.38
 44
0.18
 45
0.0
 46
0.0
 47
0.0
 48
0.0
140
0.18
141
0.09
142
0.0
143
25.399999999999999
144
1.0
145
0.0
146
1.0
147
0.09
 71
     0
 72
     0
 73
     1
 74
     1
 75
     0
 76
     0
 77
     0
 78
     0
170
     0
171
     2
172
     0
173
     0
174
     0
175
     0
176
     0
177
     0
178
     0
  0
ENDTAB
  0
ENDSEC
  0
SECTION
  2
BLOCKS
  0
BLOCK
  8
0
  2
$MODEL_SPACE
 70
     0
 10
0.0
 20
0.0
 30
0.0
  3
$MODEL_SPACE
  1

  0
ENDBLK
  5
F5F
  8
0
  0
BLOCK
 67
     1
  8
0
  2
$PAPER_SPACE
 70
     0
 10
0.0
 20
0.0
 30
0.0
  3
$PAPER_SPACE
  1

  0
ENDBLK
  5
F5D
 67
     1
  8
0
  0
BLOCK
  8
0
  2
STDGX5
 70
     0
 10
0.0
 20
0.0
 30
0.0
  3
STDGX5
  1

  0
ENDBLK
  5
4F
  8
0
  0
ENDSEC
  0
SECTION
  2
ENTITIES
  0
INSERT
  5
DE
  8
0
  2
STDGX5
 10
0.0
 20
0.0
 30
0.0
  0
INSERT
  5
DF
  8
0
  2
STDGX5
 10
0.0
 20
0.0
 30
0.0
  0
INSERT
  5
15C
  8
0
  2
STDGX5
 10
275.0
 20
0.0
 30
0.0
  0
INSERT
  5
15D
  8
0
  2
STDGX5
 10
275.0
 20
0.0
 30
0.0
  0
INSERT
  5
314
  8
0
  2
STDGX5
 10
0.0
 20
0.0
 30
0.0
  0
INSERT
  5
315
  8
0
  2
STDGX5
 10
0.0
 20
0.0
 30
0.0
  0
INSERT
  5
316
  8
0
  2
STDGX5
 10
275.0
 20
0.0
 30
0.0
  0
INSERT
  5
317
  8
0
  2
STDGX5
 10
275.0
 20
0.0
 30
0.0
  0
INSERT
  5
4EF
  8
0
  2
STDGX5
 10
0.0
 20
0.0
 30
0.0
  0
INSERT
  5
4F0
  8
0
  2
STDGX5
 10
0.0
 20
0.0
 30
0.0
  0
INSERT
  5
4F1
  8
0
  2
STDGX5
 10
275.0
 20
0.0
 30
0.0
  0
INSERT
  5
4F2
  8
0
  2
STDGX5
 10
275.0
 20
0.0
 30
0.0
  0
LINE
  5
E6B
  8
0
 10
308.31283172836783
 20
441.96395431468233
 30
0.0
 11
411.08417777403952
 21
441.96395431468233
 31
0.0
  0
LINE
  5
E6C
  8
0
 10
308.31283172836783
 20
342.60497995570802
 30
0.0
 11
411.08417777403952
 21
342.60497995570802
 31
0.0
  0
ARC
  5
E6D
  8
0
 10
396.2304136185773
 20
406.70754405827211
 30
0.0
 40
19.23076923076923
 50
26.743683950403408
 51
89.999999999998394
  0
ARC
  5
E6E
  8
0
 10
396.2304136185773
 20
377.86139021211829
 30
0.0
 40
19.23076923076923
 50
270.0
 51
333.25631604959898
  0
LINE
  5
E6F
  8
0
 10
267.95718727753041
 20
386.02048666701018
 30
0.0
 11
274.95052746125072
 21
386.02048666701018
 31
0.0
  0
LINE
  5
E70
  8
0
 10
274.95052746125072
 20
398.13330717983058
 30
0.0
 11
267.95718727753041
 21
398.13330717983058
 31
0.0
  0
CIRCLE
  5
E71
  8
0
 10
271.45385736939062
 20
392.07689692342041
 30
0.0
 40
7.2115384615384608
  0
TEXT
  5
E72
  8
3
 10
263.93731811610542
 20
374.28822655330441
 30
0.0
 40
3.0769230769230771
  1
140 N m
 41
0.9
 72
     1
 11
272.1922631710504
 21
374.28822655330441
 31
0.0
  0
TEXT
  5
E73
  8
3
 10
263.17253868807188
 20
406.31781816387331
 30
0.0
 40
3.0769230769230771
  1
3050 Kg
 41
0.9
 72
     1
 11
271.45385736939062
 21
406.31781816387331
 31
0.0
  0
TEXT
  5
E74
  8
3
 10
261.35275846829171
 20
401.31890711460397
 30
0.0
 40
3.0769230769230771
  1
M24 X 3.0
 41
0.9
 72
     1
 11
271.45385736939062
 21
401.31890711460397
 31
0.0
  0
TEXT
  5
E75
  8
3
 10
264.41204339083072
 20
379.62153452852982
 30
0.0
 40
3.0769230769230771
  1
TORQUE
 41
0.9
 72
     1
 11
272.1922631710504
 21
379.62153452852982
 31
0.0
  0
LINE
  5
E76
  8
0
 10
316.32565224118542
 20
420.92305076957427
 30
0.0
 11
244.65898557451979
 21
420.92305076957712
 31
0.0
  0
LINE
  5
E77
  8
0
 10
316.32565224118542
 20
363.23074307726648
 30
0.0
 11
244.65898557451979
 21
363.23074307726802
 31
0.0
  0
LINE
  5
E78
  8
0
 10
283.86726553030928
 20
369.64099948752153
 30
0.0
 11
259.04044920846889
 21
369.64099948752443
 31
0.0
  0
LINE
  5
E79
  8
0
 10
259.0404492084719
 20
414.51279435932071
 30
0.0
 11
283.86726553031218
 21
414.51279435931781
 31
0.0
  0
CIRCLE
  5
E7A
  8
0
 10
271.45385736939062
 20
392.07689692342041
 30
0.0
 40
22.435897435897949
  0
LINE
  5
E7B
  8
0
 10
242.60770352323669
 20
365.28202512854972
 30
0.0
 11
242.60770352323669
 21
418.87176871829553
 31
0.0
  0
LINE
  5
E7C
  8
0
 10
258.23050431365851
 20
370.10862139057139
 30
0.0
 11
245.81709615273971
 21
391.60927502037629
 31
0.0
  0
LINE
  5
E7D
  8
0
 10
244.65898557451979
 20
363.23074307726802
 30
0.0
 11
242.60770352323669
 21
365.28202512854972
 31
0.0
  0
ARC
  5
E7E
  8
0
 10
271.45385736939062
 20
392.07689692342041
 30
0.0
 40
25.64102564102539
 50
238.95502437185499
 51
241.044975628141
  0
LINE
  5
E7F
  8
0
 10
267.95718727753041
 20
398.13330717983058
 30
0.0
 11
264.46051718566741
 21
392.07689692342041
 31
0.0
  0
ARC
  5
E80
  8
0
 10
271.45385736939062
 20
392.07689692342041
 30
0.0
 40
25.64102564102539
 50
178.9550243718549
 51
181.04497562814089
  0
LINE
  5
E81
  8
0
 10
264.46051718566741
 20
392.07689692342041
 30
0.0
 11
267.95718727753041
 21
386.02048666701018
 31
0.0
  0
LINE
  5
E82
  8
0
 10
245.81709615273971
 20
392.54451882646879
 30
0.0
 11
258.2305043136642
 21
414.0451724562738
 31
0.0
  0
ARC
  5
E83
  8
0
 10
271.45385736939062
 20
392.07689692342041
 30
0.0
 40
25.64102564102539
 50
118.955024371856
 51
121.044975628141
  0
LINE
  5
E84
  8
0
 10
244.65898557451979
 20
420.92305076957712
 30
0.0
 11
242.60770352323669
 21
418.87176871829553
 31
0.0
  0
LINE
  5
E85
  8
0
 10
316.32565224118542
 20
420.92305076957427
 30
0.0
 11
316.32565224118542
 21
363.23074307726648
 31
0.0
  0
LINE
  5
E86
  8
0
 10
306.71026762580078
 20
420.92305076957427
 30
0.0
 11
306.71026762580078
 21
363.23074307726648
 31
0.0
  0
LINE
  5
E87
  8
0
 10
311.51795993349612
 20
358.63062098134901
 30
0.0
 11
396.2304136185773
 21
358.63062098134901
 31
0.0
  0
LINE
  5
E88
  8
0
 10
297.09061858604139
 20
391.60927502037202
 30
0.0
 11
284.67721042511681
 21
370.10862139056849
 31
0.0
  0
ARC
  5
E89
  8
0
 10
311.51795993349612
 20
365.04087739160542
 30
0.0
 40
6.4102564102564097
 50
196.4023589554524
 51
270.0
  0
ARC
  5
E8A
  8
0
 10
308.31283172836783
 20
361.83574918647719
 30
0.0
 40
19.23076923076923
 50
180.0
 51
270.0
  0
ARC
  5
E8B
  8
0
 10
271.45385736939062
 20
392.07689692342041
 30
0.0
 40
25.64102564102539
 50
298.95502437185598
 51
301.044975628141
  0
LINE
  5
E8C
  8
0
 10
289.0820624975986
 20
363.23074307726802
 30
0.0
 11
289.0820624975986
 21
361.83574918647719
 31
0.0
  0
LINE
  5
E8D
  8
0
 10
278.44719755311371
 20
392.07689692342041
 30
0.0
 11
274.95052746125072
 21
398.13330717983058
 31
0.0
  0
ARC
  5
E8E
  8
3
 10
290.82699338633978
 20
392.02206920573877
 30
0.0
 40
1.7551282051282051
 50
90.0
 51
167.3415880109894
  0
ARC
  5
E8F
  8
3
 10
290.82699338633978
 20
392.02206920573877
 30
0.0
 40
2.5243589743589738
 50
90.0
 51
270.0
  0
ARC
  5
E90
  8
3
 10
286.54750620685422
 20
392.02206920573877
 30
0.0
 40
1.7551282051282051
 50
90.0
 51
270.0
  0
ARC
  5
E91
  8
3
 10
286.54750620685422
 20
392.02206920573877
 30
0.0
 40
2.5243589743589738
 50
90.0
 51
270.0
  0
ARC
  5
E92
  8
3
 10
271.45385736939062
 20
392.07689692342041
 30
0.0
 40
25.64102564102539
 50
358.95502437185598
 51
1.044975628140749
  0
CIRCLE
  5
E93
  8
3
 10
277.04455517533643
 20
375.88332966862038
 30
0.0
 40
0.4547693533305474
  0
LINE
  5
E94
  8
0
 10
274.95052746125072
 20
386.02048666701018
 30
0.0
 11
278.44719755311371
 21
392.07689692342041
 31
0.0
  0
LINE
  5
E95
  8
3
 10
286.54750620685422
 20
390.26694100060951
 30
0.0
 11
286.54750620685422
 21
389.49771023137941
 31
0.0
  0
LINE
  5
E96
  8
3
 10
289.11452556989639
 20
392.40668459035379
 30
0.0
 11
290.44237800172482
 21
392.40668459035379
 31
0.0
  0
LINE
  5
E97
  8
3
 10
289.11452556989639
 20
391.63745382112228
 30
0.0
 11
290.44237800172482
 21
391.6374538211237
 31
0.0
  0
LINE
  5
E98
  8
3
 10
290.44237800172482
 20
391.6374538211237
 30
0.0
 11
290.44237800172482
 21
392.40668459035379
 31
0.0
  0
LINE
  5
E99
  8
3
 10
290.82699338633978
 20
390.26694100060951
 30
0.0
 11
290.82699338633978
 21
389.49771023137941
 31
0.0
  0
ARC
  5
E9A
  8
3
 10
290.82699338633978
 20
392.02206920573877
 30
0.0
 40
1.7551282051282051
 50
192.6584119890106
 51
270.0
  0
LINE
  5
E9B
  8
0
 10
284.67721042512272
 20
414.04517245626931
 30
0.0
 11
297.09061858604139
 21
392.54451882646441
 31
0.0
  0
LINE
  5
E9C
  8
3
 10
286.54750620685422
 20
393.77719741086662
 30
0.0
 11
286.54750620685422
 21
394.5464281800966
 31
0.0
  0
ARC
  5
E9D
  8
0
 10
271.45385736939062
 20
392.07689692342041
 30
0.0
 40
25.64102564102539
 50
58.955024371855409
 51
61.044975628140712
  0
LINE
  5
E9E
  8
3
 10
290.82699338633978
 20
393.77719741086662
 30
0.0
 11
290.82699338633978
 21
394.5464281800966
 31
0.0
  0
LINE
  5
E9F
  8
0
 10
311.51795993349612
 20
425.93831328904128
 30
0.0
 11
396.2304136185773
 21
425.93831328904128
 31
0.0
  0
ARC
  5
EA0
  8
0
 10
308.31283172836783
 20
422.7331850839131
 30
0.0
 40
19.23076923076923
 50
90.0
 51
180.0
  0
ARC
  5
EA1
  8
0
 10
311.51795993349612
 20
419.52805687878492
 30
0.0
 40
6.4102564102564097
 50
90.0
 51
167.43077345170451
  0
LINE
  5
EA2
  8
0
 10
289.0820624975986
 20
422.7331850839131
 30
0.0
 11
289.0820624975986
 21
420.9230507695757
 31
0.0
  0
ARC
  5
EA3
  8
0
 10
367.60770352323669
 20
392.2844671351952
 30
0.0
 40
75.320512820512803
 50
331.06147225982107
 51
28.93852774018092
  0
ARC
  5
EA4
  8
0
 10
367.60770352323669
 20
392.2844671351952
 30
0.0
 40
51.282051282051277
 50
333.25631604959898
 51
26.743683950403408
  0
TEXT
  5
EA5
  8
3
 10
424.04494541196459
 20
371.68943125567142
 30
0.0
 40
6.4102564102564097
  1
S
 50
247.0395860429428
  7
ROMANS
 72
     1
 11
422.85417907426381
 21
368.87876400134559
 31
0.0
  0
ARC
  5
EA6
  8
0
 10
411.08417777403952
 20
368.2460055967336
 30
0.0
 40
25.641025641025639
 50
269.99999999999801
 51
331.06147225982107
  0
TEXT
  5
EA7
  8
3
 10
427.59063778547812
 20
395.79451615236269
 30
0.0
 40
6.4102564102564097
  1
G
 50
270.29121871558488
  7
ROMANS
 72
     1
 11
427.60692850197103
 21
392.58942934794322
 31
0.0
  0
TEXT
  5
EA8
  8
3
 10
426.3869072121571
 20
379.7832783394154
 30
0.0
 40
6.4102564102564097
  1
N
 50
254.7901302671568
  7
ROMANS
 72
     1
 11
425.50598246052721
 21
376.54314266425149
 31
0.0
  0
TEXT
  5
EA9
  8
3
 10
427.51603708607269
 20
387.67313147887319
 30
0.0
 40
6.4102564102564097
  1
E
 50
262.54067449137102
  7
ROMANS
 72
     1
 11
427.09993987800112
 21
384.49512740009311
 31
0.0
  0
TEXT
  5
EAA
  8
3
 10
426.5479527881501
 20
404.00289382999108
 30
0.0
 40
6.4102564102564097
  1
R
 50
278.04176293979913
  7
ROMANS
 72
     1
 11
427.01768526137693
 21
400.67815940223602
 31
0.0
  0
TEXT
  5
EAB
  8
3
 10
424.47069706913732
 20
411.69767943533492
 30
0.0
 40
6.4102564102564097
  1
E
 50
285.79230716401321
  7
ROMANS
 72
     1
 11
425.34297608222391
 21
408.61353026017542
 31
0.0
  0
ARC
  5
EAC
  8
0
 10
411.08417777403952
 20
416.32292867365669
 30
0.0
 40
25.641025641025639
 50
28.93852774018098
 51
89.999999999998394
  0
TEXT
  5
EAD
  8
3
 10
421.7599059709612
 20
418.20944890480303
 30
0.0
 40
6.4102564102564097
  1
J
 50
293.54285138822718
  7
ROMANS
 72
     1
 11
422.6133991858448
 21
416.25055660912602
 31
0.0
  0
LINE
  5
EAE
  8
0
 10
297.0948830104191
 20
222.1954770698332
 30
0.0
 11
434.91538867009831
 21
222.1954770698317
 31
0.0
  0
LINE
  5
EAF
  8
0
 10
297.0948830104191
 20
206.16983604419801
 30
0.0
 11
434.91538914703779
 21
206.1698360441965
 31
0.0
  0
LINE
  5
EB0
  8
0
 10
247.41539583093481
 20
188.17304117239061
 30
0.0
 11
295.49231890785791
 21
188.17304117239061
 31
0.0
  0
ARC
  5
EB1
  8
0
 10
271.45385736939642
 20
331.53005887985103
 30
0.0
 40
98.116633092074935
 50
262.41365601261998
 51
277.58634398737962
  0
ARC
  5
EB2
  8
0
 10
271.45385736939642
 20
148.1173055162138
 30
0.0
 40
98.116633092074935
 50
82.413656012620208
 51
97.586343987379777
  0
LINE
  5
EB3
  8
0
 10
259.45385736939738
 20
141.93906681341571
 30
0.0
 11
283.45385736939539
 21
141.93906681341721
 31
0.0
  0
LINE
  5
EB4
  8
0
 10
247.81603685657589
 20
187.77240014674811
 30
0.0
 11
295.09167788221691
 21
187.77240014675101
 31
0.0
  0
LINE
  5
EB5
  8
2
 10
264.4605171856702
 20
245.62304462354069
 30
0.0
 11
278.44719755311672
 21
245.62304462354069
 31
0.0
  0
LINE
  5
EB6
  8
2
 10
264.4605171856702
 20
238.2852206595708
 30
0.0
 11
278.44719755311672
 21
238.2852206595708
 31
0.0
  0
LINE
  5
EB7
  8
0
 10
288.47949839503713
 20
205.59291296726221
 30
0.0
 11
242.6145732226999
 21
205.59291296726221
 31
0.0
  0
LINE
  5
EB8
  8
0
 10
288.47949839503713
 20
222.7724001467499
 30
0.0
 11
242.6145732226999
 21
222.7724001467499
 31
0.0
  0
LINE
  5
EB9
  8
0
 10
261.7615496770876
 20
139.63137450572401
 30
0.0
 11
281.14616506170228
 21
139.63137450572401
 31
0.0
  0
LINE
  5
EBA
  8
0
 10
247.41539583093481
 20
194.182656557006
 30
0.0
 11
295.49231890785791
 21
194.182656557006
 31
0.0
  0
LINE
  5
EBB
  8
0
 10
244.21026762580371
 20
233.41342578777599
 30
0.0
 11
305.06052844067261
 21
233.41342578777599
 31
0.0
  0
LINE
  5
EBC
  8
0
 10
244.21026762580371
 20
194.95188732623899
 30
0.0
 11
305.06052844066971
 21
194.95188732623751
 31
0.0
  0
LINE
  5
EBD
  8
0
 10
297.0948804420089
 20
204.5672719416221
 30
0.0
 11
244.21026762580371
 21
204.5672719416207
 31
0.0
  0
LINE
  5
EBE
  8
0
 10
297.09488160656451
 20
223.79804117239141
 30
0.0
 11
244.21026762580371
 21
223.79804117239141
 31
0.0
  0
LINE
  5
EBF
  8
0
 10
249.01795993349609
 20
246.23393860828881
 30
0.0
 11
293.88975480529382
 21
246.23393860828881
 31
0.0
  0
LINE
  5
EC0
  8
3
 10
261.38206249760242
 20
140.01086168521061
 30
0.0
 11
261.38206249760242
 21
187.77240014674959
 31
0.0
  0
LINE
  5
EC1
  8
0
 10
259.45385736939738
 20
141.93906681341571
 30
0.0
 11
259.45385736939738
 21
187.77240014674959
 31
0.0
  0
LINE
  5
EC2
  8
0
 10
259.45385736939738
 20
141.93906681341571
 30
0.0
 11
261.7615496770876
 21
139.63137450572401
 31
0.0
  0
LINE
  5
EC3
  8
0
 10
242.6145732226999
 20
222.7724001467499
 30
0.0
 11
242.6145732226999
 21
205.59291296726221
 31
0.0
  0
ARC
  5
EC4
  8
0
 10
244.21026762580371
 20
196.55445142880021
 30
0.0
 40
1.602564102564102
 50
180.0
 51
270.0000000000021
  0
LINE
  5
EC5
  8
0
 10
247.41539583093481
 20
188.17304117239061
 30
0.0
 11
247.41539583093481
 21
194.182656557006
 31
0.0
  0
LINE
  5
EC6
  8
0
 10
247.81603685657589
 20
187.77240014674959
 30
0.0
 11
247.41539583093481
 21
188.17304117239061
 31
0.0
  0
ARC
  5
EC7
  8
0
 10
254.65257531811369
 20
194.9839386082881
 30
0.0
 40
0.8012820512820512
 50
270.0
 51
0.0
  0
LINE
  5
EC8
  8
0
 10
242.60770352323959
 20
196.55445142880021
 30
0.0
 11
242.60770352323959
 21
202.96470783905659
 31
0.0
  0
ARC
  5
EC9
  8
0
 10
244.21026762580371
 20
202.96470783905659
 30
0.0
 40
1.602564102564102
 50
90.000000000001833
 51
180.0
  0
LINE
  5
ECA
  8
0
 10
255.45385736939579
 20
205.59291296726221
 30
0.0
 11
255.45385736939579
 21
204.5672719416207
 31
0.0
  0
LINE
  5
ECB
  8
0
 10
258.50048594526493
 20
245.37512709408711
 30
0.0
 11
258.50048594526493
 21
234.2722373019777
 31
0.0
  0
LINE
  5
ECC
  8
2
 10
267.95718727753331
 20
245.62304462354069
 30
0.0
 11
267.95718727753331
 21
238.2852206595708
 31
0.0
  0
LINE
  5
ECD
  8
2
 10
264.4605171856702
 20
245.6230446235422
 30
0.0
 11
264.4605171856702
 21
238.2852206595708
 31
0.0
  0
LINE
  5
ECE
  8
0
 10
245.8128317283678
 20
234.2722373019792
 30
0.0
 11
245.8128317283678
 21
245.37512709408711
 31
0.0
  0
ARC
  5
ECF
  8
0
 10
252.1579108491847
 20
257.26372086936527
 30
0.0
 40
23.850295081588438
 50
270.00000000000051
 51
285.42238565245839
  0
LINE
  5
ED0
  8
0
 10
242.60770352323959
 20
225.40060527495689
 30
0.0
 11
242.60770352323959
 21
231.8108616852119
 31
0.0
  0
ARC
  5
ED1
  8
0
 10
244.21026762580371
 20
225.40060527495689
 30
0.0
 40
1.602564102564102
 50
179.9999999999977
 51
269.99999999999801
  0
LINE
  5
ED2
  8
0
 10
249.01795993349609
 20
233.41342578777599
 30
0.0
 11
245.8128317283678
 21
234.2722373019792
 31
0.0
  0
ARC
  5
ED3
  8
0
 10
244.21026762580371
 20
231.8108616852119
 30
0.0
 40
1.602564102564102
 50
90.0
 51
179.9999999999977
  0
LINE
  5
ED4
  8
0
 10
255.45385736939579
 20
223.79804117239141
 30
0.0
 11
255.45385736939579
 21
222.7724001467499
 31
0.0
  0
ARC
  5
ED5
  8
0
 10
252.1579108491847
 20
222.38364352670101
 30
0.0
 40
23.850295081588438
 50
74.577614347541314
 51
89.999999999999275
  0
LINE
  5
ED6
  8
0
 10
249.01795993349609
 20
246.23393860828881
 30
0.0
 11
245.8128317283678
 21
245.37512709408711
 31
0.0
  0
LINE
  5
ED7
  8
2
 10
263.8496232009266
 20
246.23393860828881
 30
0.0
 11
264.46051718567321
 21
245.62304462354069
 31
0.0
  0
LINE
  5
ED8
  8
0
 10
283.45385736939539
 20
141.93906681341721
 30
0.0
 11
283.45385736939539
 21
187.77240014674959
 31
0.0
  0
LINE
  5
ED9
  8
3
 10
281.52565224119041
 20
140.01086168521061
 30
0.0
 11
281.52565224119041
 21
187.77240014674959
 31
0.0
  0
LINE
  5
EDA
  8
1
 10
271.45385736939642
 20
134.63137450572401
 30
0.0
 11
271.45385736939642
 21
251.2339386082889
 31
0.0
  0
LINE
  5
EDB
  8
0
 10
283.45385736939539
 20
141.93906681341721
 30
0.0
 11
281.14616506170228
 21
139.63137450572401
 31
0.0
  0
ARC
  5
EDC
  8
2
 10
297.0948830104191
 20
214.1826565570083
 30
0.0
 40
9.6153846153846168
 50
303.55730976203853
 51
56.442690238132784
  0
ARC
  5
EDD
  8
2
 10
297.0948830104191
 20
214.1826565570083
 30
0.0
 40
8.0128205128205128
 50
269.99999999999937
 51
89.999999999999204
  0
LINE
  5
EDE
  8
0
 10
288.47949839503713
 20
222.7724001467499
 30
0.0
 11
288.47949839503713
 21
205.59291296726221
 31
0.0
  0
LINE
  5
EDF
  8
2
 10
316.32565224118832
 20
206.2170111267562
 30
0.0
 11
316.32565224118832
 21
222.14830198725889
 31
0.0
  0
ARC
  5
EE0
  8
0
 10
297.0948830104191
 20
214.1826565570083
 30
0.0
 40
8.0128205128205128
 50
89.999999999999346
 51
269.9999999999992
  0
LINE
  5
EE1
  8
0
 10
305.06052844066971
 20
194.95188732623751
 30
0.0
 11
316.32565224118832
 21
206.2170111267562
 31
0.0
  0
ARC
  5
EE2
  8
0
 10
288.25513942067897
 20
194.9839386082881
 30
0.0
 40
0.8012820512820512
 50
180.00000000000099
 51
270.0
  0
LINE
  5
EE3
  8
0
 10
295.49231890785791
 20
194.182656557006
 30
0.0
 11
295.49231890785791
 21
188.17304117239061
 31
0.0
  0
LINE
  5
EE4
  8
0
 10
295.49231890785791
 20
188.17304117239061
 30
0.0
 11
295.09167788221691
 21
187.77240014674959
 31
0.0
  0
LINE
  5
EE5
  8
0
 10
287.45385736939699
 20
205.59291296726221
 30
0.0
 11
287.45385736939699
 21
204.5672719416221
 31
0.0
  0
ARC
  5
EE6
  8
0
 10
297.0948830104191
 20
214.1826565570083
 30
0.0
 40
9.6153846153846168
 50
269.99998469545
 51
303.55730976203853
  0
LINE
  5
EE7
  8
0
 10
305.06052844067261
 20
233.41342578777599
 30
0.0
 11
316.32565224118832
 21
222.14830198725889
 31
0.0
  0
LINE
  5
EE8
  8
0
 10
284.40722879352489
 20
245.37512709408711
 30
0.0
 11
284.40722879352489
 21
234.2722373019777
 31
0.0
  0
LINE
  5
EE9
  8
2
 10
278.44719755311672
 20
245.62304462354069
 30
0.0
 11
278.44719755311672
 21
238.2852206595708
 31
0.0
  0
LINE
  5
EEA
  8
2
 10
274.95052746125651
 20
245.62304462354069
 30
0.0
 11
274.95052746125651
 21
238.2852206595708
 31
0.0
  0
LINE
  5
EEB
  8
0
 10
297.0948830104191
 20
234.2722373019777
 30
0.0
 11
297.0948830104191
 21
245.37512709408711
 31
0.0
  0
ARC
  5
EEC
  8
0
 10
290.74980388960807
 20
257.26372086936391
 30
0.0
 40
23.850295081588438
 50
254.5776143475403
 51
269.99999999999829
  0
LINE
  5
EED
  8
0
 10
287.45385736939699
 20
223.79804117239141
 30
0.0
 11
287.45385736939699
 21
222.7724001467499
 31
0.0
  0
ARC
  5
EEE
  8
0
 10
297.0948830104191
 20
214.1826565570083
 30
0.0
 40
9.6153846153846168
 50
56.442690238132784
 51
90.000008365239225
  0
LINE
  5
EEF
  8
0
 10
293.88975480529092
 20
233.41342578777599
 30
0.0
 11
297.0948830104191
 21
234.2722373019777
 31
0.0
  0
ARC
  5
EF0
  8
0
 10
290.74980388960807
 20
222.38364352670101
 30
0.0
 40
23.850295081588438
 50
90.000000000001506
 51
105.4223856524595
  0
LINE
  5
EF1
  8
2
 10
279.05809153786618
 20
246.23393860828881
 30
0.0
 11
278.44719755311672
 21
245.62304462354069
 31
0.0
  0
LINE
  5
EF2
  8
0
 10
293.88975480529382
 20
246.23393860828881
 30
0.0
 11
297.0948830104191
 21
245.37512709408711
 31
0.0
  0
ARC
  5
EF3
  8
2
 10
426.90256099644398
 20
214.1826565570112
 30
0.0
 40
8.0128205128205128
 50
89.999948796353593
 51
270.00004813950801
  0
ARC
  5
EF4
  8
0
 10
434.91538914703779
 20
214.1826565570112
 30
0.0
 40
8.0128205128205128
 50
269.99995186049199
 51
90.000051203646379
  0
LINE
  5
EF9
  8
1
 10
447.9282096598584
 20
214.1826565570083
 30
0.0
 11
284.0820624975986
 21
214.1826565570083
 31
0.0
  0
LINE
  5
EFA
  8
1
 10
297.0948830104191
 20
227.1954770698288
 30
0.0
 11
297.0948830104191
 21
201.1698360441878
 31
0.0
  0
LINE
  5
EFC
  8
1
 10
447.92821634374968
 20
392.2844671351952
 30
0.0
 11
237.60770352323669
 21
392.28446713519531
 31
0.0
  0
LINE
  5
EFD
  8
1
 10
367.60770352323669
 20
448.56651841724641
 30
0.0
 11
367.60770352323669
 21
336.00241585314387
 31
0.0
  0
TEXT
  5
1012
  8
0
 62
     3
 10
0.0
 20
0.0
 30
0.0
 40
10.0
  1
HR24SP
  7
STANDARD1
  0
ENDSEC
  0
EOF
